  0
SECTION
  2
HEADER
  9
$LTSCALE
 40
1.000000
  9
$LUNITS
 70
2
  9
$LUPREC
 70
4
  9
$AUNITS
 70
1
  9
$AUPREC
 70
4
  9
$FILLMODE
 70
1
  0
ENDSEC
  0
SECTION
  2
TABLES
  0
TABLE
  2
VPORT
 70
0
  0
ENDTAB
  0
TABLE
  2
LTYPE
 70
1
  0
LTYPE
  2
CONTINUOUS
 70
64
  3
Solid line
 72
65
 73
0
 40
0.000000
  0
ENDTAB
  0
TABLE
  2
LAYER
 70
1
  0
LAYER
  2
0
 62
1
  6
CONTINUOUS
 70
64
  0
ENDTAB
  0
TABLE
  2
STYLE
 70
1
  0
STYLE
  2
STANDARD
 70
64
 40
0.000000
 41
1.000000
 50
0.000000
 71
0
 42
2.000000
  3
txt
  4

  0
ENDTAB
  0
TABLE
  2
VIEW
 70
0
  0
ENDTAB
  0
TABLE
  2
UCS
 70
0
  0
ENDTAB
  0
TABLE
  2
APPID
 70
0
  0
ENDTAB
  0
TABLE
  2
DIMSTYLE
 70
1
  0
DIMSTYLE
  2
STANDARD
 70
0
  3

  4

  5

  6

  7

 40
1.000000
 41
3.000000
 42
2.500000
 43
10.000000
 44
2.500000
 45
0.000000
 46
1.250000
 47
0.000000
 48
0.000000
140
3.000000
141
-3.000000
142
0.000000
143
0.039000
144
1.000000
145
1.500000
146
0.750000
147
1.500000
 71
0
 72
0
 73
0
 74
0
 75
0
 76
0
 77
0
 78
0
170
0
171
0
172
0
173
0
174
0
175
0
176
0
177
0
178
0
  0
ENDTAB
  0
ENDSEC
  0
SECTION
  2
ENTITIES
  0
POINT
  8
parque_infantil
  6
BYLAYER
 10
-9.434802
 20
38.710382
 50
0.638546
  0
POINT
  8
parque_infantil
  6
BYLAYER
 10
-9.385186
 20
38.728907
 50
0.614312
  0
POINT
  8
parque_infantil
  6
BYLAYER
 10
-9.406061
 20
38.734196
 50
0.624571
  0
POINT
  8
parque_infantil
  6
BYLAYER
 10
-9.407942
 20
38.732338
 50
0.000000
  0
POLYLINE
  8
parque_infantil
  6
BYLAYER
 66
1
 70
1
 40
0.000000
 41
0.000000
  0
VERTEX
  8
parque_infantil
 10
-9.407923
 20
38.732384
  0
VERTEX
  8
parque_infantil
 10
-9.407886
 20
38.732346
  0
VERTEX
  8
parque_infantil
 10
-9.407962
 20
38.732306
  0
VERTEX
  8
parque_infantil
 10
-9.407998
 20
38.732339
  0
VERTEX
  8
parque_infantil
 10
-9.407923
 20
38.732384
  0
SEQEND
  0
POINT
  8
parque_infantil
  6
BYLAYER
 10
-9.396218
 20
38.754194
 50
0.619839
  0
POINT
  8
parque_infantil
  6
BYLAYER
 10
-9.408813
 20
38.704610
 50
0.000000
  0
POLYLINE
  8
parque_infantil
  6
BYLAYER
 66
1
 70
1
 40
0.000000
 41
0.000000
  0
VERTEX
  8
parque_infantil
 10
-9.408788
 20
38.704503
  0
VERTEX
  8
parque_infantil
 10
-9.408877
 20
38.704618
  0
VERTEX
  8
parque_infantil
 10
-9.408893
 20
38.704612
  0
VERTEX
  8
parque_infantil
 10
-9.408949
 20
38.704683
  0
VERTEX
  8
parque_infantil
 10
-9.408849
 20
38.704733
  0
VERTEX
  8
parque_infantil
 10
-9.408690
 20
38.704543
  0
VERTEX
  8
parque_infantil
 10
-9.408788
 20
38.704503
  0
SEQEND
  0
POINT
  8
parque_infantil
  6
BYLAYER
 10
-9.374010
 20
38.700475
 50
0.608700
  0
POLYLINE
  8
parque_infantil
  6
BYLAYER
 66
1
 70
1
 40
0.000000
 41
0.000000
  0
VERTEX
  8
parque_infantil
 10
-9.374073
 20
38.700400
  0
VERTEX
  8
parque_infantil
 10
-9.374182
 20
38.700580
  0
VERTEX
  8
parque_infantil
 10
-9.373924
 20
38.700608
  0
VERTEX
  8
parque_infantil
 10
-9.373850
 20
38.700440
  0
VERTEX
  8
parque_infantil
 10
-9.374073
 20
38.700400
  0
SEQEND
  0
POINT
  8
parque_infantil
  6
BYLAYER
 10
-9.371444
 20
38.698848
 50
0.000000
  0
POLYLINE
  8
parque_infantil
  6
BYLAYER
 66
1
 70
1
 40
0.000000
 41
0.000000
  0
VERTEX
  8
parque_infantil
 10
-9.371567
 20
38.698818
  0
VERTEX
  8
parque_infantil
 10
-9.371469
 20
38.698933
  0
VERTEX
  8
parque_infantil
 10
-9.371318
 20
38.698856
  0
VERTEX
  8
parque_infantil
 10
-9.371412
 20
38.698743
  0
VERTEX
  8
parque_infantil
 10
-9.371567
 20
38.698818
  0
SEQEND
  0
POINT
  8
parque_infantil
  6
BYLAYER
 10
-9.355641
 20
38.706659
 50
0.599725
  0
POINT
  8
parque_infantil
  6
BYLAYER
 10
-9.352845
 20
38.705189
 50
0.598348
  0
POINT
  8
parque_infantil
  6
BYLAYER
 10
-9.421543
 20
38.716721
 50
0.632077
  0
POINT
  8
parque_infantil
  6
BYLAYER
 10
-9.329577
 20
38.689849
 50
0.586874
  0
POINT
  8
parque_infantil
  6
BYLAYER
 10
-9.329081
 20
38.683644
 50
0.586604
  0
POINT
  8
parque_infantil
  6
BYLAYER
 10
-9.332934
 20
38.689335
 50
0.588517
  0
POINT
  8
parque_infantil
  6
BYLAYER
 10
-9.345114
 20
38.683124
 50
0.594458
  0
POLYLINE
  8
parque_infantil
  6
BYLAYER
 66
1
 70
1
 40
0.000000
 41
0.000000
  0
VERTEX
  8
parque_infantil
 10
-9.345071
 20
38.683025
  0
VERTEX
  8
parque_infantil
 10
-9.345146
 20
38.683025
  0
VERTEX
  8
parque_infantil
 10
-9.345189
 20
38.683050
  0
VERTEX
  8
parque_infantil
 10
-9.345242
 20
38.683196
  0
VERTEX
  8
parque_infantil
 10
-9.345130
 20
38.683232
  0
VERTEX
  8
parque_infantil
 10
-9.345022
 20
38.683079
  0
VERTEX
  8
parque_infantil
 10
-9.345071
 20
38.683025
  0
SEQEND
  0
POINT
  8
parque_infantil
  6
BYLAYER
 10
-9.328515
 20
38.702037
 50
0.586409
  0
POINT
  8
parque_infantil
  6
BYLAYER
 10
-9.429172
 20
38.704279
 50
0.635756
  0
POINT
  8
parque_infantil
  6
BYLAYER
 10
-9.441700
 20
38.704136
 50
0.641897
  0
POINT
  8
parque_infantil
  6
BYLAYER
 10
-9.436298
 20
38.698712
 50
0.639222
  0
POINT
  8
parque_infantil
  6
BYLAYER
 10
-9.422533
 20
38.711463
 50
0.632537
  0
POINT
  8
parque_infantil
  6
BYLAYER
 10
-9.449918
 20
38.726697
 50
0.646036
  0
POINT
  8
parque_infantil
  6
BYLAYER
 10
-9.374176
 20
38.706727
 50
0.608811
  0
POLYLINE
  8
parque_infantil
  6
BYLAYER
 66
1
 70
1
 40
0.000000
 41
0.000000
  0
VERTEX
  8
parque_infantil
 10
-9.373842
 20
38.706621
  0
VERTEX
  8
parque_infantil
 10
-9.374231
 20
38.706669
  0
VERTEX
  8
parque_infantil
 10
-9.374228
 20
38.706714
  0
VERTEX
  8
parque_infantil
 10
-9.374271
 20
38.706718
  0
VERTEX
  8
parque_infantil
 10
-9.374281
 20
38.706693
  0
VERTEX
  8
parque_infantil
 10
-9.374446
 20
38.706707
  0
VERTEX
  8
parque_infantil
 10
-9.374438
 20
38.706782
  0
VERTEX
  8
parque_infantil
 10
-9.374330
 20
38.706768
  0
VERTEX
  8
parque_infantil
 10
-9.373826
 20
38.706705
  0
VERTEX
  8
parque_infantil
 10
-9.373842
 20
38.706621
  0
SEQEND
  0
POINT
  8
parque_infantil
  6
BYLAYER
 10
-9.353863
 20
38.701025
 50
0.598828
  0
POINT
  8
parque_infantil
  6
BYLAYER
 10
-9.336831
 20
38.735560
 50
0.590636
  0
POINT
  8
parque_infantil
  6
BYLAYER
 10
-9.342181
 20
38.737221
 50
0.000000
  0
POLYLINE
  8
parque_infantil
  6
BYLAYER
 66
1
 70
1
 40
0.000000
 41
0.000000
  0
VERTEX
  8
parque_infantil
 10
-9.342288
 20
38.737209
  0
VERTEX
  8
parque_infantil
 10
-9.342138
 20
38.737276
  0
VERTEX
  8
parque_infantil
 10
-9.342087
 20
38.737216
  0
VERTEX
  8
parque_infantil
 10
-9.342207
 20
38.737164
  0
VERTEX
  8
parque_infantil
 10
-9.342222
 20
38.737179
  0
VERTEX
  8
parque_infantil
 10
-9.342260
 20
38.737164
  0
VERTEX
  8
parque_infantil
 10
-9.342288
 20
38.737209
  0
SEQEND
  0
POINT
  8
parque_infantil
  6
BYLAYER
 10
-9.338303
 20
38.693596
 50
0.591168
  0
POINT
  8
parque_infantil
  6
BYLAYER
 10
-9.339181
 20
38.693441
 50
0.591597
  0
POINT
  8
parque_infantil
  6
BYLAYER
 10
-9.355810
 20
38.688628
 50
0.000000
  0
POLYLINE
  8
parque_infantil
  6
BYLAYER
 66
1
 70
1
 40
0.000000
 41
0.000000
  0
VERTEX
  8
parque_infantil
 10
-9.355625
 20
38.688515
  0
VERTEX
  8
parque_infantil
 10
-9.356048
 20
38.688520
  0
VERTEX
  8
parque_infantil
 10
-9.356032
 20
38.688637
  0
VERTEX
  8
parque_infantil
 10
-9.356070
 20
38.688645
  0
VERTEX
  8
parque_infantil
 10
-9.356059
 20
38.688723
  0
VERTEX
  8
parque_infantil
 10
-9.355625
 20
38.688727
  0
VERTEX
  8
parque_infantil
 10
-9.355625
 20
38.688515
  0
SEQEND
  0
POINT
  8
parque_infantil
  6
BYLAYER
 10
-9.365802
 20
38.696316
 50
0.604658
  0
POINT
  8
parque_infantil
  6
BYLAYER
 10
-9.423417
 20
38.693073
 50
0.632881
  0
POINT
  8
parque_infantil
  6
BYLAYER
 10
-9.423261
 20
38.693511
 50
0.632807
  0
POINT
  8
parque_infantil
  6
BYLAYER
 10
-9.443474
 20
38.699191
 50
0.642742
  0
POLYLINE
  8
parque_infantil
  6
BYLAYER
 66
1
 70
1
 40
0.000000
 41
0.000000
  0
VERTEX
  8
parque_infantil
 10
-9.443667
 20
38.699276
  0
VERTEX
  8
parque_infantil
 10
-9.443552
 20
38.699397
  0
VERTEX
  8
parque_infantil
 10
-9.443404
 20
38.699391
  0
VERTEX
  8
parque_infantil
 10
-9.443350
 20
38.698996
  0
VERTEX
  8
parque_infantil
 10
-9.443624
 20
38.698971
  0
VERTEX
  8
parque_infantil
 10
-9.443667
 20
38.699276
  0
SEQEND
  0
POINT
  8
parque_infantil
  6
BYLAYER
 10
-9.433120
 20
38.705626
 50
0.637698
  0
POINT
  8
parque_infantil
  6
BYLAYER
 10
-9.364496
 20
38.729270
 50
0.604170
  0
POINT
  8
parque_infantil
  6
BYLAYER
 10
-9.358959
 20
38.727028
 50
0.601445
  0
POINT
  8
parque_infantil
  6
BYLAYER
 10
-9.351540
 20
38.721765
 50
0.000000
  0
POLYLINE
  8
parque_infantil
  6
BYLAYER
 66
1
 70
1
 40
0.000000
 41
0.000000
  0
VERTEX
  8
parque_infantil
 10
-9.351609
 20
38.721639
  0
VERTEX
  8
parque_infantil
 10
-9.351652
 20
38.721788
  0
VERTEX
  8
parque_infantil
 10
-9.351647
 20
38.721861
  0
VERTEX
  8
parque_infantil
 10
-9.351534
 20
38.721917
  0
VERTEX
  8
parque_infantil
 10
-9.351389
 20
38.721754
  0
VERTEX
  8
parque_infantil
 10
-9.351572
 20
38.721643
  0
VERTEX
  8
parque_infantil
 10
-9.351609
 20
38.721639
  0
SEQEND
  0
POINT
  8
parque_infantil
  6
BYLAYER
 10
-9.331863
 20
38.718514
 50
0.588124
  0
POINT
  8
parque_infantil
  6
BYLAYER
 10
-9.322590
 20
38.714199
 50
0.583559
  0
POINT
  8
parque_infantil
  6
BYLAYER
 10
-9.334007
 20
38.715416
 50
0.589161
  0
POLYLINE
  8
parque_infantil
  6
BYLAYER
 66
1
 70
1
 40
0.000000
 41
0.000000
  0
VERTEX
  8
parque_infantil
 10
-9.334092
 20
38.715353
  0
VERTEX
  8
parque_infantil
 10
-9.334131
 20
38.715406
  0
VERTEX
  8
parque_infantil
 10
-9.333973
 20
38.715477
  0
VERTEX
  8
parque_infantil
 10
-9.333958
 20
38.715483
  0
VERTEX
  8
parque_infantil
 10
-9.333941
 20
38.715486
  0
VERTEX
  8
parque_infantil
 10
-9.333925
 20
38.715477
  0
VERTEX
  8
parque_infantil
 10
-9.333907
 20
38.715451
  0
VERTEX
  8
parque_infantil
 10
-9.334092
 20
38.715353
  0
SEQEND
  0
POINT
  8
parque_infantil
  6
BYLAYER
 10
-9.341507
 20
38.729644
 50
0.592902
  0
POINT
  8
parque_infantil
  6
BYLAYER
 10
-9.346417
 20
38.695640
 50
0.595154
  0
POINT
  8
parque_infantil
  6
BYLAYER
 10
-9.344394
 20
38.699277
 50
0.594179
  0
POINT
  8
parque_infantil
  6
BYLAYER
 10
-9.334176
 20
38.726866
 50
0.589295
  0
POINT
  8
parque_infantil
  6
BYLAYER
 10
-9.355595
 20
38.707773
 50
0.599708
  0
POINT
  8
parque_infantil
  6
BYLAYER
 10
-9.407044
 20
38.734037
 50
0.625052
  0
POINT
  8
parque_infantil
  6
BYLAYER
 10
-9.334722
 20
38.689460
 50
0.589394
  0
POINT
  8
parque_infantil
  6
BYLAYER
 10
-9.334426
 20
38.728149
 50
0.589424
  0
POINT
  8
parque_infantil
  6
BYLAYER
 10
-9.354170
 20
38.729201
 50
0.000000
  0
POLYLINE
  8
parque_infantil
  6
BYLAYER
 66
1
 70
1
 40
0.000000
 41
0.000000
  0
VERTEX
  8
parque_infantil
 10
-9.354052
 20
38.729191
  0
VERTEX
  8
parque_infantil
 10
-9.354106
 20
38.729160
  0
VERTEX
  8
parque_infantil
 10
-9.354167
 20
38.729141
  0
VERTEX
  8
parque_infantil
 10
-9.354225
 20
38.729229
  0
VERTEX
  8
parque_infantil
 10
-9.354154
 20
38.729276
  0
VERTEX
  8
parque_infantil
 10
-9.354052
 20
38.729191
  0
SEQEND
  0
POINT
  8
parque_infantil
  6
BYLAYER
 10
-9.324688
 20
38.707026
 50
0.584555
  0
POINT
  8
parque_infantil
  6
BYLAYER
 10
-9.324677
 20
38.730624
 50
0.584655
  0
POINT
  8
parque_infantil
  6
BYLAYER
 10
-9.320352
 20
38.723720
 50
0.582504
  0
POINT
  8
parque_infantil
  6
BYLAYER
 10
-9.349058
 20
38.685635
 50
0.596402
  0
POINT
  8
parque_infantil
  6
BYLAYER
 10
-9.362192
 20
38.704142
 50
0.602925
  0
POINT
  8
parque_infantil
  6
BYLAYER
 10
-9.367406
 20
38.704129
 50
0.605480
  0
POINT
  8
parque_infantil
  6
BYLAYER
 10
-9.368236
 20
38.702920
 50
0.605882
  0
POINT
  8
parque_infantil
  6
BYLAYER
 10
-9.343117
 20
38.694045
 50
0.593529
  0
POINT
  8
parque_infantil
  6
BYLAYER
 10
-9.436949
 20
38.703601
 50
0.639565
  0
POINT
  8
parque_infantil
  6
BYLAYER
 10
-9.327319
 20
38.681969
 50
0.000000
  0
POLYLINE
  8
parque_infantil
  6
BYLAYER
 66
1
 70
1
 40
0.000000
 41
0.000000
  0
VERTEX
  8
parque_infantil
 10
-9.327330
 20
38.681910
  0
VERTEX
  8
parque_infantil
 10
-9.327376
 20
38.681948
  0
VERTEX
  8
parque_infantil
 10
-9.327357
 20
38.681961
  0
VERTEX
  8
parque_infantil
 10
-9.327376
 20
38.681978
  0
VERTEX
  8
parque_infantil
 10
-9.327360
 20
38.681989
  0
VERTEX
  8
parque_infantil
 10
-9.327385
 20
38.682018
  0
VERTEX
  8
parque_infantil
 10
-9.327355
 20
38.682035
  0
VERTEX
  8
parque_infantil
 10
-9.327319
 20
38.682008
  0
VERTEX
  8
parque_infantil
 10
-9.327276
 20
38.682010
  0
VERTEX
  8
parque_infantil
 10
-9.327282
 20
38.681976
  0
VERTEX
  8
parque_infantil
 10
-9.327245
 20
38.681968
  0
VERTEX
  8
parque_infantil
 10
-9.327243
 20
38.681935
  0
VERTEX
  8
parque_infantil
 10
-9.327293
 20
38.681936
  0
VERTEX
  8
parque_infantil
 10
-9.327330
 20
38.681910
  0
SEQEND
  0
POINT
  8
parque_infantil
  6
BYLAYER
 10
-9.339265
 20
38.698906
 50
0.591664
  0
POLYLINE
  8
parque_infantil
  6
BYLAYER
 66
1
 70
1
 40
0.000000
 41
0.000000
  0
VERTEX
  8
parque_infantil
 10
-9.339325
 20
38.698849
  0
VERTEX
  8
parque_infantil
 10
-9.339355
 20
38.698981
  0
VERTEX
  8
parque_infantil
 10
-9.339229
 20
38.699000
  0
VERTEX
  8
parque_infantil
 10
-9.339195
 20
38.698867
  0
VERTEX
  8
parque_infantil
 10
-9.339325
 20
38.698849
  0
SEQEND
  0
POINT
  8
parque_infantil
  6
BYLAYER
 10
-9.431960
 20
38.695738
 50
0.000000
  0
POLYLINE
  8
parque_infantil
  6
BYLAYER
 66
1
 70
1
 40
0.000000
 41
0.000000
  0
VERTEX
  8
parque_infantil
 10
-9.431941
 20
38.695658
  0
VERTEX
  8
parque_infantil
 10
-9.432052
 20
38.695684
  0
VERTEX
  8
parque_infantil
 10
-9.432006
 20
38.695813
  0
VERTEX
  8
parque_infantil
 10
-9.431856
 20
38.695764
  0
VERTEX
  8
parque_infantil
 10
-9.431941
 20
38.695658
  0
SEQEND
  0
POINT
  8
parque_infantil
  6
BYLAYER
 10
-9.433834
 20
38.702661
 50
0.000000
  0
POLYLINE
  8
parque_infantil
  6
BYLAYER
 66
1
 70
1
 40
0.000000
 41
0.000000
  0
VERTEX
  8
parque_infantil
 10
-9.433763
 20
38.702615
  0
VERTEX
  8
parque_infantil
 10
-9.433916
 20
38.702614
  0
VERTEX
  8
parque_infantil
 10
-9.433908
 20
38.702707
  0
VERTEX
  8
parque_infantil
 10
-9.433755
 20
38.702701
  0
VERTEX
  8
parque_infantil
 10
-9.433763
 20
38.702615
  0
SEQEND
  0
POLYLINE
  8
parque_infantil
  6
BYLAYER
 66
1
 70
1
 40
0.000000
 41
0.000000
  0
VERTEX
  8
parque_infantil
 10
-9.433771
 20
38.702153
  0
VERTEX
  8
parque_infantil
 10
-9.433733
 20
38.701994
  0
VERTEX
  8
parque_infantil
 10
-9.433924
 20
38.701977
  0
VERTEX
  8
parque_infantil
 10
-9.433961
 20
38.702140
  0
VERTEX
  8
parque_infantil
 10
-9.433771
 20
38.702153
  0
SEQEND
  0
POINT
  8
parque_infantil
  6
BYLAYER
 10
-9.430768
 20
38.699734
 50
0.636517
  0
POINT
  8
parque_infantil
  6
BYLAYER
 10
-9.465422
 20
38.721316
 50
0.653611
  0
POLYLINE
  8
parque_infantil
  6
BYLAYER
 66
1
 70
1
 40
0.000000
 41
0.000000
  0
VERTEX
  8
parque_infantil
 10
-9.465281
 20
38.721300
  0
VERTEX
  8
parque_infantil
 10
-9.465458
 20
38.721275
  0
VERTEX
  8
parque_infantil
 10
-9.465496
 20
38.721345
  0
VERTEX
  8
parque_infantil
 10
-9.465359
 20
38.721377
  0
VERTEX
  8
parque_infantil
 10
-9.465297
 20
38.721327
  0
VERTEX
  8
parque_infantil
 10
-9.465281
 20
38.721300
  0
SEQEND
  0
POINT
  8
parque_infantil
  6
BYLAYER
 10
-9.449405
 20
38.733922
 50
0.645820
  0
POLYLINE
  8
parque_infantil
  6
BYLAYER
 66
1
 70
1
 40
0.000000
 41
0.000000
  0
VERTEX
  8
parque_infantil
 10
-9.449351
 20
38.733895
  0
VERTEX
  8
parque_infantil
 10
-9.449514
 20
38.733900
  0
VERTEX
  8
parque_infantil
 10
-9.449509
 20
38.733971
  0
VERTEX
  8
parque_infantil
 10
-9.449348
 20
38.733965
  0
VERTEX
  8
parque_infantil
 10
-9.449351
 20
38.733895
  0
SEQEND
  0
POINT
  8
parque_infantil
  6
BYLAYER
 10
-9.432757
 20
38.730240
 50
0.637640
  0
POINT
  8
parque_infantil
  6
BYLAYER
 10
-9.362694
 20
38.714566
 50
0.603219
  0
POLYLINE
  8
parque_infantil
  6
BYLAYER
 66
1
 70
1
 40
0.000000
 41
0.000000
  0
VERTEX
  8
parque_infantil
 10
-9.362592
 20
38.714541
  0
VERTEX
  8
parque_infantil
 10
-9.362726
 20
38.714499
  0
VERTEX
  8
parque_infantil
 10
-9.362752
 20
38.714499
  0
VERTEX
  8
parque_infantil
 10
-9.362765
 20
38.714512
  0
VERTEX
  8
parque_infantil
 10
-9.362769
 20
38.714524
  0
VERTEX
  8
parque_infantil
 10
-9.362742
 20
38.714665
  0
VERTEX
  8
parque_infantil
 10
-9.362733
 20
38.714671
  0
VERTEX
  8
parque_infantil
 10
-9.362592
 20
38.714561
  0
VERTEX
  8
parque_infantil
 10
-9.362592
 20
38.714541
  0
SEQEND
  0
POINT
  8
parque_infantil
  6
BYLAYER
 10
-9.332434
 20
38.729547
 50
0.588453
  0
POLYLINE
  8
parque_infantil
  6
BYLAYER
 66
1
 70
1
 40
0.000000
 41
0.000000
  0
VERTEX
  8
parque_infantil
 10
-9.332503
 20
38.729578
  0
VERTEX
  8
parque_infantil
 10
-9.332428
 20
38.729592
  0
VERTEX
  8
parque_infantil
 10
-9.332396
 20
38.729523
  0
VERTEX
  8
parque_infantil
 10
-9.332443
 20
38.729491
  0
VERTEX
  8
parque_infantil
 10
-9.332503
 20
38.729578
  0
SEQEND
  0
POINT
  8
parque_infantil
  6
BYLAYER
 10
-9.331112
 20
38.712626
 50
0.587729
  0
POLYLINE
  8
parque_infantil
  6
BYLAYER
 66
1
 70
1
 40
0.000000
 41
0.000000
  0
VERTEX
  8
parque_infantil
 10
-9.331139
 20
38.712543
  0
VERTEX
  8
parque_infantil
 10
-9.331210
 20
38.712658
  0
VERTEX
  8
parque_infantil
 10
-9.331078
 20
38.712710
  0
VERTEX
  8
parque_infantil
 10
-9.331003
 20
38.712596
  0
VERTEX
  8
parque_infantil
 10
-9.331139
 20
38.712543
  0
SEQEND
  0
POINT
  8
parque_infantil
  6
BYLAYER
 10
-9.331673
 20
38.717530
 50
0.588026
  0
POINT
  8
parque_infantil
  6
BYLAYER
 10
-9.355810
 20
38.705138
 50
0.599801
  0
POLYLINE
  8
parque_infantil
  6
BYLAYER
 66
1
 70
1
 40
0.000000
 41
0.000000
  0
VERTEX
  8
parque_infantil
 10
-9.355819
 20
38.705100
  0
VERTEX
  8
parque_infantil
 10
-9.355848
 20
38.705085
  0
VERTEX
  8
parque_infantil
 10
-9.355883
 20
38.705089
  0
VERTEX
  8
parque_infantil
 10
-9.355897
 20
38.705095
  0
VERTEX
  8
parque_infantil
 10
-9.355913
 20
38.705113
  0
VERTEX
  8
parque_infantil
 10
-9.355931
 20
38.705147
  0
VERTEX
  8
parque_infantil
 10
-9.355915
 20
38.705158
  0
VERTEX
  8
parque_infantil
 10
-9.355899
 20
38.705164
  0
VERTEX
  8
parque_infantil
 10
-9.355856
 20
38.705168
  0
VERTEX
  8
parque_infantil
 10
-9.355808
 20
38.705173
  0
VERTEX
  8
parque_infantil
 10
-9.355744
 20
38.705175
  0
VERTEX
  8
parque_infantil
 10
-9.355744
 20
38.705133
  0
VERTEX
  8
parque_infantil
 10
-9.355819
 20
38.705100
  0
SEQEND
  0
POINT
  8
parque_infantil
  6
BYLAYER
 10
-9.347279
 20
38.688905
 50
0.595546
  0
POLYLINE
  8
parque_infantil
  6
BYLAYER
 66
1
 70
1
 40
0.000000
 41
0.000000
  0
VERTEX
  8
parque_infantil
 10
-9.347214
 20
38.688794
  0
VERTEX
  8
parque_infantil
 10
-9.347415
 20
38.688851
  0
VERTEX
  8
parque_infantil
 10
-9.347340
 20
38.689010
  0
VERTEX
  8
parque_infantil
 10
-9.347144
 20
38.688951
  0
VERTEX
  8
parque_infantil
 10
-9.347214
 20
38.688794
  0
SEQEND
  0
POINT
  8
parque_infantil
  6
BYLAYER
 10
-9.345400
 20
38.684296
 50
0.594604
  0
POINT
  8
parque_infantil
  6
BYLAYER
 10
-9.389723
 20
38.718641
 50
0.000000
  0
POLYLINE
  8
parque_infantil
  6
BYLAYER
 66
1
 70
1
 40
0.000000
 41
0.000000
  0
VERTEX
  8
parque_infantil
 10
-9.389619
 20
38.718498
  0
VERTEX
  8
parque_infantil
 10
-9.389895
 20
38.718666
  0
VERTEX
  8
parque_infantil
 10
-9.389843
 20
38.718743
  0
VERTEX
  8
parque_infantil
 10
-9.389796
 20
38.718761
  0
VERTEX
  8
parque_infantil
 10
-9.389780
 20
38.718761
  0
VERTEX
  8
parque_infantil
 10
-9.389750
 20
38.718751
  0
VERTEX
  8
parque_infantil
 10
-9.389711
 20
38.718734
  0
VERTEX
  8
parque_infantil
 10
-9.389663
 20
38.718693
  0
VERTEX
  8
parque_infantil
 10
-9.389629
 20
38.718658
  0
VERTEX
  8
parque_infantil
 10
-9.389573
 20
38.718616
  0
VERTEX
  8
parque_infantil
 10
-9.389554
 20
38.718610
  0
VERTEX
  8
parque_infantil
 10
-9.389619
 20
38.718498
  0
SEQEND
  0
POINT
  8
parque_infantil
  6
BYLAYER
 10
-9.439513
 20
38.702822
 50
0.640818
  0
POINT
  8
parque_infantil
  6
BYLAYER
 10
-9.390995
 20
38.735150
 50
0.617189
  0
POINT
  8
parque_infantil
  6
BYLAYER
 10
-9.379226
 20
38.745925
 50
0.611469
  0
POINT
  8
parque_infantil
  6
BYLAYER
 10
-9.340791
 20
38.728183
 50
0.592544
  0
POINT
  8
parque_infantil
  6
BYLAYER
 10
-9.350496
 20
38.694568
 50
0.597148
  0
POINT
  8
parque_infantil
  6
BYLAYER
 10
-9.413807
 20
38.710010
 50
0.000000
  0
POLYLINE
  8
parque_infantil
  6
BYLAYER
 66
1
 70
1
 40
0.000000
 41
0.000000
  0
VERTEX
  8
parque_infantil
 10
-9.413891
 20
38.709961
  0
VERTEX
  8
parque_infantil
 10
-9.413891
 20
38.710072
  0
VERTEX
  8
parque_infantil
 10
-9.413748
 20
38.710068
  0
VERTEX
  8
parque_infantil
 10
-9.413749
 20
38.709957
  0
VERTEX
  8
parque_infantil
 10
-9.413891
 20
38.709961
  0
SEQEND
  0
POINT
  8
parque_infantil
  6
BYLAYER
 10
-9.325480
 20
38.713255
 50
0.000000
  0
POLYLINE
  8
parque_infantil
  6
BYLAYER
 66
1
 70
1
 40
0.000000
 41
0.000000
  0
VERTEX
  8
parque_infantil
 10
-9.325646
 20
38.712904
  0
VERTEX
  8
parque_infantil
 10
-9.325695
 20
38.713193
  0
VERTEX
  8
parque_infantil
 10
-9.325984
 20
38.713172
  0
VERTEX
  8
parque_infantil
 10
-9.325732
 20
38.713460
  0
VERTEX
  8
parque_infantil
 10
-9.325534
 20
38.713649
  0
VERTEX
  8
parque_infantil
 10
-9.325325
 20
38.713611
  0
VERTEX
  8
parque_infantil
 10
-9.325201
 20
38.713063
  0
VERTEX
  8
parque_infantil
 10
-9.325445
 20
38.712979
  0
VERTEX
  8
parque_infantil
 10
-9.325646
 20
38.712904
  0
SEQEND
  0
POINT
  8
parque_infantil
  6
BYLAYER
 10
-9.345114
 20
38.695653
 50
0.000000
  0
POLYLINE
  8
parque_infantil
  6
BYLAYER
 66
1
 70
1
 40
0.000000
 41
0.000000
  0
VERTEX
  8
parque_infantil
 10
-9.345085
 20
38.695502
  0
VERTEX
  8
parque_infantil
 10
-9.345271
 20
38.695649
  0
VERTEX
  8
parque_infantil
 10
-9.345173
 20
38.695770
  0
VERTEX
  8
parque_infantil
 10
-9.344951
 20
38.695657
  0
VERTEX
  8
parque_infantil
 10
-9.345085
 20
38.695502
  0
SEQEND
  0
POINT
  8
parque_infantil
  6
BYLAYER
 10
-9.382962
 20
38.700734
 50
0.613089
  0
POINT
  8
parque_infantil
  6
BYLAYER
 10
-9.326994
 20
38.716994
 50
0.585730
  0
POINT
  8
parque_infantil
  6
BYLAYER
 10
-9.389175
 20
38.746655
 50
0.000000
  0
POLYLINE
  8
parque_infantil
  6
BYLAYER
 66
1
 70
1
 40
0.000000
 41
0.000000
  0
VERTEX
  8
parque_infantil
 10
-9.389151
 20
38.746516
  0
VERTEX
  8
parque_infantil
 10
-9.389336
 20
38.746615
  0
VERTEX
  8
parque_infantil
 10
-9.389191
 20
38.746772
  0
VERTEX
  8
parque_infantil
 10
-9.389006
 20
38.746671
  0
VERTEX
  8
parque_infantil
 10
-9.389151
 20
38.746516
  0
SEQEND
  0
POINT
  8
parque_infantil
  6
BYLAYER
 10
-9.409387
 20
38.729394
 50
0.626179
  0
POINT
  8
parque_infantil
  6
BYLAYER
 10
-9.387587
 20
38.704653
 50
0.000000
  0
POINT
  8
parque_infantil
  6
BYLAYER
 10
-9.379520
 20
38.745995
 50
0.000000
  0
POLYLINE
  8
parque_infantil
  6
BYLAYER
 66
1
 70
1
 40
0.000000
 41
0.000000
  0
VERTEX
  8
parque_infantil
 10
-9.379663
 20
38.746022
  0
VERTEX
  8
parque_infantil
 10
-9.379455
 20
38.746089
  0
VERTEX
  8
parque_infantil
 10
-9.379379
 20
38.746002
  0
VERTEX
  8
parque_infantil
 10
-9.379602
 20
38.745926
  0
VERTEX
  8
parque_infantil
 10
-9.379663
 20
38.746022
  0
SEQEND
  0
POINT
  8
parque_infantil
  6
BYLAYER
 10
-9.405311
 20
38.716394
 50
0.000000
  0
POLYLINE
  8
parque_infantil
  6
BYLAYER
 66
1
 70
1
 40
0.000000
 41
0.000000
  0
VERTEX
  8
parque_infantil
 10
-9.405228
 20
38.716359
  0
VERTEX
  8
parque_infantil
 10
-9.405335
 20
38.716345
  0
VERTEX
  8
parque_infantil
 10
-9.405354
 20
38.716348
  0
VERTEX
  8
parque_infantil
 10
-9.405366
 20
38.716366
  0
VERTEX
  8
parque_infantil
 10
-9.405433
 20
38.716365
  0
VERTEX
  8
parque_infantil
 10
-9.405449
 20
38.716347
  0
VERTEX
  8
parque_infantil
 10
-9.405464
 20
38.716330
  0
VERTEX
  8
parque_infantil
 10
-9.405510
 20
38.716322
  0
VERTEX
  8
parque_infantil
 10
-9.405557
 20
38.716325
  0
VERTEX
  8
parque_infantil
 10
-9.405574
 20
38.716343
  0
VERTEX
  8
parque_infantil
 10
-9.405579
 20
38.716366
  0
VERTEX
  8
parque_infantil
 10
-9.405566
 20
38.716384
  0
VERTEX
  8
parque_infantil
 10
-9.405551
 20
38.716404
  0
VERTEX
  8
parque_infantil
 10
-9.405530
 20
38.716410
  0
VERTEX
  8
parque_infantil
 10
-9.405498
 20
38.716402
  0
VERTEX
  8
parque_infantil
 10
-9.405481
 20
38.716396
  0
VERTEX
  8
parque_infantil
 10
-9.405451
 20
38.716396
  0
VERTEX
  8
parque_infantil
 10
-9.405430
 20
38.716389
  0
VERTEX
  8
parque_infantil
 10
-9.405419
 20
38.716374
  0
VERTEX
  8
parque_infantil
 10
-9.405362
 20
38.716378
  0
VERTEX
  8
parque_infantil
 10
-9.405341
 20
38.716376
  0
VERTEX
  8
parque_infantil
 10
-9.405331
 20
38.716395
  0
VERTEX
  8
parque_infantil
 10
-9.405346
 20
38.716420
  0
VERTEX
  8
parque_infantil
 10
-9.405388
 20
38.716412
  0
VERTEX
  8
parque_infantil
 10
-9.405388
 20
38.716434
  0
VERTEX
  8
parque_infantil
 10
-9.405322
 20
38.716439
  0
VERTEX
  8
parque_infantil
 10
-9.405295
 20
38.716445
  0
VERTEX
  8
parque_infantil
 10
-9.405268
 20
38.716459
  0
VERTEX
  8
parque_infantil
 10
-9.405233
 20
38.716469
  0
VERTEX
  8
parque_infantil
 10
-9.405216
 20
38.716464
  0
VERTEX
  8
parque_infantil
 10
-9.405194
 20
38.716444
  0
VERTEX
  8
parque_infantil
 10
-9.405199
 20
38.716411
  0
VERTEX
  8
parque_infantil
 10
-9.405209
 20
38.716382
  0
VERTEX
  8
parque_infantil
 10
-9.405228
 20
38.716359
  0
SEQEND
  0
POINT
  8
parque_infantil
  6
BYLAYER
 10
-9.415927
 20
38.715881
 50
0.000000
  0
POINT
  8
parque_infantil
  6
BYLAYER
 10
-9.373485
 20
38.731913
 50
0.000000
  0
POLYLINE
  8
parque_infantil
  6
BYLAYER
 66
1
 70
1
 40
0.000000
 41
0.000000
  0
VERTEX
  8
parque_infantil
 10
-9.373567
 20
38.731845
  0
VERTEX
  8
parque_infantil
 10
-9.373539
 20
38.731990
  0
VERTEX
  8
parque_infantil
 10
-9.373501
 20
38.731997
  0
VERTEX
  8
parque_infantil
 10
-9.373485
 20
38.731989
  0
VERTEX
  8
parque_infantil
 10
-9.373461
 20
38.731958
  0
VERTEX
  8
parque_infantil
 10
-9.373405
 20
38.731874
  0
VERTEX
  8
parque_infantil
 10
-9.373520
 20
38.731839
  0
VERTEX
  8
parque_infantil
 10
-9.373549
 20
38.731837
  0
VERTEX
  8
parque_infantil
 10
-9.373567
 20
38.731845
  0
SEQEND
  0
POINT
  8
parque_infantil
  6
BYLAYER
 10
-9.371680
 20
38.714005
 50
51.832902
  0
POINT
  8
parque_infantil
  6
BYLAYER
 10
-9.335304
 20
38.706117
 50
0.000000
  0
POLYLINE
  8
parque_infantil
  6
BYLAYER
 66
1
 70
1
 40
0.000000
 41
0.000000
  0
VERTEX
  8
parque_infantil
 10
-9.335408
 20
38.706023
  0
VERTEX
  8
parque_infantil
 10
-9.335457
 20
38.706054
  0
VERTEX
  8
parque_infantil
 10
-9.335306
 20
38.706197
  0
VERTEX
  8
parque_infantil
 10
-9.335168
 20
38.706127
  0
VERTEX
  8
parque_infantil
 10
-9.335186
 20
38.706095
  0
VERTEX
  8
parque_infantil
 10
-9.335352
 20
38.706050
  0
VERTEX
  8
parque_infantil
 10
-9.335365
 20
38.706037
  0
VERTEX
  8
parque_infantil
 10
-9.335408
 20
38.706023
  0
SEQEND
  0
POINT
  8
parque_infantil
  6
BYLAYER
 10
-9.445479
 20
38.706077
 50
0.000000
  0
POLYLINE
  8
parque_infantil
  6
BYLAYER
 66
1
 70
1
 40
0.000000
 41
0.000000
  0
VERTEX
  8
parque_infantil
 10
-9.445387
 20
38.705896
  0
VERTEX
  8
parque_infantil
 10
-9.445448
 20
38.705912
  0
VERTEX
  8
parque_infantil
 10
-9.445491
 20
38.705988
  0
VERTEX
  8
parque_infantil
 10
-9.445461
 20
38.706054
  0
VERTEX
  8
parque_infantil
 10
-9.445516
 20
38.706088
  0
VERTEX
  8
parque_infantil
 10
-9.445567
 20
38.706054
  0
VERTEX
  8
parque_infantil
 10
-9.445598
 20
38.706090
  0
VERTEX
  8
parque_infantil
 10
-9.445630
 20
38.706077
  0
VERTEX
  8
parque_infantil
 10
-9.445692
 20
38.706202
  0
VERTEX
  8
parque_infantil
 10
-9.445665
 20
38.706225
  0
VERTEX
  8
parque_infantil
 10
-9.445519
 20
38.706127
  0
VERTEX
  8
parque_infantil
 10
-9.445368
 20
38.706015
  0
VERTEX
  8
parque_infantil
 10
-9.445309
 20
38.705963
  0
VERTEX
  8
parque_infantil
 10
-9.445387
 20
38.705896
  0
SEQEND
  0
POINT
  8
parque_infantil
  6
BYLAYER
 10
-9.348938
 20
38.713557
 50
0.000000
  0
POLYLINE
  8
parque_infantil
  6
BYLAYER
 66
1
 70
1
 40
0.000000
 41
0.000000
  0
VERTEX
  8
parque_infantil
 10
-9.349020
 20
38.713499
  0
VERTEX
  8
parque_infantil
 10
-9.349028
 20
38.713595
  0
VERTEX
  8
parque_infantil
 10
-9.348863
 20
38.713601
  0
VERTEX
  8
parque_infantil
 10
-9.348855
 20
38.713496
  0
VERTEX
  8
parque_infantil
 10
-9.349020
 20
38.713499
  0
SEQEND
  0
POINT
  8
parque_infantil
  6
BYLAYER
 10
-9.381361
 20
38.714562
 50
-117.120247
  0
POLYLINE
  8
parque_infantil
  6
BYLAYER
 66
1
 70
1
 40
0.000000
 41
0.000000
  0
VERTEX
  8
parque_infantil
 10
-9.381346
 20
38.714545
  0
VERTEX
  8
parque_infantil
 10
-9.381223
 20
38.714542
  0
VERTEX
  8
parque_infantil
 10
-9.381043
 20
38.714532
  0
VERTEX
  8
parque_infantil
 10
-9.381023
 20
38.714505
  0
VERTEX
  8
parque_infantil
 10
-9.381012
 20
38.714466
  0
VERTEX
  8
parque_infantil
 10
-9.381052
 20
38.714459
  0
VERTEX
  8
parque_infantil
 10
-9.381083
 20
38.714460
  0
VERTEX
  8
parque_infantil
 10
-9.381129
 20
38.714490
  0
VERTEX
  8
parque_infantil
 10
-9.381159
 20
38.714488
  0
VERTEX
  8
parque_infantil
 10
-9.381176
 20
38.714455
  0
VERTEX
  8
parque_infantil
 10
-9.381283
 20
38.714480
  0
VERTEX
  8
parque_infantil
 10
-9.381359
 20
38.714530
  0
VERTEX
  8
parque_infantil
 10
-9.381346
 20
38.714545
  0
SEQEND
  0
POINT
  8
parque_infantil
  6
BYLAYER
 10
-9.412804
 20
38.713030
 50
87.176410
  0
POINT
  8
parque_infantil
  6
BYLAYER
 10
-9.341334
 20
38.714324
 50
0.000000
  0
POLYLINE
  8
parque_infantil
  6
BYLAYER
 66
1
 70
1
 40
0.000000
 41
0.000000
  0
VERTEX
  8
parque_infantil
 10
-9.341386
 20
38.714247
  0
VERTEX
  8
parque_infantil
 10
-9.341445
 20
38.714325
  0
VERTEX
  8
parque_infantil
 10
-9.341301
 20
38.714401
  0
VERTEX
  8
parque_infantil
 10
-9.341232
 20
38.714329
  0
VERTEX
  8
parque_infantil
 10
-9.341386
 20
38.714247
  0
SEQEND
  0
POINT
  8
parque_infantil
  6
BYLAYER
 10
-9.325241
 20
38.687451
 50
0.000000
  0
POLYLINE
  8
parque_infantil
  6
BYLAYER
 66
1
 70
1
 40
0.000000
 41
0.000000
  0
VERTEX
  8
parque_infantil
 10
-9.325275
 20
38.687398
  0
VERTEX
  8
parque_infantil
 10
-9.325292
 20
38.687495
  0
VERTEX
  8
parque_infantil
 10
-9.325198
 20
38.687512
  0
VERTEX
  8
parque_infantil
 10
-9.325182
 20
38.687402
  0
VERTEX
  8
parque_infantil
 10
-9.325275
 20
38.687398
  0
SEQEND
  0
POINT
  8
parque_infantil
  6
BYLAYER
 10
-9.410048
 20
38.713131
 50
0.000000
  0
POLYLINE
  8
parque_infantil
  6
BYLAYER
 66
1
 70
1
 40
0.000000
 41
0.000000
  0
VERTEX
  8
parque_infantil
 10
-9.409944
 20
38.713081
  0
VERTEX
  8
parque_infantil
 10
-9.410018
 20
38.713089
  0
VERTEX
  8
parque_infantil
 10
-9.410099
 20
38.713110
  0
VERTEX
  8
parque_infantil
 10
-9.410145
 20
38.713137
  0
VERTEX
  8
parque_infantil
 10
-9.410157
 20
38.713167
  0
VERTEX
  8
parque_infantil
 10
-9.410009
 20
38.713170
  0
VERTEX
  8
parque_infantil
 10
-9.409948
 20
38.713165
  0
VERTEX
  8
parque_infantil
 10
-9.409926
 20
38.713136
  0
VERTEX
  8
parque_infantil
 10
-9.409932
 20
38.713106
  0
VERTEX
  8
parque_infantil
 10
-9.409944
 20
38.713081
  0
SEQEND
  0
POINT
  8
parque_infantil
  6
BYLAYER
 10
-9.341359
 20
38.721336
 50
0.000000
  0
POLYLINE
  8
parque_infantil
  6
BYLAYER
 66
1
 70
1
 40
0.000000
 41
0.000000
  0
VERTEX
  8
parque_infantil
 10
-9.341391
 20
38.721264
  0
VERTEX
  8
parque_infantil
 10
-9.341436
 20
38.721325
  0
VERTEX
  8
parque_infantil
 10
-9.341326
 20
38.721373
  0
VERTEX
  8
parque_infantil
 10
-9.341279
 20
38.721319
  0
VERTEX
  8
parque_infantil
 10
-9.341391
 20
38.721264
  0
SEQEND
  0
POINT
  8
parque_infantil
  6
BYLAYER
 10
-9.321240
 20
38.700176
 50
0.000000
  0
POLYLINE
  8
parque_infantil
  6
BYLAYER
 66
1
 70
1
 40
0.000000
 41
0.000000
  0
VERTEX
  8
parque_infantil
 10
-9.321145
 20
38.700209
  0
VERTEX
  8
parque_infantil
 10
-9.321017
 20
38.700323
  0
VERTEX
  8
parque_infantil
 10
-9.321038
 20
38.700340
  0
VERTEX
  8
parque_infantil
 10
-9.320931
 20
38.700374
  0
VERTEX
  8
parque_infantil
 10
-9.320892
 20
38.700290
  0
VERTEX
  8
parque_infantil
 10
-9.320884
 20
38.700212
  0
VERTEX
  8
parque_infantil
 10
-9.321145
 20
38.700209
  0
VERTEX
  8
parque_infantil
 10
-9.321145
 20
38.700209
  0
SEQEND
  0
POLYLINE
  8
parque_infantil
  6
BYLAYER
 66
1
 70
1
 40
0.000000
 41
0.000000
  0
VERTEX
  8
parque_infantil
 10
-9.321252
 20
38.700217
  0
VERTEX
  8
parque_infantil
 10
-9.321241
 20
38.700210
  0
VERTEX
  8
parque_infantil
 10
-9.321210
 20
38.700192
  0
VERTEX
  8
parque_infantil
 10
-9.321192
 20
38.700184
  0
VERTEX
  8
parque_infantil
 10
-9.321166
 20
38.700179
  0
VERTEX
  8
parque_infantil
 10
-9.321146
 20
38.700177
  0
VERTEX
  8
parque_infantil
 10
-9.321132
 20
38.700177
  0
VERTEX
  8
parque_infantil
 10
-9.321140
 20
38.700166
  0
VERTEX
  8
parque_infantil
 10
-9.321220
 20
38.700067
  0
VERTEX
  8
parque_infantil
 10
-9.321387
 20
38.700178
  0
VERTEX
  8
parque_infantil
 10
-9.321286
 20
38.700247
  0
VERTEX
  8
parque_infantil
 10
-9.321275
 20
38.700238
  0
VERTEX
  8
parque_infantil
 10
-9.321252
 20
38.700217
  0
SEQEND
  0
POINT
  8
parque_infantil
  6
BYLAYER
 10
-9.353049
 20
38.695049
 50
0.000000
  0
POLYLINE
  8
parque_infantil
  6
BYLAYER
 66
1
 70
1
 40
0.000000
 41
0.000000
  0
VERTEX
  8
parque_infantil
 10
-9.353042
 20
38.694880
  0
VERTEX
  8
parque_infantil
 10
-9.353078
 20
38.694899
  0
VERTEX
  8
parque_infantil
 10
-9.353190
 20
38.695048
  0
VERTEX
  8
parque_infantil
 10
-9.353073
 20
38.695178
  0
VERTEX
  8
parque_infantil
 10
-9.352895
 20
38.695067
  0
VERTEX
  8
parque_infantil
 10
-9.353042
 20
38.694880
  0
SEQEND
  0
POINT
  8
parque_infantil
  6
BYLAYER
 10
-9.423109
 20
38.709964
 50
0.000000
  0
POINT
  8
parque_infantil
  6
BYLAYER
 10
-9.433154
 20
38.711002
 50
0.000000
  0
POINT
  8
parque_infantil
  6
BYLAYER
 10
-9.385597
 20
38.701658
 50
0.000000
  0
POINT
  8
parque_infantil
  6
BYLAYER
 10
-9.335913
 20
38.704073
 50
0.000000
  0
POINT
  8
parque_infantil
  6
BYLAYER
 10
-9.400701
 20
38.742630
 50
0.000000
  0
POLYLINE
  8
parque_infantil
  6
BYLAYER
 66
1
 70
1
 40
0.000000
 41
0.000000
  0
VERTEX
  8
parque_infantil
 10
-9.400645
 20
38.742672
  0
VERTEX
  8
parque_infantil
 10
-9.400636
 20
38.742674
  0
VERTEX
  8
parque_infantil
 10
-9.400574
 20
38.742588
  0
VERTEX
  8
parque_infantil
 10
-9.400583
 20
38.742586
  0
VERTEX
  8
parque_infantil
 10
-9.400603
 20
38.742584
  0
VERTEX
  8
parque_infantil
 10
-9.400621
 20
38.742583
  0
VERTEX
  8
parque_infantil
 10
-9.400646
 20
38.742581
  0
VERTEX
  8
parque_infantil
 10
-9.400671
 20
38.742581
  0
VERTEX
  8
parque_infantil
 10
-9.400688
 20
38.742581
  0
VERTEX
  8
parque_infantil
 10
-9.400711
 20
38.742583
  0
VERTEX
  8
parque_infantil
 10
-9.400723
 20
38.742585
  0
VERTEX
  8
parque_infantil
 10
-9.400739
 20
38.742588
  0
VERTEX
  8
parque_infantil
 10
-9.400756
 20
38.742594
  0
VERTEX
  8
parque_infantil
 10
-9.400772
 20
38.742600
  0
VERTEX
  8
parque_infantil
 10
-9.400781
 20
38.742604
  0
VERTEX
  8
parque_infantil
 10
-9.400791
 20
38.742610
  0
VERTEX
  8
parque_infantil
 10
-9.400801
 20
38.742616
  0
VERTEX
  8
parque_infantil
 10
-9.400810
 20
38.742622
  0
VERTEX
  8
parque_infantil
 10
-9.400815
 20
38.742626
  0
VERTEX
  8
parque_infantil
 10
-9.400821
 20
38.742632
  0
VERTEX
  8
parque_infantil
 10
-9.400827
 20
38.742637
  0
VERTEX
  8
parque_infantil
 10
-9.400828
 20
38.742639
  0
VERTEX
  8
parque_infantil
 10
-9.400758
 20
38.742687
  0
VERTEX
  8
parque_infantil
 10
-9.400754
 20
38.742685
  0
VERTEX
  8
parque_infantil
 10
-9.400747
 20
38.742682
  0
VERTEX
  8
parque_infantil
 10
-9.400742
 20
38.742680
  0
VERTEX
  8
parque_infantil
 10
-9.400731
 20
38.742677
  0
VERTEX
  8
parque_infantil
 10
-9.400722
 20
38.742675
  0
VERTEX
  8
parque_infantil
 10
-9.400712
 20
38.742674
  0
VERTEX
  8
parque_infantil
 10
-9.400700
 20
38.742672
  0
VERTEX
  8
parque_infantil
 10
-9.400685
 20
38.742671
  0
VERTEX
  8
parque_infantil
 10
-9.400670
 20
38.742670
  0
VERTEX
  8
parque_infantil
 10
-9.400659
 20
38.742671
  0
VERTEX
  8
parque_infantil
 10
-9.400645
 20
38.742672
  0
SEQEND
  0
POINT
  8
parque_infantil
  6
BYLAYER
 10
-9.422160
 20
38.724909
 50
-27.253819
  0
POLYLINE
  8
parque_infantil
  6
BYLAYER
 66
1
 70
1
 40
0.000000
 41
0.000000
  0
VERTEX
  8
parque_infantil
 10
-9.422160
 20
38.724909
  0
VERTEX
  8
parque_infantil
 10
-9.422079
 20
38.724867
  0
VERTEX
  8
parque_infantil
 10
-9.422175
 20
38.724748
  0
VERTEX
  8
parque_infantil
 10
-9.422252
 20
38.724779
  0
VERTEX
  8
parque_infantil
 10
-9.422162
 20
38.724910
  0
VERTEX
  8
parque_infantil
 10
-9.422159
 20
38.724911
  0
VERTEX
  8
parque_infantil
 10
-9.422160
 20
38.724909
  0
SEQEND
  0
POINT
  8
parque_infantil
  6
BYLAYER
 10
-9.450202
 20
38.752751
 50
46.489070
  0
POLYLINE
  8
parque_infantil
  6
BYLAYER
 66
1
 70
1
 40
0.000000
 41
0.000000
  0
VERTEX
  8
parque_infantil
 10
-9.450202
 20
38.752751
  0
VERTEX
  8
parque_infantil
 10
-9.450048
 20
38.752913
  0
VERTEX
  8
parque_infantil
 10
-9.449944
 20
38.752984
  0
VERTEX
  8
parque_infantil
 10
-9.449797
 20
38.752968
  0
VERTEX
  8
parque_infantil
 10
-9.449830
 20
38.752862
  0
VERTEX
  8
parque_infantil
 10
-9.449911
 20
38.752759
  0
VERTEX
  8
parque_infantil
 10
-9.450079
 20
38.752661
  0
VERTEX
  8
parque_infantil
 10
-9.450202
 20
38.752751
  0
SEQEND
  0
POINT
  8
parque_infantil
  6
BYLAYER
 10
-9.345319
 20
38.703463
 50
0.000000
  0
POLYLINE
  8
parque_infantil
  6
BYLAYER
 66
1
 70
1
 40
0.000000
 41
0.000000
  0
VERTEX
  8
parque_infantil
 10
-9.345364
 20
38.703375
  0
VERTEX
  8
parque_infantil
 10
-9.345411
 20
38.703403
  0
VERTEX
  8
parque_infantil
 10
-9.345281
 20
38.703533
  0
VERTEX
  8
parque_infantil
 10
-9.345235
 20
38.703507
  0
VERTEX
  8
parque_infantil
 10
-9.345249
 20
38.703486
  0
VERTEX
  8
parque_infantil
 10
-9.345225
 20
38.703477
  0
VERTEX
  8
parque_infantil
 10
-9.345260
 20
38.703438
  0
VERTEX
  8
parque_infantil
 10
-9.345285
 20
38.703451
  0
VERTEX
  8
parque_infantil
 10
-9.345364
 20
38.703375
  0
SEQEND
  0
POINT
  8
parque_infantil
  6
BYLAYER
 10
-9.378434
 20
38.732152
 50
23.225305
  0
POLYLINE
  8
parque_infantil
  6
BYLAYER
 66
1
 70
1
 40
0.000000
 41
0.000000
  0
VERTEX
  8
parque_infantil
 10
-9.378434
 20
38.732152
  0
VERTEX
  8
parque_infantil
 10
-9.378336
 20
38.732194
  0
VERTEX
  8
parque_infantil
 10
-9.378274
 20
38.732103
  0
VERTEX
  8
parque_infantil
 10
-9.378376
 20
38.732058
  0
VERTEX
  8
parque_infantil
 10
-9.378436
 20
38.732152
  0
VERTEX
  8
parque_infantil
 10
-9.378434
 20
38.732152
  0
SEQEND
  0
POINT
  8
parque_infantil
  6
BYLAYER
 10
-9.337899
 20
38.702781
 50
-13.902444
  0
POLYLINE
  8
parque_infantil
  6
BYLAYER
 66
1
 70
1
 40
0.000000
 41
0.000000
  0
VERTEX
  8
parque_infantil
 10
-9.337899
 20
38.702781
  0
VERTEX
  8
parque_infantil
 10
-9.337606
 20
38.702708
  0
VERTEX
  8
parque_infantil
 10
-9.337656
 20
38.702585
  0
VERTEX
  8
parque_infantil
 10
-9.337949
 20
38.702659
  0
VERTEX
  8
parque_infantil
 10
-9.337899
 20
38.702781
  0
SEQEND
  0
POINT
  8
parque_infantil
  6
BYLAYER
 10
-9.350185
 20
38.697984
 50
0.000000
  0
POLYLINE
  8
parque_infantil
  6
BYLAYER
 66
1
 70
1
 40
0.000000
 41
0.000000
  0
VERTEX
  8
parque_infantil
 10
-9.350280
 20
38.698021
  0
VERTEX
  8
parque_infantil
 10
-9.350148
 20
38.698061
  0
VERTEX
  8
parque_infantil
 10
-9.350089
 20
38.697938
  0
VERTEX
  8
parque_infantil
 10
-9.350223
 20
38.697899
  0
VERTEX
  8
parque_infantil
 10
-9.350280
 20
38.698021
  0
SEQEND
  0
POINT
  8
parque_infantil
  6
BYLAYER
 10
-9.381613
 20
38.699778
 50
0.000000
  0
POLYLINE
  8
parque_infantil
  6
BYLAYER
 66
1
 70
1
 40
0.000000
 41
0.000000
  0
VERTEX
  8
parque_infantil
 10
-9.381714
 20
38.699818
  0
VERTEX
  8
parque_infantil
 10
-9.381515
 20
38.699817
  0
VERTEX
  8
parque_infantil
 10
-9.381506
 20
38.699729
  0
VERTEX
  8
parque_infantil
 10
-9.381667
 20
38.699727
  0
VERTEX
  8
parque_infantil
 10
-9.381732
 20
38.699768
  0
VERTEX
  8
parque_infantil
 10
-9.381716
 20
38.699809
  0
VERTEX
  8
parque_infantil
 10
-9.381714
 20
38.699818
  0
SEQEND
  0
POINT
  8
parque_infantil
  6
BYLAYER
 10
-9.377489
 20
38.707975
 50
0.000000
  0
POLYLINE
  8
parque_infantil
  6
BYLAYER
 66
1
 70
1
 40
0.000000
 41
0.000000
  0
VERTEX
  8
parque_infantil
 10
-9.377496
 20
38.708042
  0
VERTEX
  8
parque_infantil
 10
-9.377412
 20
38.708031
  0
VERTEX
  8
parque_infantil
 10
-9.377415
 20
38.707960
  0
VERTEX
  8
parque_infantil
 10
-9.377520
 20
38.707917
  0
VERTEX
  8
parque_infantil
 10
-9.377552
 20
38.707965
  0
VERTEX
  8
parque_infantil
 10
-9.377541
 20
38.708018
  0
VERTEX
  8
parque_infantil
 10
-9.377500
 20
38.708041
  0
VERTEX
  8
parque_infantil
 10
-9.377496
 20
38.708042
  0
SEQEND
  0
POINT
  8
parque_infantil
  6
BYLAYER
 10
-9.353681
 20
38.709537
 50
0.000000
  0
POLYLINE
  8
parque_infantil
  6
BYLAYER
 66
1
 70
1
 40
0.000000
 41
0.000000
  0
VERTEX
  8
parque_infantil
 10
-9.353763
 20
38.709600
  0
VERTEX
  8
parque_infantil
 10
-9.353664
 20
38.709616
  0
VERTEX
  8
parque_infantil
 10
-9.353606
 20
38.709625
  0
VERTEX
  8
parque_infantil
 10
-9.353598
 20
38.709626
  0
VERTEX
  8
parque_infantil
 10
-9.353590
 20
38.709626
  0
VERTEX
  8
parque_infantil
 10
-9.353581
 20
38.709625
  0
VERTEX
  8
parque_infantil
 10
-9.353574
 20
38.709622
  0
VERTEX
  8
parque_infantil
 10
-9.353567
 20
38.709619
  0
VERTEX
  8
parque_infantil
 10
-9.353561
 20
38.709614
  0
VERTEX
  8
parque_infantil
 10
-9.353557
 20
38.709609
  0
VERTEX
  8
parque_infantil
 10
-9.353554
 20
38.709603
  0
VERTEX
  8
parque_infantil
 10
-9.353552
 20
38.709597
  0
VERTEX
  8
parque_infantil
 10
-9.353552
 20
38.709590
  0
VERTEX
  8
parque_infantil
 10
-9.353554
 20
38.709584
  0
VERTEX
  8
parque_infantil
 10
-9.353555
 20
38.709577
  0
VERTEX
  8
parque_infantil
 10
-9.353560
 20
38.709556
  0
VERTEX
  8
parque_infantil
 10
-9.353582
 20
38.709458
  0
VERTEX
  8
parque_infantil
 10
-9.353589
 20
38.709449
  0
VERTEX
  8
parque_infantil
 10
-9.353635
 20
38.709451
  0
VERTEX
  8
parque_infantil
 10
-9.353704
 20
38.709454
  0
VERTEX
  8
parque_infantil
 10
-9.353797
 20
38.709458
  0
VERTEX
  8
parque_infantil
 10
-9.353784
 20
38.709575
  0
VERTEX
  8
parque_infantil
 10
-9.353784
 20
38.709576
  0
VERTEX
  8
parque_infantil
 10
-9.353784
 20
38.709579
  0
VERTEX
  8
parque_infantil
 10
-9.353784
 20
38.709581
  0
VERTEX
  8
parque_infantil
 10
-9.353783
 20
38.709584
  0
VERTEX
  8
parque_infantil
 10
-9.353782
 20
38.709587
  0
VERTEX
  8
parque_infantil
 10
-9.353780
 20
38.709589
  0
VERTEX
  8
parque_infantil
 10
-9.353778
 20
38.709592
  0
VERTEX
  8
parque_infantil
 10
-9.353776
 20
38.709594
  0
VERTEX
  8
parque_infantil
 10
-9.353773
 20
38.709596
  0
VERTEX
  8
parque_infantil
 10
-9.353770
 20
38.709597
  0
VERTEX
  8
parque_infantil
 10
-9.353767
 20
38.709599
  0
VERTEX
  8
parque_infantil
 10
-9.353763
 20
38.709600
  0
SEQEND
  0
POINT
  8
parque_infantil
  6
BYLAYER
 10
-9.324125
 20
38.680658
 50
0.000000
  0
POLYLINE
  8
parque_infantil
  6
BYLAYER
 66
1
 70
1
 40
0.000000
 41
0.000000
  0
VERTEX
  8
parque_infantil
 10
-9.323958
 20
38.680749
  0
VERTEX
  8
parque_infantil
 10
-9.324084
 20
38.680619
  0
VERTEX
  8
parque_infantil
 10
-9.324093
 20
38.680601
  0
VERTEX
  8
parque_infantil
 10
-9.324126
 20
38.680559
  0
VERTEX
  8
parque_infantil
 10
-9.324201
 20
38.680563
  0
VERTEX
  8
parque_infantil
 10
-9.324182
 20
38.680722
  0
VERTEX
  8
parque_infantil
 10
-9.324072
 20
38.680714
  0
VERTEX
  8
parque_infantil
 10
-9.324040
 20
38.680684
  0
VERTEX
  8
parque_infantil
 10
-9.324053
 20
38.680644
  0
VERTEX
  8
parque_infantil
 10
-9.323958
 20
38.680749
  0
SEQEND
  0
POINT
  8
parque_infantil
  6
BYLAYER
 10
-9.342498
 20
38.708799
 50
0.000000
  0
POLYLINE
  8
parque_infantil
  6
BYLAYER
 66
1
 70
1
 40
0.000000
 41
0.000000
  0
VERTEX
  8
parque_infantil
 10
-9.342534
 20
38.708854
  0
VERTEX
  8
parque_infantil
 10
-9.342451
 20
38.708850
  0
VERTEX
  8
parque_infantil
 10
-9.342460
 20
38.708744
  0
VERTEX
  8
parque_infantil
 10
-9.342541
 20
38.708749
  0
VERTEX
  8
parque_infantil
 10
-9.342541
 20
38.708749
  0
VERTEX
  8
parque_infantil
 10
-9.342534
 20
38.708854
  0
SEQEND
  0
POINT
  8
parque_infantil
  6
BYLAYER
 10
-9.438110
 20
38.752016
 50
0.000000
  0
POLYLINE
  8
parque_infantil
  6
BYLAYER
 66
1
 70
1
 40
0.000000
 41
0.000000
  0
VERTEX
  8
parque_infantil
 10
-9.438330
 20
38.751984
  0
VERTEX
  8
parque_infantil
 10
-9.438197
 20
38.752064
  0
VERTEX
  8
parque_infantil
 10
-9.438059
 20
38.752153
  0
VERTEX
  8
parque_infantil
 10
-9.438001
 20
38.752154
  0
VERTEX
  8
parque_infantil
 10
-9.437985
 20
38.752073
  0
VERTEX
  8
parque_infantil
 10
-9.437975
 20
38.752013
  0
VERTEX
  8
parque_infantil
 10
-9.437974
 20
38.752006
  0
VERTEX
  8
parque_infantil
 10
-9.437974
 20
38.752001
  0
VERTEX
  8
parque_infantil
 10
-9.437976
 20
38.751993
  0
VERTEX
  8
parque_infantil
 10
-9.437978
 20
38.751984
  0
VERTEX
  8
parque_infantil
 10
-9.437982
 20
38.751976
  0
VERTEX
  8
parque_infantil
 10
-9.437988
 20
38.751966
  0
VERTEX
  8
parque_infantil
 10
-9.437995
 20
38.751956
  0
VERTEX
  8
parque_infantil
 10
-9.438002
 20
38.751949
  0
VERTEX
  8
parque_infantil
 10
-9.438008
 20
38.751944
  0
VERTEX
  8
parque_infantil
 10
-9.438018
 20
38.751937
  0
VERTEX
  8
parque_infantil
 10
-9.438027
 20
38.751932
  0
VERTEX
  8
parque_infantil
 10
-9.438037
 20
38.751928
  0
VERTEX
  8
parque_infantil
 10
-9.438050
 20
38.751924
  0
VERTEX
  8
parque_infantil
 10
-9.438096
 20
38.751924
  0
VERTEX
  8
parque_infantil
 10
-9.438214
 20
38.751926
  0
VERTEX
  8
parque_infantil
 10
-9.438398
 20
38.751924
  0
VERTEX
  8
parque_infantil
 10
-9.438460
 20
38.751923
  0
VERTEX
  8
parque_infantil
 10
-9.438361
 20
38.751969
  0
VERTEX
  8
parque_infantil
 10
-9.438330
 20
38.751984
  0
SEQEND
  0
POINT
  8
parque_infantil
  6
BYLAYER
 10
-9.386715
 20
38.708385
 50
0.000000
  0
POLYLINE
  8
parque_infantil
  6
BYLAYER
 66
1
 70
1
 40
0.000000
 41
0.000000
  0
VERTEX
  8
parque_infantil
 10
-9.386767
 20
38.708466
  0
VERTEX
  8
parque_infantil
 10
-9.386631
 20
38.708431
  0
VERTEX
  8
parque_infantil
 10
-9.386671
 20
38.708307
  0
VERTEX
  8
parque_infantil
 10
-9.386812
 20
38.708343
  0
VERTEX
  8
parque_infantil
 10
-9.386767
 20
38.708466
  0
SEQEND
  0
POINT
  8
parque_infantil
  6
BYLAYER
 10
-9.359524
 20
38.707542
 50
0.000000
  0
POLYLINE
  8
parque_infantil
  6
BYLAYER
 66
1
 70
1
 40
0.000000
 41
0.000000
  0
VERTEX
  8
parque_infantil
 10
-9.359620
 20
38.707450
  0
VERTEX
  8
parque_infantil
 10
-9.359625
 20
38.707563
  0
VERTEX
  8
parque_infantil
 10
-9.359614
 20
38.707624
  0
VERTEX
  8
parque_infantil
 10
-9.359439
 20
38.707689
  0
VERTEX
  8
parque_infantil
 10
-9.359283
 20
38.707639
  0
VERTEX
  8
parque_infantil
 10
-9.359230
 20
38.707541
  0
VERTEX
  8
parque_infantil
 10
-9.359205
 20
38.707452
  0
VERTEX
  8
parque_infantil
 10
-9.359329
 20
38.707388
  0
VERTEX
  8
parque_infantil
 10
-9.359455
 20
38.707382
  0
VERTEX
  8
parque_infantil
 10
-9.359620
 20
38.707450
  0
SEQEND
  0
POINT
  8
parque_infantil
  6
BYLAYER
 10
-9.349039
 20
38.712315
 50
0.000000
  0
POLYLINE
  8
parque_infantil
  6
BYLAYER
 66
1
 70
1
 40
0.000000
 41
0.000000
  0
VERTEX
  8
parque_infantil
 10
-9.349017
 20
38.712198
  0
VERTEX
  8
parque_infantil
 10
-9.349041
 20
38.712218
  0
VERTEX
  8
parque_infantil
 10
-9.349057
 20
38.712233
  0
VERTEX
  8
parque_infantil
 10
-9.349072
 20
38.712246
  0
VERTEX
  8
parque_infantil
 10
-9.349088
 20
38.712260
  0
VERTEX
  8
parque_infantil
 10
-9.349105
 20
38.712275
  0
VERTEX
  8
parque_infantil
 10
-9.349121
 20
38.712289
  0
VERTEX
  8
parque_infantil
 10
-9.349131
 20
38.712298
  0
VERTEX
  8
parque_infantil
 10
-9.349143
 20
38.712314
  0
VERTEX
  8
parque_infantil
 10
-9.349153
 20
38.712327
  0
VERTEX
  8
parque_infantil
 10
-9.349167
 20
38.712345
  0
VERTEX
  8
parque_infantil
 10
-9.349175
 20
38.712357
  0
VERTEX
  8
parque_infantil
 10
-9.349185
 20
38.712371
  0
VERTEX
  8
parque_infantil
 10
-9.349192
 20
38.712381
  0
VERTEX
  8
parque_infantil
 10
-9.349200
 20
38.712390
  0
VERTEX
  8
parque_infantil
 10
-9.349211
 20
38.712401
  0
VERTEX
  8
parque_infantil
 10
-9.349218
 20
38.712408
  0
VERTEX
  8
parque_infantil
 10
-9.349227
 20
38.712416
  0
VERTEX
  8
parque_infantil
 10
-9.349192
 20
38.712447
  0
VERTEX
  8
parque_infantil
 10
-9.349171
 20
38.712442
  0
VERTEX
  8
parque_infantil
 10
-9.349154
 20
38.712440
  0
VERTEX
  8
parque_infantil
 10
-9.349129
 20
38.712434
  0
VERTEX
  8
parque_infantil
 10
-9.349107
 20
38.712427
  0
VERTEX
  8
parque_infantil
 10
-9.349090
 20
38.712422
  0
VERTEX
  8
parque_infantil
 10
-9.349074
 20
38.712417
  0
VERTEX
  8
parque_infantil
 10
-9.349059
 20
38.712410
  0
VERTEX
  8
parque_infantil
 10
-9.349045
 20
38.712403
  0
VERTEX
  8
parque_infantil
 10
-9.349033
 20
38.712397
  0
VERTEX
  8
parque_infantil
 10
-9.349023
 20
38.712390
  0
VERTEX
  8
parque_infantil
 10
-9.349012
 20
38.712382
  0
VERTEX
  8
parque_infantil
 10
-9.348994
 20
38.712366
  0
VERTEX
  8
parque_infantil
 10
-9.348984
 20
38.712352
  0
VERTEX
  8
parque_infantil
 10
-9.348970
 20
38.712334
  0
VERTEX
  8
parque_infantil
 10
-9.348963
 20
38.712325
  0
VERTEX
  8
parque_infantil
 10
-9.348958
 20
38.712314
  0
VERTEX
  8
parque_infantil
 10
-9.348954
 20
38.712304
  0
VERTEX
  8
parque_infantil
 10
-9.348950
 20
38.712291
  0
VERTEX
  8
parque_infantil
 10
-9.348947
 20
38.712277
  0
VERTEX
  8
parque_infantil
 10
-9.348945
 20
38.712264
  0
VERTEX
  8
parque_infantil
 10
-9.348944
 20
38.712248
  0
VERTEX
  8
parque_infantil
 10
-9.348946
 20
38.712233
  0
VERTEX
  8
parque_infantil
 10
-9.348949
 20
38.712218
  0
VERTEX
  8
parque_infantil
 10
-9.348953
 20
38.712203
  0
VERTEX
  8
parque_infantil
 10
-9.349017
 20
38.712198
  0
SEQEND
  0
POINT
  8
parque_infantil
  6
BYLAYER
 10
-9.343189
 20
38.717406
 50
0.000000
  0
POLYLINE
  8
parque_infantil
  6
BYLAYER
 66
1
 70
1
 40
0.000000
 41
0.000000
  0
VERTEX
  8
parque_infantil
 10
-9.343364
 20
38.717531
  0
VERTEX
  8
parque_infantil
 10
-9.343240
 20
38.717502
  0
VERTEX
  8
parque_infantil
 10
-9.343179
 20
38.717480
  0
VERTEX
  8
parque_infantil
 10
-9.343125
 20
38.717464
  0
VERTEX
  8
parque_infantil
 10
-9.343080
 20
38.717443
  0
VERTEX
  8
parque_infantil
 10
-9.343040
 20
38.717416
  0
VERTEX
  8
parque_infantil
 10
-9.343045
 20
38.717377
  0
VERTEX
  8
parque_infantil
 10
-9.343052
 20
38.717363
  0
VERTEX
  8
parque_infantil
 10
-9.343068
 20
38.717348
  0
VERTEX
  8
parque_infantil
 10
-9.343098
 20
38.717335
  0
VERTEX
  8
parque_infantil
 10
-9.343131
 20
38.717316
  0
VERTEX
  8
parque_infantil
 10
-9.343180
 20
38.717302
  0
VERTEX
  8
parque_infantil
 10
-9.343216
 20
38.717292
  0
VERTEX
  8
parque_infantil
 10
-9.343248
 20
38.717328
  0
VERTEX
  8
parque_infantil
 10
-9.343289
 20
38.717379
  0
VERTEX
  8
parque_infantil
 10
-9.343313
 20
38.717415
  0
VERTEX
  8
parque_infantil
 10
-9.343337
 20
38.717457
  0
VERTEX
  8
parque_infantil
 10
-9.343359
 20
38.717496
  0
VERTEX
  8
parque_infantil
 10
-9.343364
 20
38.717531
  0
SEQEND
  0
POINT
  8
parque_infantil
  6
BYLAYER
 10
-9.320355
 20
38.726374
 50
0.000000
  0
POLYLINE
  8
parque_infantil
  6
BYLAYER
 66
1
 70
1
 40
0.000000
 41
0.000000
  0
VERTEX
  8
parque_infantil
 10
-9.320306
 20
38.726422
  0
VERTEX
  8
parque_infantil
 10
-9.320284
 20
38.726165
  0
VERTEX
  8
parque_infantil
 10
-9.320451
 20
38.726154
  0
VERTEX
  8
parque_infantil
 10
-9.320474
 20
38.726411
  0
VERTEX
  8
parque_infantil
 10
-9.320306
 20
38.726422
  0
SEQEND
  0
POINT
  8
parque_infantil
  6
BYLAYER
 10
-9.346745
 20
38.701011
 50
0.000000
  0
POLYLINE
  8
parque_infantil
  6
BYLAYER
 66
1
 70
1
 40
0.000000
 41
0.000000
  0
VERTEX
  8
parque_infantil
 10
-9.346939
 20
38.700972
  0
VERTEX
  8
parque_infantil
 10
-9.346741
 20
38.701064
  0
VERTEX
  8
parque_infantil
 10
-9.346673
 20
38.700802
  0
VERTEX
  8
parque_infantil
 10
-9.346818
 20
38.700733
  0
VERTEX
  8
parque_infantil
 10
-9.346939
 20
38.700972
  0
SEQEND
  0
POINT
  8
parque_infantil
  6
BYLAYER
 10
-9.420233
 20
38.707600
 50
0.000000
  0
POLYLINE
  8
parque_infantil
  6
BYLAYER
 66
1
 70
1
 40
0.000000
 41
0.000000
  0
VERTEX
  8
parque_infantil
 10
-9.420347
 20
38.707669
  0
VERTEX
  8
parque_infantil
 10
-9.420283
 20
38.707668
  0
VERTEX
  8
parque_infantil
 10
-9.420212
 20
38.707638
  0
VERTEX
  8
parque_infantil
 10
-9.420165
 20
38.707609
  0
VERTEX
  8
parque_infantil
 10
-9.420107
 20
38.707568
  0
VERTEX
  8
parque_infantil
 10
-9.420063
 20
38.707540
  0
VERTEX
  8
parque_infantil
 10
-9.420071
 20
38.707503
  0
VERTEX
  8
parque_infantil
 10
-9.420095
 20
38.707481
  0
VERTEX
  8
parque_infantil
 10
-9.420143
 20
38.707484
  0
VERTEX
  8
parque_infantil
 10
-9.420204
 20
38.707507
  0
VERTEX
  8
parque_infantil
 10
-9.420271
 20
38.707534
  0
VERTEX
  8
parque_infantil
 10
-9.420322
 20
38.707572
  0
VERTEX
  8
parque_infantil
 10
-9.420358
 20
38.707605
  0
VERTEX
  8
parque_infantil
 10
-9.420379
 20
38.707646
  0
VERTEX
  8
parque_infantil
 10
-9.420347
 20
38.707669
  0
SEQEND
  0
POINT
  8
parque_infantil
  6
BYLAYER
 10
-9.331366
 20
38.710505
 50
0.000000
  0
POLYLINE
  8
parque_infantil
  6
BYLAYER
 66
1
 70
1
 40
0.000000
 41
0.000000
  0
VERTEX
  8
parque_infantil
 10
-9.331376
 20
38.710566
  0
VERTEX
  8
parque_infantil
 10
-9.331283
 20
38.710616
  0
VERTEX
  8
parque_infantil
 10
-9.331268
 20
38.710572
  0
VERTEX
  8
parque_infantil
 10
-9.331267
 20
38.710556
  0
VERTEX
  8
parque_infantil
 10
-9.331268
 20
38.710541
  0
VERTEX
  8
parque_infantil
 10
-9.331276
 20
38.710519
  0
VERTEX
  8
parque_infantil
 10
-9.331280
 20
38.710503
  0
VERTEX
  8
parque_infantil
 10
-9.331294
 20
38.710488
  0
VERTEX
  8
parque_infantil
 10
-9.331304
 20
38.710472
  0
VERTEX
  8
parque_infantil
 10
-9.331324
 20
38.710459
  0
VERTEX
  8
parque_infantil
 10
-9.331346
 20
38.710446
  0
VERTEX
  8
parque_infantil
 10
-9.331373
 20
38.710434
  0
VERTEX
  8
parque_infantil
 10
-9.331396
 20
38.710432
  0
VERTEX
  8
parque_infantil
 10
-9.331426
 20
38.710429
  0
VERTEX
  8
parque_infantil
 10
-9.331461
 20
38.710429
  0
VERTEX
  8
parque_infantil
 10
-9.331507
 20
38.710438
  0
VERTEX
  8
parque_infantil
 10
-9.331506
 20
38.710471
  0
VERTEX
  8
parque_infantil
 10
-9.331495
 20
38.710508
  0
VERTEX
  8
parque_infantil
 10
-9.331476
 20
38.710528
  0
VERTEX
  8
parque_infantil
 10
-9.331448
 20
38.710544
  0
VERTEX
  8
parque_infantil
 10
-9.331376
 20
38.710566
  0
SEQEND
  0
POLYLINE
  8
parque_infantil
  6
BYLAYER
 66
1
 70
1
 40
0.000000
 41
0.000000
  0
VERTEX
  8
parque_infantil
 10
-9.332136
 20
38.710216
  0
VERTEX
  8
parque_infantil
 10
-9.332168
 20
38.710238
  0
VERTEX
  8
parque_infantil
 10
-9.332168
 20
38.710269
  0
VERTEX
  8
parque_infantil
 10
-9.332153
 20
38.710298
  0
VERTEX
  8
parque_infantil
 10
-9.332137
 20
38.710318
  0
VERTEX
  8
parque_infantil
 10
-9.332109
 20
38.710332
  0
VERTEX
  8
parque_infantil
 10
-9.332079
 20
38.710348
  0
VERTEX
  8
parque_infantil
 10
-9.332046
 20
38.710360
  0
VERTEX
  8
parque_infantil
 10
-9.332015
 20
38.710370
  0
VERTEX
  8
parque_infantil
 10
-9.331987
 20
38.710382
  0
VERTEX
  8
parque_infantil
 10
-9.331969
 20
38.710395
  0
VERTEX
  8
parque_infantil
 10
-9.331941
 20
38.710410
  0
VERTEX
  8
parque_infantil
 10
-9.331926
 20
38.710395
  0
VERTEX
  8
parque_infantil
 10
-9.331913
 20
38.710370
  0
VERTEX
  8
parque_infantil
 10
-9.331900
 20
38.710339
  0
VERTEX
  8
parque_infantil
 10
-9.331897
 20
38.710315
  0
VERTEX
  8
parque_infantil
 10
-9.331901
 20
38.710292
  0
VERTEX
  8
parque_infantil
 10
-9.331912
 20
38.710273
  0
VERTEX
  8
parque_infantil
 10
-9.331928
 20
38.710250
  0
VERTEX
  8
parque_infantil
 10
-9.331944
 20
38.710236
  0
VERTEX
  8
parque_infantil
 10
-9.331968
 20
38.710219
  0
VERTEX
  8
parque_infantil
 10
-9.331997
 20
38.710208
  0
VERTEX
  8
parque_infantil
 10
-9.332030
 20
38.710202
  0
VERTEX
  8
parque_infantil
 10
-9.332070
 20
38.710200
  0
VERTEX
  8
parque_infantil
 10
-9.332105
 20
38.710204
  0
VERTEX
  8
parque_infantil
 10
-9.332136
 20
38.710216
  0
SEQEND
  0
POINT
  8
parque_infantil
  6
BYLAYER
 10
-9.423097
 20
38.725075
 50
0.000000
  0
POLYLINE
  8
parque_infantil
  6
BYLAYER
 66
1
 70
1
 40
0.000000
 41
0.000000
  0
VERTEX
  8
parque_infantil
 10
-9.423190
 20
38.725035
  0
VERTEX
  8
parque_infantil
 10
-9.423157
 20
38.725138
  0
VERTEX
  8
parque_infantil
 10
-9.423035
 20
38.725122
  0
VERTEX
  8
parque_infantil
 10
-9.423021
 20
38.725031
  0
VERTEX
  8
parque_infantil
 10
-9.423190
 20
38.725035
  0
SEQEND
  0
POINT
  8
parque_infantil
  6
BYLAYER
 10
-9.414128
 20
38.711794
 50
0.000000
  0
POLYLINE
  8
parque_infantil
  6
BYLAYER
 66
1
 70
1
 40
0.000000
 41
0.000000
  0
VERTEX
  8
parque_infantil
 10
-9.414090
 20
38.711732
  0
VERTEX
  8
parque_infantil
 10
-9.414197
 20
38.711765
  0
VERTEX
  8
parque_infantil
 10
-9.414165
 20
38.711857
  0
VERTEX
  8
parque_infantil
 10
-9.414047
 20
38.711824
  0
VERTEX
  8
parque_infantil
 10
-9.414090
 20
38.711732
  0
SEQEND
  0
POINT
  8
parque_infantil
  6
BYLAYER
 10
-9.444201
 20
38.701698
 50
0.000000
  0
POLYLINE
  8
parque_infantil
  6
BYLAYER
 66
1
 70
1
 40
0.000000
 41
0.000000
  0
VERTEX
  8
parque_infantil
 10
-9.444309
 20
38.701505
  0
VERTEX
  8
parque_infantil
 10
-9.444362
 20
38.701823
  0
VERTEX
  8
parque_infantil
 10
-9.444126
 20
38.701857
  0
VERTEX
  8
parque_infantil
 10
-9.444083
 20
38.701547
  0
VERTEX
  8
parque_infantil
 10
-9.444309
 20
38.701505
  0
SEQEND
  0
POINT
  8
parque_infantil
  6
BYLAYER
 10
-9.350088
 20
38.692353
 50
0.000000
  0
POLYLINE
  8
parque_infantil
  6
BYLAYER
 66
1
 70
1
 40
0.000000
 41
0.000000
  0
VERTEX
  8
parque_infantil
 10
-9.349718
 20
38.692168
  0
VERTEX
  8
parque_infantil
 10
-9.349884
 20
38.692189
  0
VERTEX
  8
parque_infantil
 10
-9.349965
 20
38.692198
  0
VERTEX
  8
parque_infantil
 10
-9.350120
 20
38.692156
  0
VERTEX
  8
parque_infantil
 10
-9.350276
 20
38.692185
  0
VERTEX
  8
parque_infantil
 10
-9.350630
 20
38.692332
  0
VERTEX
  8
parque_infantil
 10
-9.350699
 20
38.692382
  0
VERTEX
  8
parque_infantil
 10
-9.350657
 20
38.692436
  0
VERTEX
  8
parque_infantil
 10
-9.350533
 20
38.692441
  0
VERTEX
  8
parque_infantil
 10
-9.350480
 20
38.692495
  0
VERTEX
  8
parque_infantil
 10
-9.350501
 20
38.692545
  0
VERTEX
  8
parque_infantil
 10
-9.350480
 20
38.692591
  0
VERTEX
  8
parque_infantil
 10
-9.350404
 20
38.692617
  0
VERTEX
  8
parque_infantil
 10
-9.349669
 20
38.692428
  0
VERTEX
  8
parque_infantil
 10
-9.349621
 20
38.692386
  0
VERTEX
  8
parque_infantil
 10
-9.349578
 20
38.692294
  0
VERTEX
  8
parque_infantil
 10
-9.349621
 20
38.692215
  0
VERTEX
  8
parque_infantil
 10
-9.349718
 20
38.692168
  0
SEQEND
  0
POINT
  8
parque_infantil
  6
BYLAYER
 10
-9.312518
 20
38.740007
 50
0.000000
  0
POLYLINE
  8
parque_infantil
  6
BYLAYER
 66
1
 70
1
 40
0.000000
 41
0.000000
  0
VERTEX
  8
parque_infantil
 10
-9.312663
 20
38.740038
  0
VERTEX
  8
parque_infantil
 10
-9.312443
 20
38.740099
  0
VERTEX
  8
parque_infantil
 10
-9.312410
 20
38.740017
  0
VERTEX
  8
parque_infantil
 10
-9.312622
 20
38.739961
  0
VERTEX
  8
parque_infantil
 10
-9.312663
 20
38.740038
  0
SEQEND
  0
POINT
  8
parque_infantil
  6
BYLAYER
 10
-9.361207
 20
38.706369
 50
0.000000
  0
POLYLINE
  8
parque_infantil
  6
BYLAYER
 66
1
 70
1
 40
0.000000
 41
0.000000
  0
VERTEX
  8
parque_infantil
 10
-9.361215
 20
38.706526
  0
VERTEX
  8
parque_infantil
 10
-9.361160
 20
38.706510
  0
VERTEX
  8
parque_infantil
 10
-9.361186
 20
38.706456
  0
VERTEX
  8
parque_infantil
 10
-9.361089
 20
38.706427
  0
VERTEX
  8
parque_infantil
 10
-9.361087
 20
38.706400
  0
VERTEX
  8
parque_infantil
 10
-9.361151
 20
38.706243
  0
VERTEX
  8
parque_infantil
 10
-9.361300
 20
38.706279
  0
VERTEX
  8
parque_infantil
 10
-9.361286
 20
38.706321
  0
VERTEX
  8
parque_infantil
 10
-9.361281
 20
38.706362
  0
VERTEX
  8
parque_infantil
 10
-9.361272
 20
38.706423
  0
VERTEX
  8
parque_infantil
 10
-9.361272
 20
38.706456
  0
VERTEX
  8
parque_infantil
 10
-9.361258
 20
38.706494
  0
VERTEX
  8
parque_infantil
 10
-9.361237
 20
38.706514
  0
VERTEX
  8
parque_infantil
 10
-9.361215
 20
38.706526
  0
SEQEND
  0
POINT
  8
parque_infantil
  6
BYLAYER
 10
-9.332163
 20
38.724295
 50
0.000000
  0
POLYLINE
  8
parque_infantil
  6
BYLAYER
 66
1
 70
1
 40
0.000000
 41
0.000000
  0
VERTEX
  8
parque_infantil
 10
-9.332190
 20
38.724180
  0
VERTEX
  8
parque_infantil
 10
-9.332213
 20
38.724384
  0
VERTEX
  8
parque_infantil
 10
-9.332107
 20
38.724394
  0
VERTEX
  8
parque_infantil
 10
-9.332087
 20
38.724184
  0
VERTEX
  8
parque_infantil
 10
-9.332190
 20
38.724180
  0
SEQEND
  0
POINT
  8
parque_infantil
  6
BYLAYER
 10
-9.363472
 20
38.713059
 50
0.000000
  0
POLYLINE
  8
parque_infantil
  6
BYLAYER
 66
1
 70
1
 40
0.000000
 41
0.000000
  0
VERTEX
  8
parque_infantil
 10
-9.363400
 20
38.712995
  0
VERTEX
  8
parque_infantil
 10
-9.363423
 20
38.712984
  0
VERTEX
  8
parque_infantil
 10
-9.363448
 20
38.712978
  0
VERTEX
  8
parque_infantil
 10
-9.363473
 20
38.712976
  0
VERTEX
  8
parque_infantil
 10
-9.363499
 20
38.712978
  0
VERTEX
  8
parque_infantil
 10
-9.363524
 20
38.712985
  0
VERTEX
  8
parque_infantil
 10
-9.363546
 20
38.712996
  0
VERTEX
  8
parque_infantil
 10
-9.363564
 20
38.713011
  0
VERTEX
  8
parque_infantil
 10
-9.363578
 20
38.713028
  0
VERTEX
  8
parque_infantil
 10
-9.363587
 20
38.713047
  0
VERTEX
  8
parque_infantil
 10
-9.363590
 20
38.713068
  0
VERTEX
  8
parque_infantil
 10
-9.363588
 20
38.713088
  0
VERTEX
  8
parque_infantil
 10
-9.363579
 20
38.713107
  0
VERTEX
  8
parque_infantil
 10
-9.363566
 20
38.713124
  0
VERTEX
  8
parque_infantil
 10
-9.363547
 20
38.713140
  0
VERTEX
  8
parque_infantil
 10
-9.363526
 20
38.713152
  0
VERTEX
  8
parque_infantil
 10
-9.363502
 20
38.713161
  0
VERTEX
  8
parque_infantil
 10
-9.363477
 20
38.713166
  0
VERTEX
  8
parque_infantil
 10
-9.363450
 20
38.713165
  0
VERTEX
  8
parque_infantil
 10
-9.363423
 20
38.713161
  0
VERTEX
  8
parque_infantil
 10
-9.363401
 20
38.713152
  0
VERTEX
  8
parque_infantil
 10
-9.363381
 20
38.713138
  0
VERTEX
  8
parque_infantil
 10
-9.363365
 20
38.713121
  0
VERTEX
  8
parque_infantil
 10
-9.363355
 20
38.713102
  0
VERTEX
  8
parque_infantil
 10
-9.363350
 20
38.713081
  0
VERTEX
  8
parque_infantil
 10
-9.363351
 20
38.713062
  0
VERTEX
  8
parque_infantil
 10
-9.363359
 20
38.713041
  0
VERTEX
  8
parque_infantil
 10
-9.363375
 20
38.713020
  0
VERTEX
  8
parque_infantil
 10
-9.363389
 20
38.713003
  0
VERTEX
  8
parque_infantil
 10
-9.363400
 20
38.712995
  0
SEQEND
  0
POINT
  8
parque_infantil
  6
BYLAYER
 10
-9.327779
 20
38.727311
 50
0.000000
  0
POLYLINE
  8
parque_infantil
  6
BYLAYER
 66
1
 70
1
 40
0.000000
 41
0.000000
  0
VERTEX
  8
parque_infantil
 10
-9.327773
 20
38.727277
  0
VERTEX
  8
parque_infantil
 10
-9.327907
 20
38.727365
  0
VERTEX
  8
parque_infantil
 10
-9.327682
 20
38.727691
  0
VERTEX
  8
parque_infantil
 10
-9.327543
 20
38.727629
  0
VERTEX
  8
parque_infantil
 10
-9.327773
 20
38.727277
  0
SEQEND
  0
POINT
  8
parque_infantil
  6
BYLAYER
 10
-9.389581
 20
38.743330
 50
0.000000
  0
POLYLINE
  8
parque_infantil
  6
BYLAYER
 66
1
 70
1
 40
0.000000
 41
0.000000
  0
VERTEX
  8
parque_infantil
 10
-9.389756
 20
38.743378
  0
VERTEX
  8
parque_infantil
 10
-9.389735
 20
38.743428
  0
VERTEX
  8
parque_infantil
 10
-9.389611
 20
38.743401
  0
VERTEX
  8
parque_infantil
 10
-9.389533
 20
38.743347
  0
VERTEX
  8
parque_infantil
 10
-9.389501
 20
38.743284
  0
VERTEX
  8
parque_infantil
 10
-9.389515
 20
38.743209
  0
VERTEX
  8
parque_infantil
 10
-9.389520
 20
38.743175
  0
VERTEX
  8
parque_infantil
 10
-9.389574
 20
38.743186
  0
VERTEX
  8
parque_infantil
 10
-9.389576
 20
38.743261
  0
VERTEX
  8
parque_infantil
 10
-9.389602
 20
38.743305
  0
VERTEX
  8
parque_infantil
 10
-9.389665
 20
38.743358
  0
VERTEX
  8
parque_infantil
 10
-9.389756
 20
38.743378
  0
SEQEND
  0
POINT
  8
parque_infantil
  6
BYLAYER
 10
-9.394922
 20
38.734819
 50
0.000000
  0
POLYLINE
  8
parque_infantil
  6
BYLAYER
 66
1
 70
1
 40
0.000000
 41
0.000000
  0
VERTEX
  8
parque_infantil
 10
-9.394943
 20
38.734774
  0
VERTEX
  8
parque_infantil
 10
-9.394964
 20
38.734867
  0
VERTEX
  8
parque_infantil
 10
-9.394912
 20
38.734876
  0
VERTEX
  8
parque_infantil
 10
-9.394893
 20
38.734803
  0
VERTEX
  8
parque_infantil
 10
-9.394860
 20
38.734807
  0
VERTEX
  8
parque_infantil
 10
-9.394844
 20
38.734763
  0
VERTEX
  8
parque_infantil
 10
-9.394899
 20
38.734752
  0
VERTEX
  8
parque_infantil
 10
-9.394907
 20
38.734780
  0
VERTEX
  8
parque_infantil
 10
-9.394943
 20
38.734774
  0
SEQEND
  0
POINT
  8
parque_infantil
  6
BYLAYER
 10
-9.380601
 20
38.703298
 50
0.000000
  0
POLYLINE
  8
parque_infantil
  6
BYLAYER
 66
1
 70
1
 40
0.000000
 41
0.000000
  0
VERTEX
  8
parque_infantil
 10
-9.380707
 20
38.703225
  0
VERTEX
  8
parque_infantil
 10
-9.380760
 20
38.703339
  0
VERTEX
  8
parque_infantil
 10
-9.380610
 20
38.703329
  0
VERTEX
  8
parque_infantil
 10
-9.380496
 20
38.703346
  0
VERTEX
  8
parque_infantil
 10
-9.380476
 20
38.703277
  0
VERTEX
  8
parque_infantil
 10
-9.380591
 20
38.703264
  0
VERTEX
  8
parque_infantil
 10
-9.380707
 20
38.703225
  0
SEQEND
  0
ENDSEC
  0
EOF
