  0
SECTION
  2
HEADER
  9
$LTSCALE
 40
1.000000
  9
$LUNITS
 70
2
  9
$LUPREC
 70
4
  9
$AUNITS
 70
1
  9
$AUPREC
 70
4
  9
$FILLMODE
 70
1
  0
ENDSEC
  0
SECTION
  2
TABLES
  0
TABLE
  2
VPORT
 70
0
  0
ENDTAB
  0
TABLE
  2
LTYPE
 70
1
  0
LTYPE
  2
CONTINUOUS
 70
64
  3
Solid line
 72
65
 73
0
 40
0.000000
  0
ENDTAB
  0
TABLE
  2
LAYER
 70
1
  0
LAYER
  2
0
 62
1
  6
CONTINUOUS
 70
64
  0
ENDTAB
  0
TABLE
  2
STYLE
 70
1
  0
STYLE
  2
STANDARD
 70
64
 40
0.000000
 41
1.000000
 50
0.000000
 71
0
 42
2.000000
  3
txt
  4

  0
ENDTAB
  0
TABLE
  2
VIEW
 70
0
  0
ENDTAB
  0
TABLE
  2
UCS
 70
0
  0
ENDTAB
  0
TABLE
  2
APPID
 70
0
  0
ENDTAB
  0
TABLE
  2
DIMSTYLE
 70
1
  0
DIMSTYLE
  2
STANDARD
 70
0
  3

  4

  5

  6

  7

 40
1.000000
 41
3.000000
 42
2.500000
 43
10.000000
 44
2.500000
 45
0.000000
 46
1.250000
 47
0.000000
 48
0.000000
140
3.000000
141
-3.000000
142
0.000000
143
0.039000
144
1.000000
145
1.500000
146
0.750000
147
1.500000
 71
0
 72
0
 73
0
 74
0
 75
0
 76
0
 77
0
 78
0
170
0
171
0
172
0
173
0
174
0
175
0
176
0
177
0
178
0
  0
ENDTAB
  0
ENDSEC
  0
SECTION
  2
ENTITIES
  0
POLYLINE
  8
campo_jogos
  6
BYLAYER
 66
1
 70
1
 40
0.000000
 41
0.000000
  0
VERTEX
  8
campo_jogos
 10
-9.383432
 20
38.752909
  0
VERTEX
  8
campo_jogos
 10
-9.383418
 20
38.752626
  0
VERTEX
  8
campo_jogos
 10
-9.383580
 20
38.752621
  0
VERTEX
  8
campo_jogos
 10
-9.383580
 20
38.752633
  0
VERTEX
  8
campo_jogos
 10
-9.383632
 20
38.752632
  0
VERTEX
  8
campo_jogos
 10
-9.383631
 20
38.752621
  0
VERTEX
  8
campo_jogos
 10
-9.383649
 20
38.752621
  0
VERTEX
  8
campo_jogos
 10
-9.383667
 20
38.752992
  0
VERTEX
  8
campo_jogos
 10
-9.383437
 20
38.752999
  0
VERTEX
  8
campo_jogos
 10
-9.383434
 20
38.752945
  0
VERTEX
  8
campo_jogos
 10
-9.383432
 20
38.752909
  0
VERTEX
  8
campo_jogos
 10
-9.383432
 20
38.752909
  0
SEQEND
  0
POLYLINE
  8
campo_jogos
  6
BYLAYER
 66
1
 70
1
 40
0.000000
 41
0.000000
  0
VERTEX
  8
campo_jogos
 10
-9.383222
 20
38.752915
  0
VERTEX
  8
campo_jogos
 10
-9.383208
 20
38.752632
  0
VERTEX
  8
campo_jogos
 10
-9.383418
 20
38.752626
  0
VERTEX
  8
campo_jogos
 10
-9.383432
 20
38.752909
  0
VERTEX
  8
campo_jogos
 10
-9.383434
 20
38.752945
  0
VERTEX
  8
campo_jogos
 10
-9.383437
 20
38.752999
  0
VERTEX
  8
campo_jogos
 10
-9.383226
 20
38.753006
  0
VERTEX
  8
campo_jogos
 10
-9.383224
 20
38.752953
  0
VERTEX
  8
campo_jogos
 10
-9.383222
 20
38.752915
  0
VERTEX
  8
campo_jogos
 10
-9.383222
 20
38.752915
  0
SEQEND
  0
POLYLINE
  8
campo_jogos
  6
BYLAYER
 66
1
 70
1
 40
0.000000
 41
0.000000
  0
VERTEX
  8
campo_jogos
 10
-9.384712
 20
38.754612
  0
VERTEX
  8
campo_jogos
 10
-9.384900
 20
38.754688
  0
VERTEX
  8
campo_jogos
 10
-9.384817
 20
38.754818
  0
VERTEX
  8
campo_jogos
 10
-9.384715
 20
38.754777
  0
VERTEX
  8
campo_jogos
 10
-9.384606
 20
38.754732
  0
VERTEX
  8
campo_jogos
 10
-9.384692
 20
38.754604
  0
VERTEX
  8
campo_jogos
 10
-9.384712
 20
38.754612
  0
VERTEX
  8
campo_jogos
 10
-9.384712
 20
38.754612
  0
SEQEND
  0
POLYLINE
  8
campo_jogos
  6
BYLAYER
 66
1
 70
1
 40
0.000000
 41
0.000000
  0
VERTEX
  8
campo_jogos
 10
-9.437492
 20
38.758501
  0
VERTEX
  8
campo_jogos
 10
-9.437458
 20
38.758409
  0
VERTEX
  8
campo_jogos
 10
-9.437452
 20
38.758389
  0
VERTEX
  8
campo_jogos
 10
-9.437825
 20
38.758306
  0
VERTEX
  8
campo_jogos
 10
-9.437878
 20
38.758450
  0
VERTEX
  8
campo_jogos
 10
-9.437504
 20
38.758532
  0
VERTEX
  8
campo_jogos
 10
-9.437499
 20
38.758520
  0
VERTEX
  8
campo_jogos
 10
-9.437492
 20
38.758501
  0
VERTEX
  8
campo_jogos
 10
-9.437492
 20
38.758501
  0
SEQEND
  0
POLYLINE
  8
campo_jogos
  6
BYLAYER
 66
1
 70
1
 40
0.000000
 41
0.000000
  0
VERTEX
  8
campo_jogos
 10
-9.436126
 20
38.753363
  0
VERTEX
  8
campo_jogos
 10
-9.436003
 20
38.753333
  0
VERTEX
  8
campo_jogos
 10
-9.436085
 20
38.753126
  0
VERTEX
  8
campo_jogos
 10
-9.436208
 20
38.753156
  0
VERTEX
  8
campo_jogos
 10
-9.436126
 20
38.753363
  0
VERTEX
  8
campo_jogos
 10
-9.436126
 20
38.753363
  0
SEQEND
  0
POLYLINE
  8
campo_jogos
  6
BYLAYER
 66
1
 70
1
 40
0.000000
 41
0.000000
  0
VERTEX
  8
campo_jogos
 10
-9.434322
 20
38.752645
  0
VERTEX
  8
campo_jogos
 10
-9.434036
 20
38.752643
  0
VERTEX
  8
campo_jogos
 10
-9.434039
 20
38.752538
  0
VERTEX
  8
campo_jogos
 10
-9.434321
 20
38.752539
  0
VERTEX
  8
campo_jogos
 10
-9.434322
 20
38.752645
  0
VERTEX
  8
campo_jogos
 10
-9.434322
 20
38.752645
  0
SEQEND
  0
POLYLINE
  8
campo_jogos
  6
BYLAYER
 66
1
 70
1
 40
0.000000
 41
0.000000
  0
VERTEX
  8
campo_jogos
 10
-9.385179
 20
38.754960
  0
VERTEX
  8
campo_jogos
 10
-9.384967
 20
38.754886
  0
VERTEX
  8
campo_jogos
 10
-9.385164
 20
38.754538
  0
VERTEX
  8
campo_jogos
 10
-9.385378
 20
38.754613
  0
VERTEX
  8
campo_jogos
 10
-9.385179
 20
38.754960
  0
VERTEX
  8
campo_jogos
 10
-9.385179
 20
38.754960
  0
SEQEND
  0
POLYLINE
  8
campo_jogos
  6
BYLAYER
 66
1
 70
1
 40
0.000000
 41
0.000000
  0
VERTEX
  8
campo_jogos
 10
-9.395564
 20
38.754414
  0
VERTEX
  8
campo_jogos
 10
-9.395463
 20
38.754276
  0
VERTEX
  8
campo_jogos
 10
-9.395819
 20
38.754115
  0
VERTEX
  8
campo_jogos
 10
-9.395921
 20
38.754255
  0
VERTEX
  8
campo_jogos
 10
-9.395564
 20
38.754414
  0
VERTEX
  8
campo_jogos
 10
-9.395564
 20
38.754414
  0
SEQEND
  0
POLYLINE
  8
campo_jogos
  6
BYLAYER
 66
1
 70
1
 40
0.000000
 41
0.000000
  0
VERTEX
  8
campo_jogos
 10
-9.384944
 20
38.752941
  0
VERTEX
  8
campo_jogos
 10
-9.384927
 20
38.752595
  0
VERTEX
  8
campo_jogos
 10
-9.385119
 20
38.752589
  0
VERTEX
  8
campo_jogos
 10
-9.385136
 20
38.752935
  0
VERTEX
  8
campo_jogos
 10
-9.384944
 20
38.752941
  0
VERTEX
  8
campo_jogos
 10
-9.384944
 20
38.752941
  0
SEQEND
  0
POLYLINE
  8
campo_jogos
  6
BYLAYER
 66
1
 70
1
 40
0.000000
 41
0.000000
  0
VERTEX
  8
campo_jogos
 10
-9.385914
 20
38.752682
  0
VERTEX
  8
campo_jogos
 10
-9.385895
 20
38.752329
  0
VERTEX
  8
campo_jogos
 10
-9.386121
 20
38.752321
  0
VERTEX
  8
campo_jogos
 10
-9.386141
 20
38.752675
  0
VERTEX
  8
campo_jogos
 10
-9.385914
 20
38.752682
  0
VERTEX
  8
campo_jogos
 10
-9.385914
 20
38.752682
  0
SEQEND
  0
POLYLINE
  8
campo_jogos
  6
BYLAYER
 66
1
 70
1
 40
0.000000
 41
0.000000
  0
VERTEX
  8
campo_jogos
 10
-9.467725
 20
38.761895
  0
VERTEX
  8
campo_jogos
 10
-9.467967
 20
38.762018
  0
VERTEX
  8
campo_jogos
 10
-9.467895
 20
38.762104
  0
VERTEX
  8
campo_jogos
 10
-9.467653
 20
38.761981
  0
VERTEX
  8
campo_jogos
 10
-9.467725
 20
38.761895
  0
VERTEX
  8
campo_jogos
 10
-9.467725
 20
38.761895
  0
SEQEND
  0
POLYLINE
  8
campo_jogos
  6
BYLAYER
 66
1
 70
1
 40
0.000000
 41
0.000000
  0
VERTEX
  8
campo_jogos
 10
-9.465834
 20
38.759309
  0
VERTEX
  8
campo_jogos
 10
-9.466012
 20
38.759474
  0
VERTEX
  8
campo_jogos
 10
-9.465913
 20
38.759539
  0
VERTEX
  8
campo_jogos
 10
-9.465735
 20
38.759375
  0
VERTEX
  8
campo_jogos
 10
-9.465834
 20
38.759309
  0
VERTEX
  8
campo_jogos
 10
-9.465834
 20
38.759309
  0
SEQEND
  0
POLYLINE
  8
campo_jogos
  6
BYLAYER
 66
1
 70
1
 40
0.000000
 41
0.000000
  0
VERTEX
  8
campo_jogos
 10
-9.469923
 20
38.757200
  0
VERTEX
  8
campo_jogos
 10
-9.469708
 20
38.757066
  0
VERTEX
  8
campo_jogos
 10
-9.469788
 20
38.756987
  0
VERTEX
  8
campo_jogos
 10
-9.470003
 20
38.757121
  0
VERTEX
  8
campo_jogos
 10
-9.469923
 20
38.757200
  0
VERTEX
  8
campo_jogos
 10
-9.469923
 20
38.757200
  0
SEQEND
  0
POLYLINE
  8
campo_jogos
  6
BYLAYER
 66
1
 70
1
 40
0.000000
 41
0.000000
  0
VERTEX
  8
campo_jogos
 10
-9.448975
 20
38.761183
  0
VERTEX
  8
campo_jogos
 10
-9.448996
 20
38.761398
  0
VERTEX
  8
campo_jogos
 10
-9.448866
 20
38.761406
  0
VERTEX
  8
campo_jogos
 10
-9.448846
 20
38.761190
  0
VERTEX
  8
campo_jogos
 10
-9.448975
 20
38.761183
  0
VERTEX
  8
campo_jogos
 10
-9.448975
 20
38.761183
  0
SEQEND
  0
POLYLINE
  8
campo_jogos
  6
BYLAYER
 66
1
 70
1
 40
0.000000
 41
0.000000
  0
VERTEX
  8
campo_jogos
 10
-9.438483
 20
38.747528
  0
VERTEX
  8
campo_jogos
 10
-9.438511
 20
38.747433
  0
VERTEX
  8
campo_jogos
 10
-9.438777
 20
38.747474
  0
VERTEX
  8
campo_jogos
 10
-9.438752
 20
38.747570
  0
VERTEX
  8
campo_jogos
 10
-9.438483
 20
38.747528
  0
VERTEX
  8
campo_jogos
 10
-9.438483
 20
38.747528
  0
SEQEND
  0
POLYLINE
  8
campo_jogos
  6
BYLAYER
 66
1
 70
1
 40
0.000000
 41
0.000000
  0
VERTEX
  8
campo_jogos
 10
-9.438239
 20
38.746668
  0
VERTEX
  8
campo_jogos
 10
-9.438320
 20
38.746488
  0
VERTEX
  8
campo_jogos
 10
-9.438694
 20
38.746603
  0
VERTEX
  8
campo_jogos
 10
-9.438648
 20
38.746703
  0
VERTEX
  8
campo_jogos
 10
-9.438612
 20
38.746782
  0
VERTEX
  8
campo_jogos
 10
-9.438365
 20
38.746706
  0
VERTEX
  8
campo_jogos
 10
-9.438239
 20
38.746668
  0
VERTEX
  8
campo_jogos
 10
-9.438239
 20
38.746668
  0
SEQEND
  0
POLYLINE
  8
campo_jogos
  6
BYLAYER
 66
1
 70
1
 40
0.000000
 41
0.000000
  0
VERTEX
  8
campo_jogos
 10
-9.436978
 20
38.749358
  0
VERTEX
  8
campo_jogos
 10
-9.437004
 20
38.749662
  0
VERTEX
  8
campo_jogos
 10
-9.436837
 20
38.749669
  0
VERTEX
  8
campo_jogos
 10
-9.436810
 20
38.749368
  0
VERTEX
  8
campo_jogos
 10
-9.436978
 20
38.749358
  0
VERTEX
  8
campo_jogos
 10
-9.436978
 20
38.749358
  0
SEQEND
  0
POLYLINE
  8
campo_jogos
  6
BYLAYER
 66
1
 70
1
 40
0.000000
 41
0.000000
  0
VERTEX
  8
campo_jogos
 10
-9.437611
 20
38.741578
  0
VERTEX
  8
campo_jogos
 10
-9.436602
 20
38.741562
  0
VERTEX
  8
campo_jogos
 10
-9.436613
 20
38.741141
  0
VERTEX
  8
campo_jogos
 10
-9.437622
 20
38.741156
  0
VERTEX
  8
campo_jogos
 10
-9.437611
 20
38.741578
  0
VERTEX
  8
campo_jogos
 10
-9.437611
 20
38.741578
  0
VERTEX
  8
campo_jogos
 10
-9.437611
 20
38.741578
  0
SEQEND
  0
POLYLINE
  8
campo_jogos
  6
BYLAYER
 66
1
 70
1
 40
0.000000
 41
0.000000
  0
VERTEX
  8
campo_jogos
 10
-9.439453
 20
38.736876
  0
VERTEX
  8
campo_jogos
 10
-9.439343
 20
38.736715
  0
VERTEX
  8
campo_jogos
 10
-9.439468
 20
38.736662
  0
VERTEX
  8
campo_jogos
 10
-9.439579
 20
38.736823
  0
VERTEX
  8
campo_jogos
 10
-9.439453
 20
38.736876
  0
VERTEX
  8
campo_jogos
 10
-9.439453
 20
38.736876
  0
SEQEND
  0
POLYLINE
  8
campo_jogos
  6
BYLAYER
 66
1
 70
1
 40
0.000000
 41
0.000000
  0
VERTEX
  8
campo_jogos
 10
-9.433374
 20
38.739400
  0
VERTEX
  8
campo_jogos
 10
-9.433481
 20
38.739051
  0
VERTEX
  8
campo_jogos
 10
-9.433500
 20
38.739054
  0
VERTEX
  8
campo_jogos
 10
-9.433707
 20
38.739093
  0
VERTEX
  8
campo_jogos
 10
-9.433674
 20
38.739201
  0
VERTEX
  8
campo_jogos
 10
-9.433665
 20
38.739229
  0
VERTEX
  8
campo_jogos
 10
-9.433600
 20
38.739442
  0
VERTEX
  8
campo_jogos
 10
-9.433374
 20
38.739400
  0
VERTEX
  8
campo_jogos
 10
-9.433374
 20
38.739400
  0
SEQEND
  0
POLYLINE
  8
campo_jogos
  6
BYLAYER
 66
1
 70
1
 40
0.000000
 41
0.000000
  0
VERTEX
  8
campo_jogos
 10
-9.470103
 20
38.721060
  0
VERTEX
  8
campo_jogos
 10
-9.469994
 20
38.720864
  0
VERTEX
  8
campo_jogos
 10
-9.470110
 20
38.720825
  0
VERTEX
  8
campo_jogos
 10
-9.470218
 20
38.721020
  0
VERTEX
  8
campo_jogos
 10
-9.470103
 20
38.721060
  0
VERTEX
  8
campo_jogos
 10
-9.470103
 20
38.721060
  0
SEQEND
  0
POLYLINE
  8
campo_jogos
  6
BYLAYER
 66
1
 70
1
 40
0.000000
 41
0.000000
  0
VERTEX
  8
campo_jogos
 10
-9.469870
 20
38.721052
  0
VERTEX
  8
campo_jogos
 10
-9.469761
 20
38.720857
  0
VERTEX
  8
campo_jogos
 10
-9.469877
 20
38.720817
  0
VERTEX
  8
campo_jogos
 10
-9.469986
 20
38.721013
  0
VERTEX
  8
campo_jogos
 10
-9.469870
 20
38.721052
  0
VERTEX
  8
campo_jogos
 10
-9.469870
 20
38.721052
  0
SEQEND
  0
POLYLINE
  8
campo_jogos
  6
BYLAYER
 66
1
 70
1
 40
0.000000
 41
0.000000
  0
VERTEX
  8
campo_jogos
 10
-9.469596
 20
38.721046
  0
VERTEX
  8
campo_jogos
 10
-9.469488
 20
38.720851
  0
VERTEX
  8
campo_jogos
 10
-9.469603
 20
38.720812
  0
VERTEX
  8
campo_jogos
 10
-9.469712
 20
38.721007
  0
VERTEX
  8
campo_jogos
 10
-9.469596
 20
38.721046
  0
VERTEX
  8
campo_jogos
 10
-9.469596
 20
38.721046
  0
SEQEND
  0
POLYLINE
  8
campo_jogos
  6
BYLAYER
 66
1
 70
1
 40
0.000000
 41
0.000000
  0
VERTEX
  8
campo_jogos
 10
-9.469370
 20
38.721031
  0
VERTEX
  8
campo_jogos
 10
-9.469261
 20
38.720836
  0
VERTEX
  8
campo_jogos
 10
-9.469377
 20
38.720797
  0
VERTEX
  8
campo_jogos
 10
-9.469485
 20
38.720992
  0
VERTEX
  8
campo_jogos
 10
-9.469370
 20
38.721031
  0
VERTEX
  8
campo_jogos
 10
-9.469370
 20
38.721031
  0
SEQEND
  0
POLYLINE
  8
campo_jogos
  6
BYLAYER
 66
1
 70
1
 40
0.000000
 41
0.000000
  0
VERTEX
  8
campo_jogos
 10
-9.469115
 20
38.721019
  0
VERTEX
  8
campo_jogos
 10
-9.469006
 20
38.720823
  0
VERTEX
  8
campo_jogos
 10
-9.469122
 20
38.720784
  0
VERTEX
  8
campo_jogos
 10
-9.469230
 20
38.720979
  0
VERTEX
  8
campo_jogos
 10
-9.469115
 20
38.721019
  0
VERTEX
  8
campo_jogos
 10
-9.469115
 20
38.721019
  0
SEQEND
  0
POLYLINE
  8
campo_jogos
  6
BYLAYER
 66
1
 70
1
 40
0.000000
 41
0.000000
  0
VERTEX
  8
campo_jogos
 10
-9.466747
 20
38.723333
  0
VERTEX
  8
campo_jogos
 10
-9.466680
 20
38.723124
  0
VERTEX
  8
campo_jogos
 10
-9.466805
 20
38.723100
  0
VERTEX
  8
campo_jogos
 10
-9.466873
 20
38.723308
  0
VERTEX
  8
campo_jogos
 10
-9.466747
 20
38.723333
  0
VERTEX
  8
campo_jogos
 10
-9.466747
 20
38.723333
  0
SEQEND
  0
POLYLINE
  8
campo_jogos
  6
BYLAYER
 66
1
 70
1
 40
0.000000
 41
0.000000
  0
VERTEX
  8
campo_jogos
 10
-9.464839
 20
38.715474
  0
VERTEX
  8
campo_jogos
 10
-9.464761
 20
38.715315
  0
VERTEX
  8
campo_jogos
 10
-9.464878
 20
38.715281
  0
VERTEX
  8
campo_jogos
 10
-9.464952
 20
38.715437
  0
VERTEX
  8
campo_jogos
 10
-9.464839
 20
38.715474
  0
VERTEX
  8
campo_jogos
 10
-9.464839
 20
38.715474
  0
SEQEND
  0
POLYLINE
  8
campo_jogos
  6
BYLAYER
 66
1
 70
1
 40
0.000000
 41
0.000000
  0
VERTEX
  8
campo_jogos
 10
-9.462979
 20
38.715787
  0
VERTEX
  8
campo_jogos
 10
-9.462862
 20
38.715551
  0
VERTEX
  8
campo_jogos
 10
-9.462879
 20
38.715546
  0
VERTEX
  8
campo_jogos
 10
-9.463250
 20
38.715454
  0
VERTEX
  8
campo_jogos
 10
-9.463220
 20
38.715395
  0
VERTEX
  8
campo_jogos
 10
-9.463275
 20
38.715394
  0
VERTEX
  8
campo_jogos
 10
-9.463282
 20
38.715411
  0
VERTEX
  8
campo_jogos
 10
-9.463456
 20
38.715804
  0
VERTEX
  8
campo_jogos
 10
-9.463047
 20
38.715922
  0
VERTEX
  8
campo_jogos
 10
-9.462979
 20
38.715787
  0
VERTEX
  8
campo_jogos
 10
-9.462979
 20
38.715787
  0
SEQEND
  0
POLYLINE
  8
campo_jogos
  6
BYLAYER
 66
1
 70
1
 40
0.000000
 41
0.000000
  0
VERTEX
  8
campo_jogos
 10
-9.457886
 20
38.715487
  0
VERTEX
  8
campo_jogos
 10
-9.458291
 20
38.715247
  0
VERTEX
  8
campo_jogos
 10
-9.458444
 20
38.715406
  0
VERTEX
  8
campo_jogos
 10
-9.458040
 20
38.715646
  0
VERTEX
  8
campo_jogos
 10
-9.457886
 20
38.715487
  0
VERTEX
  8
campo_jogos
 10
-9.457886
 20
38.715487
  0
SEQEND
  0
POLYLINE
  8
campo_jogos
  6
BYLAYER
 66
1
 70
1
 40
0.000000
 41
0.000000
  0
VERTEX
  8
campo_jogos
 10
-9.468057
 20
38.723566
  0
VERTEX
  8
campo_jogos
 10
-9.468057
 20
38.723566
  0
VERTEX
  8
campo_jogos
 10
-9.468120
 20
38.723623
  0
VERTEX
  8
campo_jogos
 10
-9.468052
 20
38.723665
  0
VERTEX
  8
campo_jogos
 10
-9.467991
 20
38.723609
  0
VERTEX
  8
campo_jogos
 10
-9.468008
 20
38.723599
  0
VERTEX
  8
campo_jogos
 10
-9.467998
 20
38.723589
  0
VERTEX
  8
campo_jogos
 10
-9.468028
 20
38.723570
  0
VERTEX
  8
campo_jogos
 10
-9.468039
 20
38.723579
  0
VERTEX
  8
campo_jogos
 10
-9.468057
 20
38.723566
  0
VERTEX
  8
campo_jogos
 10
-9.468057
 20
38.723566
  0
SEQEND
  0
POLYLINE
  8
campo_jogos
  6
BYLAYER
 66
1
 70
1
 40
0.000000
 41
0.000000
  0
VERTEX
  8
campo_jogos
 10
-9.453040
 20
38.718764
  0
VERTEX
  8
campo_jogos
 10
-9.452908
 20
38.718460
  0
VERTEX
  8
campo_jogos
 10
-9.453093
 20
38.718411
  0
VERTEX
  8
campo_jogos
 10
-9.453224
 20
38.718715
  0
VERTEX
  8
campo_jogos
 10
-9.453040
 20
38.718764
  0
VERTEX
  8
campo_jogos
 10
-9.453040
 20
38.718764
  0
SEQEND
  0
POLYLINE
  8
campo_jogos
  6
BYLAYER
 66
1
 70
1
 40
0.000000
 41
0.000000
  0
VERTEX
  8
campo_jogos
 10
-9.446025
 20
38.715619
  0
VERTEX
  8
campo_jogos
 10
-9.446239
 20
38.715627
  0
VERTEX
  8
campo_jogos
 10
-9.446223
 20
38.715710
  0
VERTEX
  8
campo_jogos
 10
-9.446009
 20
38.715704
  0
VERTEX
  8
campo_jogos
 10
-9.446025
 20
38.715619
  0
VERTEX
  8
campo_jogos
 10
-9.446025
 20
38.715619
  0
SEQEND
  0
POLYLINE
  8
campo_jogos
  6
BYLAYER
 66
1
 70
1
 40
0.000000
 41
0.000000
  0
VERTEX
  8
campo_jogos
 10
-9.448450
 20
38.723266
  0
VERTEX
  8
campo_jogos
 10
-9.448389
 20
38.723155
  0
VERTEX
  8
campo_jogos
 10
-9.448455
 20
38.723130
  0
VERTEX
  8
campo_jogos
 10
-9.448517
 20
38.723242
  0
VERTEX
  8
campo_jogos
 10
-9.448450
 20
38.723266
  0
VERTEX
  8
campo_jogos
 10
-9.448450
 20
38.723266
  0
SEQEND
  0
POLYLINE
  8
campo_jogos
  6
BYLAYER
 66
1
 70
1
 40
0.000000
 41
0.000000
  0
VERTEX
  8
campo_jogos
 10
-9.449000
 20
38.717289
  0
VERTEX
  8
campo_jogos
 10
-9.448875
 20
38.717315
  0
VERTEX
  8
campo_jogos
 10
-9.448806
 20
38.717111
  0
VERTEX
  8
campo_jogos
 10
-9.448923
 20
38.717085
  0
VERTEX
  8
campo_jogos
 10
-9.449000
 20
38.717289
  0
VERTEX
  8
campo_jogos
 10
-9.449000
 20
38.717289
  0
SEQEND
  0
POLYLINE
  8
campo_jogos
  6
BYLAYER
 66
1
 70
1
 40
0.000000
 41
0.000000
  0
VERTEX
  8
campo_jogos
 10
-9.452558
 20
38.719014
  0
VERTEX
  8
campo_jogos
 10
-9.452439
 20
38.719042
  0
VERTEX
  8
campo_jogos
 10
-9.452364
 20
38.718834
  0
VERTEX
  8
campo_jogos
 10
-9.452483
 20
38.718806
  0
VERTEX
  8
campo_jogos
 10
-9.452558
 20
38.719014
  0
VERTEX
  8
campo_jogos
 10
-9.452558
 20
38.719014
  0
SEQEND
  0
POLYLINE
  8
campo_jogos
  6
BYLAYER
 66
1
 70
1
 40
0.000000
 41
0.000000
  0
VERTEX
  8
campo_jogos
 10
-9.447512
 20
38.718500
  0
VERTEX
  8
campo_jogos
 10
-9.447350
 20
38.718501
  0
VERTEX
  8
campo_jogos
 10
-9.447349
 20
38.718424
  0
VERTEX
  8
campo_jogos
 10
-9.447511
 20
38.718423
  0
VERTEX
  8
campo_jogos
 10
-9.447512
 20
38.718500
  0
VERTEX
  8
campo_jogos
 10
-9.447512
 20
38.718500
  0
SEQEND
  0
POLYLINE
  8
campo_jogos
  6
BYLAYER
 66
1
 70
1
 40
0.000000
 41
0.000000
  0
VERTEX
  8
campo_jogos
 10
-9.431604
 20
38.717102
  0
VERTEX
  8
campo_jogos
 10
-9.431656
 20
38.716966
  0
VERTEX
  8
campo_jogos
 10
-9.432001
 20
38.717047
  0
VERTEX
  8
campo_jogos
 10
-9.431949
 20
38.717183
  0
VERTEX
  8
campo_jogos
 10
-9.431604
 20
38.717102
  0
VERTEX
  8
campo_jogos
 10
-9.431604
 20
38.717102
  0
SEQEND
  0
POLYLINE
  8
campo_jogos
  6
BYLAYER
 66
1
 70
1
 40
0.000000
 41
0.000000
  0
VERTEX
  8
campo_jogos
 10
-9.421561
 20
38.716794
  0
VERTEX
  8
campo_jogos
 10
-9.421489
 20
38.716728
  0
VERTEX
  8
campo_jogos
 10
-9.421579
 20
38.716668
  0
VERTEX
  8
campo_jogos
 10
-9.421651
 20
38.716734
  0
VERTEX
  8
campo_jogos
 10
-9.421561
 20
38.716794
  0
VERTEX
  8
campo_jogos
 10
-9.421561
 20
38.716794
  0
SEQEND
  0
POLYLINE
  8
campo_jogos
  6
BYLAYER
 66
1
 70
1
 40
0.000000
 41
0.000000
  0
VERTEX
  8
campo_jogos
 10
-9.425354
 20
38.717629
  0
VERTEX
  8
campo_jogos
 10
-9.425339
 20
38.716935
  0
VERTEX
  8
campo_jogos
 10
-9.425785
 20
38.716930
  0
VERTEX
  8
campo_jogos
 10
-9.425800
 20
38.717623
  0
VERTEX
  8
campo_jogos
 10
-9.425354
 20
38.717629
  0
VERTEX
  8
campo_jogos
 10
-9.425354
 20
38.717629
  0
SEQEND
  0
POLYLINE
  8
campo_jogos
  6
BYLAYER
 66
1
 70
1
 40
0.000000
 41
0.000000
  0
VERTEX
  8
campo_jogos
 10
-9.422346
 20
38.715956
  0
VERTEX
  8
campo_jogos
 10
-9.422423
 20
38.716014
  0
VERTEX
  8
campo_jogos
 10
-9.422305
 20
38.716116
  0
VERTEX
  8
campo_jogos
 10
-9.422225
 20
38.716054
  0
VERTEX
  8
campo_jogos
 10
-9.422346
 20
38.715956
  0
VERTEX
  8
campo_jogos
 10
-9.422346
 20
38.715956
  0
SEQEND
  0
POLYLINE
  8
campo_jogos
  6
BYLAYER
 66
1
 70
1
 40
0.000000
 41
0.000000
  0
VERTEX
  8
campo_jogos
 10
-9.422181
 20
38.717239
  0
VERTEX
  8
campo_jogos
 10
-9.421936
 20
38.717406
  0
VERTEX
  8
campo_jogos
 10
-9.421829
 20
38.717312
  0
VERTEX
  8
campo_jogos
 10
-9.422074
 20
38.717144
  0
VERTEX
  8
campo_jogos
 10
-9.422181
 20
38.717239
  0
VERTEX
  8
campo_jogos
 10
-9.422181
 20
38.717239
  0
SEQEND
  0
POLYLINE
  8
campo_jogos
  6
BYLAYER
 66
1
 70
1
 40
0.000000
 41
0.000000
  0
VERTEX
  8
campo_jogos
 10
-9.438278
 20
38.719213
  0
VERTEX
  8
campo_jogos
 10
-9.438156
 20
38.719224
  0
VERTEX
  8
campo_jogos
 10
-9.438114
 20
38.719018
  0
VERTEX
  8
campo_jogos
 10
-9.438239
 20
38.719005
  0
VERTEX
  8
campo_jogos
 10
-9.438278
 20
38.719213
  0
VERTEX
  8
campo_jogos
 10
-9.438278
 20
38.719213
  0
SEQEND
  0
POLYLINE
  8
campo_jogos
  6
BYLAYER
 66
1
 70
1
 40
0.000000
 41
0.000000
  0
VERTEX
  8
campo_jogos
 10
-9.434742
 20
38.711856
  0
VERTEX
  8
campo_jogos
 10
-9.434841
 20
38.711907
  0
VERTEX
  8
campo_jogos
 10
-9.434721
 20
38.712052
  0
VERTEX
  8
campo_jogos
 10
-9.434622
 20
38.712001
  0
VERTEX
  8
campo_jogos
 10
-9.434742
 20
38.711856
  0
VERTEX
  8
campo_jogos
 10
-9.434742
 20
38.711856
  0
SEQEND
  0
POLYLINE
  8
campo_jogos
  6
BYLAYER
 66
1
 70
1
 40
0.000000
 41
0.000000
  0
VERTEX
  8
campo_jogos
 10
-9.436911
 20
38.713975
  0
VERTEX
  8
campo_jogos
 10
-9.436959
 20
38.714061
  0
VERTEX
  8
campo_jogos
 10
-9.436776
 20
38.714124
  0
VERTEX
  8
campo_jogos
 10
-9.436728
 20
38.714038
  0
VERTEX
  8
campo_jogos
 10
-9.436911
 20
38.713975
  0
VERTEX
  8
campo_jogos
 10
-9.436911
 20
38.713975
  0
SEQEND
  0
POLYLINE
  8
campo_jogos
  6
BYLAYER
 66
1
 70
1
 40
0.000000
 41
0.000000
  0
VERTEX
  8
campo_jogos
 10
-9.422487
 20
38.711644
  0
VERTEX
  8
campo_jogos
 10
-9.422420
 20
38.711515
  0
VERTEX
  8
campo_jogos
 10
-9.422492
 20
38.711492
  0
VERTEX
  8
campo_jogos
 10
-9.422559
 20
38.711621
  0
VERTEX
  8
campo_jogos
 10
-9.422487
 20
38.711644
  0
VERTEX
  8
campo_jogos
 10
-9.422487
 20
38.711644
  0
SEQEND
  0
POLYLINE
  8
campo_jogos
  6
BYLAYER
 66
1
 70
1
 40
0.000000
 41
0.000000
  0
VERTEX
  8
campo_jogos
 10
-9.421553
 20
38.711424
  0
VERTEX
  8
campo_jogos
 10
-9.421598
 20
38.711408
  0
VERTEX
  8
campo_jogos
 10
-9.421731
 20
38.711362
  0
VERTEX
  8
campo_jogos
 10
-9.421864
 20
38.711584
  0
VERTEX
  8
campo_jogos
 10
-9.421684
 20
38.711645
  0
VERTEX
  8
campo_jogos
 10
-9.421553
 20
38.711424
  0
VERTEX
  8
campo_jogos
 10
-9.421553
 20
38.711424
  0
SEQEND
  0
POLYLINE
  8
campo_jogos
  6
BYLAYER
 66
1
 70
1
 40
0.000000
 41
0.000000
  0
VERTEX
  8
campo_jogos
 10
-9.433118
 20
38.707370
  0
VERTEX
  8
campo_jogos
 10
-9.432879
 20
38.707098
  0
VERTEX
  8
campo_jogos
 10
-9.432894
 20
38.707090
  0
VERTEX
  8
campo_jogos
 10
-9.432914
 20
38.707103
  0
VERTEX
  8
campo_jogos
 10
-9.432936
 20
38.707115
  0
VERTEX
  8
campo_jogos
 10
-9.432960
 20
38.707125
  0
VERTEX
  8
campo_jogos
 10
-9.432985
 20
38.707134
  0
VERTEX
  8
campo_jogos
 10
-9.433010
 20
38.707140
  0
VERTEX
  8
campo_jogos
 10
-9.433036
 20
38.707145
  0
VERTEX
  8
campo_jogos
 10
-9.433063
 20
38.707148
  0
VERTEX
  8
campo_jogos
 10
-9.433086
 20
38.707150
  0
VERTEX
  8
campo_jogos
 10
-9.433109
 20
38.707153
  0
VERTEX
  8
campo_jogos
 10
-9.433132
 20
38.707156
  0
VERTEX
  8
campo_jogos
 10
-9.433154
 20
38.707161
  0
VERTEX
  8
campo_jogos
 10
-9.433176
 20
38.707167
  0
VERTEX
  8
campo_jogos
 10
-9.433189
 20
38.707172
  0
VERTEX
  8
campo_jogos
 10
-9.433290
 20
38.707279
  0
VERTEX
  8
campo_jogos
 10
-9.433118
 20
38.707370
  0
VERTEX
  8
campo_jogos
 10
-9.433118
 20
38.707370
  0
SEQEND
  0
POLYLINE
  8
campo_jogos
  6
BYLAYER
 66
1
 70
1
 40
0.000000
 41
0.000000
  0
VERTEX
  8
campo_jogos
 10
-9.434859
 20
38.708685
  0
VERTEX
  8
campo_jogos
 10
-9.434792
 20
38.708603
  0
VERTEX
  8
campo_jogos
 10
-9.435019
 20
38.708489
  0
VERTEX
  8
campo_jogos
 10
-9.435087
 20
38.708571
  0
VERTEX
  8
campo_jogos
 10
-9.434859
 20
38.708685
  0
VERTEX
  8
campo_jogos
 10
-9.434859
 20
38.708685
  0
SEQEND
  0
POLYLINE
  8
campo_jogos
  6
BYLAYER
 66
1
 70
1
 40
0.000000
 41
0.000000
  0
VERTEX
  8
campo_jogos
 10
-9.434810
 20
38.710505
  0
VERTEX
  8
campo_jogos
 10
-9.434637
 20
38.710330
  0
VERTEX
  8
campo_jogos
 10
-9.434702
 20
38.710255
  0
VERTEX
  8
campo_jogos
 10
-9.434744
 20
38.710245
  0
VERTEX
  8
campo_jogos
 10
-9.434827
 20
38.710316
  0
VERTEX
  8
campo_jogos
 10
-9.434900
 20
38.710339
  0
VERTEX
  8
campo_jogos
 10
-9.435025
 20
38.710435
  0
VERTEX
  8
campo_jogos
 10
-9.434916
 20
38.710520
  0
VERTEX
  8
campo_jogos
 10
-9.434898
 20
38.710532
  0
VERTEX
  8
campo_jogos
 10
-9.434824
 20
38.710519
  0
VERTEX
  8
campo_jogos
 10
-9.434810
 20
38.710505
  0
VERTEX
  8
campo_jogos
 10
-9.434810
 20
38.710505
  0
SEQEND
  0
POLYLINE
  8
campo_jogos
  6
BYLAYER
 66
1
 70
1
 40
0.000000
 41
0.000000
  0
VERTEX
  8
campo_jogos
 10
-9.434211
 20
38.707998
  0
VERTEX
  8
campo_jogos
 10
-9.434087
 20
38.707854
  0
VERTEX
  8
campo_jogos
 10
-9.434192
 20
38.707804
  0
VERTEX
  8
campo_jogos
 10
-9.434247
 20
38.707868
  0
VERTEX
  8
campo_jogos
 10
-9.434243
 20
38.707870
  0
VERTEX
  8
campo_jogos
 10
-9.434279
 20
38.707921
  0
VERTEX
  8
campo_jogos
 10
-9.434286
 20
38.707930
  0
VERTEX
  8
campo_jogos
 10
-9.434290
 20
38.707929
  0
VERTEX
  8
campo_jogos
 10
-9.434309
 20
38.707952
  0
VERTEX
  8
campo_jogos
 10
-9.434211
 20
38.707998
  0
VERTEX
  8
campo_jogos
 10
-9.434211
 20
38.707998
  0
SEQEND
  0
POLYLINE
  8
campo_jogos
  6
BYLAYER
 66
1
 70
1
 40
0.000000
 41
0.000000
  0
VERTEX
  8
campo_jogos
 10
-9.424562
 20
38.708927
  0
VERTEX
  8
campo_jogos
 10
-9.424444
 20
38.708857
  0
VERTEX
  8
campo_jogos
 10
-9.424494
 20
38.708805
  0
VERTEX
  8
campo_jogos
 10
-9.424533
 20
38.708828
  0
VERTEX
  8
campo_jogos
 10
-9.424515
 20
38.708846
  0
VERTEX
  8
campo_jogos
 10
-9.424548
 20
38.708866
  0
VERTEX
  8
campo_jogos
 10
-9.424535
 20
38.708879
  0
VERTEX
  8
campo_jogos
 10
-9.424583
 20
38.708908
  0
VERTEX
  8
campo_jogos
 10
-9.424562
 20
38.708927
  0
VERTEX
  8
campo_jogos
 10
-9.424562
 20
38.708927
  0
SEQEND
  0
POLYLINE
  8
campo_jogos
  6
BYLAYER
 66
1
 70
1
 40
0.000000
 41
0.000000
  0
VERTEX
  8
campo_jogos
 10
-9.424534
 20
38.708748
  0
VERTEX
  8
campo_jogos
 10
-9.424615
 20
38.708727
  0
VERTEX
  8
campo_jogos
 10
-9.424663
 20
38.708837
  0
VERTEX
  8
campo_jogos
 10
-9.424582
 20
38.708858
  0
VERTEX
  8
campo_jogos
 10
-9.424534
 20
38.708748
  0
VERTEX
  8
campo_jogos
 10
-9.424534
 20
38.708748
  0
SEQEND
  0
POLYLINE
  8
campo_jogos
  6
BYLAYER
 66
1
 70
1
 40
0.000000
 41
0.000000
  0
VERTEX
  8
campo_jogos
 10
-9.439074
 20
38.707806
  0
VERTEX
  8
campo_jogos
 10
-9.438961
 20
38.707908
  0
VERTEX
  8
campo_jogos
 10
-9.438705
 20
38.707723
  0
VERTEX
  8
campo_jogos
 10
-9.438818
 20
38.707625
  0
VERTEX
  8
campo_jogos
 10
-9.438866
 20
38.707659
  0
VERTEX
  8
campo_jogos
 10
-9.438965
 20
38.707730
  0
VERTEX
  8
campo_jogos
 10
-9.439074
 20
38.707806
  0
VERTEX
  8
campo_jogos
 10
-9.439074
 20
38.707806
  0
SEQEND
  0
POLYLINE
  8
campo_jogos
  6
BYLAYER
 66
1
 70
1
 40
0.000000
 41
0.000000
  0
VERTEX
  8
campo_jogos
 10
-9.418022
 20
38.722677
  0
VERTEX
  8
campo_jogos
 10
-9.417999
 20
38.722361
  0
VERTEX
  8
campo_jogos
 10
-9.418202
 20
38.722352
  0
VERTEX
  8
campo_jogos
 10
-9.418224
 20
38.722668
  0
VERTEX
  8
campo_jogos
 10
-9.418022
 20
38.722677
  0
VERTEX
  8
campo_jogos
 10
-9.418022
 20
38.722677
  0
SEQEND
  0
POLYLINE
  8
campo_jogos
  6
BYLAYER
 66
1
 70
1
 40
0.000000
 41
0.000000
  0
VERTEX
  8
campo_jogos
 10
-9.407915
 20
38.723776
  0
VERTEX
  8
campo_jogos
 10
-9.407978
 20
38.723421
  0
VERTEX
  8
campo_jogos
 10
-9.408205
 20
38.723445
  0
VERTEX
  8
campo_jogos
 10
-9.408142
 20
38.723800
  0
VERTEX
  8
campo_jogos
 10
-9.407915
 20
38.723776
  0
VERTEX
  8
campo_jogos
 10
-9.407915
 20
38.723776
  0
SEQEND
  0
POLYLINE
  8
campo_jogos
  6
BYLAYER
 66
1
 70
1
 40
0.000000
 41
0.000000
  0
VERTEX
  8
campo_jogos
 10
-9.416668
 20
38.716301
  0
VERTEX
  8
campo_jogos
 10
-9.416623
 20
38.716190
  0
VERTEX
  8
campo_jogos
 10
-9.416618
 20
38.716176
  0
VERTEX
  8
campo_jogos
 10
-9.417014
 20
38.716080
  0
VERTEX
  8
campo_jogos
 10
-9.417077
 20
38.716233
  0
VERTEX
  8
campo_jogos
 10
-9.416680
 20
38.716329
  0
VERTEX
  8
campo_jogos
 10
-9.416668
 20
38.716301
  0
VERTEX
  8
campo_jogos
 10
-9.416668
 20
38.716301
  0
SEQEND
  0
POLYLINE
  8
campo_jogos
  6
BYLAYER
 66
1
 70
1
 40
0.000000
 41
0.000000
  0
VERTEX
  8
campo_jogos
 10
-9.406928
 20
38.718987
  0
VERTEX
  8
campo_jogos
 10
-9.406877
 20
38.718177
  0
VERTEX
  8
campo_jogos
 10
-9.407508
 20
38.718153
  0
VERTEX
  8
campo_jogos
 10
-9.407559
 20
38.718963
  0
VERTEX
  8
campo_jogos
 10
-9.406928
 20
38.718987
  0
VERTEX
  8
campo_jogos
 10
-9.406928
 20
38.718987
  0
SEQEND
  0
POLYLINE
  8
campo_jogos
  6
BYLAYER
 66
1
 70
1
 40
0.000000
 41
0.000000
  0
VERTEX
  8
campo_jogos
 10
-9.406724
 20
38.718139
  0
VERTEX
  8
campo_jogos
 10
-9.406383
 20
38.717284
  0
VERTEX
  8
campo_jogos
 10
-9.407053
 20
38.717121
  0
VERTEX
  8
campo_jogos
 10
-9.407394
 20
38.717976
  0
VERTEX
  8
campo_jogos
 10
-9.406724
 20
38.718139
  0
VERTEX
  8
campo_jogos
 10
-9.406724
 20
38.718139
  0
SEQEND
  0
POLYLINE
  8
campo_jogos
  6
BYLAYER
 66
1
 70
1
 40
0.000000
 41
0.000000
  0
VERTEX
  8
campo_jogos
 10
-9.406074
 20
38.716396
  0
VERTEX
  8
campo_jogos
 10
-9.405878
 20
38.715539
  0
VERTEX
  8
campo_jogos
 10
-9.405848
 20
38.715406
  0
VERTEX
  8
campo_jogos
 10
-9.406684
 20
38.715288
  0
VERTEX
  8
campo_jogos
 10
-9.406739
 20
38.715529
  0
VERTEX
  8
campo_jogos
 10
-9.406911
 20
38.716278
  0
VERTEX
  8
campo_jogos
 10
-9.406074
 20
38.716396
  0
VERTEX
  8
campo_jogos
 10
-9.406074
 20
38.716396
  0
SEQEND
  0
POLYLINE
  8
campo_jogos
  6
BYLAYER
 66
1
 70
1
 40
0.000000
 41
0.000000
  0
VERTEX
  8
campo_jogos
 10
-9.418658
 20
38.723580
  0
VERTEX
  8
campo_jogos
 10
-9.418381
 20
38.723717
  0
VERTEX
  8
campo_jogos
 10
-9.418291
 20
38.723610
  0
VERTEX
  8
campo_jogos
 10
-9.418576
 20
38.723470
  0
VERTEX
  8
campo_jogos
 10
-9.418658
 20
38.723580
  0
VERTEX
  8
campo_jogos
 10
-9.418658
 20
38.723580
  0
SEQEND
  0
POLYLINE
  8
campo_jogos
  6
BYLAYER
 66
1
 70
1
 40
0.000000
 41
0.000000
  0
VERTEX
  8
campo_jogos
 10
-9.403009
 20
38.720978
  0
VERTEX
  8
campo_jogos
 10
-9.402891
 20
38.720965
  0
VERTEX
  8
campo_jogos
 10
-9.402924
 20
38.720784
  0
VERTEX
  8
campo_jogos
 10
-9.403047
 20
38.720796
  0
VERTEX
  8
campo_jogos
 10
-9.403009
 20
38.720978
  0
VERTEX
  8
campo_jogos
 10
-9.403009
 20
38.720978
  0
SEQEND
  0
POLYLINE
  8
campo_jogos
  6
BYLAYER
 66
1
 70
1
 40
0.000000
 41
0.000000
  0
VERTEX
  8
campo_jogos
 10
-9.411462
 20
38.720840
  0
VERTEX
  8
campo_jogos
 10
-9.411396
 20
38.720843
  0
VERTEX
  8
campo_jogos
 10
-9.411391
 20
38.720763
  0
VERTEX
  8
campo_jogos
 10
-9.411454
 20
38.720761
  0
VERTEX
  8
campo_jogos
 10
-9.411462
 20
38.720840
  0
VERTEX
  8
campo_jogos
 10
-9.411462
 20
38.720840
  0
SEQEND
  0
POLYLINE
  8
campo_jogos
  6
BYLAYER
 66
1
 70
1
 40
0.000000
 41
0.000000
  0
VERTEX
  8
campo_jogos
 10
-9.418469
 20
38.721312
  0
VERTEX
  8
campo_jogos
 10
-9.418103
 20
38.721408
  0
VERTEX
  8
campo_jogos
 10
-9.418045
 20
38.721273
  0
VERTEX
  8
campo_jogos
 10
-9.418415
 20
38.721181
  0
VERTEX
  8
campo_jogos
 10
-9.418469
 20
38.721312
  0
VERTEX
  8
campo_jogos
 10
-9.418469
 20
38.721312
  0
SEQEND
  0
POLYLINE
  8
campo_jogos
  6
BYLAYER
 66
1
 70
1
 40
0.000000
 41
0.000000
  0
VERTEX
  8
campo_jogos
 10
-9.416224
 20
38.722371
  0
VERTEX
  8
campo_jogos
 10
-9.415970
 20
38.722435
  0
VERTEX
  8
campo_jogos
 10
-9.415927
 20
38.722342
  0
VERTEX
  8
campo_jogos
 10
-9.416185
 20
38.722277
  0
VERTEX
  8
campo_jogos
 10
-9.416224
 20
38.722371
  0
VERTEX
  8
campo_jogos
 10
-9.416224
 20
38.722371
  0
SEQEND
  0
POLYLINE
  8
campo_jogos
  6
BYLAYER
 66
1
 70
1
 40
0.000000
 41
0.000000
  0
VERTEX
  8
campo_jogos
 10
-9.419851
 20
38.723258
  0
VERTEX
  8
campo_jogos
 10
-9.419744
 20
38.723060
  0
VERTEX
  8
campo_jogos
 10
-9.419863
 20
38.723021
  0
VERTEX
  8
campo_jogos
 10
-9.419970
 20
38.723219
  0
VERTEX
  8
campo_jogos
 10
-9.419851
 20
38.723258
  0
VERTEX
  8
campo_jogos
 10
-9.419851
 20
38.723258
  0
SEQEND
  0
POLYLINE
  8
campo_jogos
  6
BYLAYER
 66
1
 70
1
 40
0.000000
 41
0.000000
  0
VERTEX
  8
campo_jogos
 10
-9.402502
 20
38.716133
  0
VERTEX
  8
campo_jogos
 10
-9.402629
 20
38.716141
  0
VERTEX
  8
campo_jogos
 10
-9.402609
 20
38.716354
  0
VERTEX
  8
campo_jogos
 10
-9.402483
 20
38.716347
  0
VERTEX
  8
campo_jogos
 10
-9.402502
 20
38.716133
  0
VERTEX
  8
campo_jogos
 10
-9.402502
 20
38.716133
  0
SEQEND
  0
POLYLINE
  8
campo_jogos
  6
BYLAYER
 66
1
 70
1
 40
0.000000
 41
0.000000
  0
VERTEX
  8
campo_jogos
 10
-9.415984
 20
38.717001
  0
VERTEX
  8
campo_jogos
 10
-9.415984
 20
38.717001
  0
VERTEX
  8
campo_jogos
 10
-9.415984
 20
38.717001
  0
VERTEX
  8
campo_jogos
 10
-9.415988
 20
38.717011
  0
VERTEX
  8
campo_jogos
 10
-9.415763
 20
38.717061
  0
VERTEX
  8
campo_jogos
 10
-9.415732
 20
38.716974
  0
VERTEX
  8
campo_jogos
 10
-9.415957
 20
38.716925
  0
VERTEX
  8
campo_jogos
 10
-9.415984
 20
38.717001
  0
SEQEND
  0
POLYLINE
  8
campo_jogos
  6
BYLAYER
 66
1
 70
1
 40
0.000000
 41
0.000000
  0
VERTEX
  8
campo_jogos
 10
-9.411195
 20
38.718797
  0
VERTEX
  8
campo_jogos
 10
-9.411091
 20
38.718813
  0
VERTEX
  8
campo_jogos
 10
-9.411054
 20
38.718660
  0
VERTEX
  8
campo_jogos
 10
-9.411158
 20
38.718645
  0
VERTEX
  8
campo_jogos
 10
-9.411195
 20
38.718797
  0
SEQEND
  0
POLYLINE
  8
campo_jogos
  6
BYLAYER
 66
1
 70
1
 40
0.000000
 41
0.000000
  0
VERTEX
  8
campo_jogos
 10
-9.451568
 20
38.732478
  0
VERTEX
  8
campo_jogos
 10
-9.451646
 20
38.732277
  0
VERTEX
  8
campo_jogos
 10
-9.451769
 20
38.732306
  0
VERTEX
  8
campo_jogos
 10
-9.451691
 20
38.732507
  0
VERTEX
  8
campo_jogos
 10
-9.451568
 20
38.732478
  0
VERTEX
  8
campo_jogos
 10
-9.451568
 20
38.732478
  0
SEQEND
  0
POLYLINE
  8
campo_jogos
  6
BYLAYER
 66
1
 70
1
 40
0.000000
 41
0.000000
  0
VERTEX
  8
campo_jogos
 10
-9.443430
 20
38.726732
  0
VERTEX
  8
campo_jogos
 10
-9.443454
 20
38.726946
  0
VERTEX
  8
campo_jogos
 10
-9.443327
 20
38.726955
  0
VERTEX
  8
campo_jogos
 10
-9.443303
 20
38.726741
  0
VERTEX
  8
campo_jogos
 10
-9.443430
 20
38.726732
  0
VERTEX
  8
campo_jogos
 10
-9.443430
 20
38.726732
  0
SEQEND
  0
POLYLINE
  8
campo_jogos
  6
BYLAYER
 66
1
 70
1
 40
0.000000
 41
0.000000
  0
VERTEX
  8
campo_jogos
 10
-9.446406
 20
38.728435
  0
VERTEX
  8
campo_jogos
 10
-9.446388
 20
38.728336
  0
VERTEX
  8
campo_jogos
 10
-9.446660
 20
38.728305
  0
VERTEX
  8
campo_jogos
 10
-9.446678
 20
38.728404
  0
VERTEX
  8
campo_jogos
 10
-9.446406
 20
38.728435
  0
VERTEX
  8
campo_jogos
 10
-9.446406
 20
38.728435
  0
SEQEND
  0
POLYLINE
  8
campo_jogos
  6
BYLAYER
 66
1
 70
1
 40
0.000000
 41
0.000000
  0
VERTEX
  8
campo_jogos
 10
-9.443890
 20
38.724137
  0
VERTEX
  8
campo_jogos
 10
-9.443890
 20
38.724137
  0
VERTEX
  8
campo_jogos
 10
-9.444067
 20
38.724072
  0
VERTEX
  8
campo_jogos
 10
-9.444230
 20
38.724348
  0
VERTEX
  8
campo_jogos
 10
-9.444053
 20
38.724413
  0
VERTEX
  8
campo_jogos
 10
-9.443890
 20
38.724137
  0
VERTEX
  8
campo_jogos
 10
-9.443890
 20
38.724137
  0
SEQEND
  0
POLYLINE
  8
campo_jogos
  6
BYLAYER
 66
1
 70
1
 40
0.000000
 41
0.000000
  0
VERTEX
  8
campo_jogos
 10
-9.444032
 20
38.724421
  0
VERTEX
  8
campo_jogos
 10
-9.444032
 20
38.724421
  0
VERTEX
  8
campo_jogos
 10
-9.443855
 20
38.724488
  0
VERTEX
  8
campo_jogos
 10
-9.443692
 20
38.724209
  0
VERTEX
  8
campo_jogos
 10
-9.443870
 20
38.724142
  0
VERTEX
  8
campo_jogos
 10
-9.444032
 20
38.724421
  0
VERTEX
  8
campo_jogos
 10
-9.444032
 20
38.724421
  0
SEQEND
  0
POLYLINE
  8
campo_jogos
  6
BYLAYER
 66
1
 70
1
 40
0.000000
 41
0.000000
  0
VERTEX
  8
campo_jogos
 10
-9.453456
 20
38.729976
  0
VERTEX
  8
campo_jogos
 10
-9.453349
 20
38.730026
  0
VERTEX
  8
campo_jogos
 10
-9.453205
 20
38.729844
  0
VERTEX
  8
campo_jogos
 10
-9.453313
 20
38.729793
  0
VERTEX
  8
campo_jogos
 10
-9.453456
 20
38.729976
  0
VERTEX
  8
campo_jogos
 10
-9.453456
 20
38.729976
  0
SEQEND
  0
POLYLINE
  8
campo_jogos
  6
BYLAYER
 66
1
 70
1
 40
0.000000
 41
0.000000
  0
VERTEX
  8
campo_jogos
 10
-9.409820
 20
38.741389
  0
VERTEX
  8
campo_jogos
 10
-9.409907
 20
38.741125
  0
VERTEX
  8
campo_jogos
 10
-9.409924
 20
38.741072
  0
VERTEX
  8
campo_jogos
 10
-9.410020
 20
38.740784
  0
VERTEX
  8
campo_jogos
 10
-9.410038
 20
38.740728
  0
VERTEX
  8
campo_jogos
 10
-9.410126
 20
38.740463
  0
VERTEX
  8
campo_jogos
 10
-9.410292
 20
38.740496
  0
VERTEX
  8
campo_jogos
 10
-9.410844
 20
38.740607
  0
VERTEX
  8
campo_jogos
 10
-9.410817
 20
38.740688
  0
VERTEX
  8
campo_jogos
 10
-9.410539
 20
38.741531
  0
VERTEX
  8
campo_jogos
 10
-9.409820
 20
38.741389
  0
VERTEX
  8
campo_jogos
 10
-9.409820
 20
38.741389
  0
SEQEND
  0
POLYLINE
  8
campo_jogos
  6
BYLAYER
 66
1
 70
1
 40
0.000000
 41
0.000000
  0
VERTEX
  8
campo_jogos
 10
-9.405964
 20
38.734369
  0
VERTEX
  8
campo_jogos
 10
-9.405782
 20
38.734403
  0
VERTEX
  8
campo_jogos
 10
-9.405761
 20
38.734334
  0
VERTEX
  8
campo_jogos
 10
-9.405943
 20
38.734300
  0
VERTEX
  8
campo_jogos
 10
-9.405964
 20
38.734369
  0
VERTEX
  8
campo_jogos
 10
-9.405964
 20
38.734369
  0
SEQEND
  0
POLYLINE
  8
campo_jogos
  6
BYLAYER
 66
1
 70
1
 40
0.000000
 41
0.000000
  0
VERTEX
  8
campo_jogos
 10
-9.405990
 20
38.734447
  0
VERTEX
  8
campo_jogos
 10
-9.405808
 20
38.734481
  0
VERTEX
  8
campo_jogos
 10
-9.405787
 20
38.734411
  0
VERTEX
  8
campo_jogos
 10
-9.405969
 20
38.734377
  0
VERTEX
  8
campo_jogos
 10
-9.405990
 20
38.734447
  0
VERTEX
  8
campo_jogos
 10
-9.405990
 20
38.734447
  0
SEQEND
  0
POLYLINE
  8
campo_jogos
  6
BYLAYER
 66
1
 70
1
 40
0.000000
 41
0.000000
  0
VERTEX
  8
campo_jogos
 10
-9.405938
 20
38.734291
  0
VERTEX
  8
campo_jogos
 10
-9.405756
 20
38.734325
  0
VERTEX
  8
campo_jogos
 10
-9.405736
 20
38.734264
  0
VERTEX
  8
campo_jogos
 10
-9.405919
 20
38.734229
  0
VERTEX
  8
campo_jogos
 10
-9.405938
 20
38.734291
  0
VERTEX
  8
campo_jogos
 10
-9.405938
 20
38.734291
  0
SEQEND
  0
POLYLINE
  8
campo_jogos
  6
BYLAYER
 66
1
 70
1
 40
0.000000
 41
0.000000
  0
VERTEX
  8
campo_jogos
 10
-9.405914
 20
38.734220
  0
VERTEX
  8
campo_jogos
 10
-9.405731
 20
38.734255
  0
VERTEX
  8
campo_jogos
 10
-9.405712
 20
38.734194
  0
VERTEX
  8
campo_jogos
 10
-9.405895
 20
38.734158
  0
VERTEX
  8
campo_jogos
 10
-9.405914
 20
38.734220
  0
VERTEX
  8
campo_jogos
 10
-9.405914
 20
38.734220
  0
SEQEND
  0
POLYLINE
  8
campo_jogos
  6
BYLAYER
 66
1
 70
1
 40
0.000000
 41
0.000000
  0
VERTEX
  8
campo_jogos
 10
-9.405509
 20
38.734423
  0
VERTEX
  8
campo_jogos
 10
-9.405437
 20
38.734216
  0
VERTEX
  8
campo_jogos
 10
-9.405559
 20
38.734190
  0
VERTEX
  8
campo_jogos
 10
-9.405630
 20
38.734397
  0
VERTEX
  8
campo_jogos
 10
-9.405509
 20
38.734423
  0
VERTEX
  8
campo_jogos
 10
-9.405509
 20
38.734423
  0
SEQEND
  0
POLYLINE
  8
campo_jogos
  6
BYLAYER
 66
1
 70
1
 40
0.000000
 41
0.000000
  0
VERTEX
  8
campo_jogos
 10
-9.405930
 20
38.734750
  0
VERTEX
  8
campo_jogos
 10
-9.405734
 20
38.734671
  0
VERTEX
  8
campo_jogos
 10
-9.405782
 20
38.734599
  0
VERTEX
  8
campo_jogos
 10
-9.405977
 20
38.734679
  0
VERTEX
  8
campo_jogos
 10
-9.405930
 20
38.734750
  0
VERTEX
  8
campo_jogos
 10
-9.405930
 20
38.734750
  0
SEQEND
  0
POLYLINE
  8
campo_jogos
  6
BYLAYER
 66
1
 70
1
 40
0.000000
 41
0.000000
  0
VERTEX
  8
campo_jogos
 10
-9.405118
 20
38.733735
  0
VERTEX
  8
campo_jogos
 10
-9.405176
 20
38.734093
  0
VERTEX
  8
campo_jogos
 10
-9.404948
 20
38.734116
  0
VERTEX
  8
campo_jogos
 10
-9.404889
 20
38.733758
  0
VERTEX
  8
campo_jogos
 10
-9.405118
 20
38.733735
  0
VERTEX
  8
campo_jogos
 10
-9.405118
 20
38.733735
  0
SEQEND
  0
POLYLINE
  8
campo_jogos
  6
BYLAYER
 66
1
 70
1
 40
0.000000
 41
0.000000
  0
VERTEX
  8
campo_jogos
 10
-9.407137
 20
38.734466
  0
VERTEX
  8
campo_jogos
 10
-9.407110
 20
38.734294
  0
VERTEX
  8
campo_jogos
 10
-9.407251
 20
38.734280
  0
VERTEX
  8
campo_jogos
 10
-9.407279
 20
38.734452
  0
VERTEX
  8
campo_jogos
 10
-9.407137
 20
38.734466
  0
VERTEX
  8
campo_jogos
 10
-9.407137
 20
38.734466
  0
SEQEND
  0
POLYLINE
  8
campo_jogos
  6
BYLAYER
 66
1
 70
1
 40
0.000000
 41
0.000000
  0
VERTEX
  8
campo_jogos
 10
-9.404846
 20
38.733739
  0
VERTEX
  8
campo_jogos
 10
-9.404816
 20
38.733565
  0
VERTEX
  8
campo_jogos
 10
-9.404787
 20
38.733392
  0
VERTEX
  8
campo_jogos
 10
-9.405118
 20
38.733358
  0
VERTEX
  8
campo_jogos
 10
-9.405151
 20
38.733562
  0
VERTEX
  8
campo_jogos
 10
-9.405175
 20
38.733704
  0
VERTEX
  8
campo_jogos
 10
-9.405156
 20
38.733706
  0
VERTEX
  8
campo_jogos
 10
-9.404846
 20
38.733739
  0
VERTEX
  8
campo_jogos
 10
-9.404846
 20
38.733739
  0
SEQEND
  0
POLYLINE
  8
campo_jogos
  6
BYLAYER
 66
1
 70
1
 40
0.000000
 41
0.000000
  0
VERTEX
  8
campo_jogos
 10
-9.404749
 20
38.734140
  0
VERTEX
  8
campo_jogos
 10
-9.404654
 20
38.733567
  0
VERTEX
  8
campo_jogos
 10
-9.404628
 20
38.733408
  0
VERTEX
  8
campo_jogos
 10
-9.404787
 20
38.733392
  0
VERTEX
  8
campo_jogos
 10
-9.404816
 20
38.733565
  0
VERTEX
  8
campo_jogos
 10
-9.404846
 20
38.733739
  0
VERTEX
  8
campo_jogos
 10
-9.404907
 20
38.734123
  0
VERTEX
  8
campo_jogos
 10
-9.404749
 20
38.734140
  0
VERTEX
  8
campo_jogos
 10
-9.404749
 20
38.734140
  0
SEQEND
  0
POLYLINE
  8
campo_jogos
  6
BYLAYER
 66
1
 70
1
 40
0.000000
 41
0.000000
  0
VERTEX
  8
campo_jogos
 10
-9.404263
 20
38.733945
  0
VERTEX
  8
campo_jogos
 10
-9.404241
 20
38.733796
  0
VERTEX
  8
campo_jogos
 10
-9.404413
 20
38.733779
  0
VERTEX
  8
campo_jogos
 10
-9.404438
 20
38.733928
  0
VERTEX
  8
campo_jogos
 10
-9.404263
 20
38.733945
  0
VERTEX
  8
campo_jogos
 10
-9.404263
 20
38.733945
  0
SEQEND
  0
POLYLINE
  8
campo_jogos
  6
BYLAYER
 66
1
 70
1
 40
0.000000
 41
0.000000
  0
VERTEX
  8
campo_jogos
 10
-9.406357
 20
38.737537
  0
VERTEX
  8
campo_jogos
 10
-9.406518
 20
38.737428
  0
VERTEX
  8
campo_jogos
 10
-9.406583
 20
38.737487
  0
VERTEX
  8
campo_jogos
 10
-9.406422
 20
38.737596
  0
VERTEX
  8
campo_jogos
 10
-9.406357
 20
38.737537
  0
VERTEX
  8
campo_jogos
 10
-9.406357
 20
38.737537
  0
SEQEND
  0
POLYLINE
  8
campo_jogos
  6
BYLAYER
 66
1
 70
1
 40
0.000000
 41
0.000000
  0
VERTEX
  8
campo_jogos
 10
-9.404266
 20
38.733947
  0
VERTEX
  8
campo_jogos
 10
-9.404266
 20
38.733947
  0
VERTEX
  8
campo_jogos
 10
-9.404435
 20
38.733930
  0
VERTEX
  8
campo_jogos
 10
-9.404474
 20
38.734172
  0
VERTEX
  8
campo_jogos
 10
-9.404303
 20
38.734189
  0
VERTEX
  8
campo_jogos
 10
-9.404266
 20
38.733947
  0
SEQEND
  0
POLYLINE
  8
campo_jogos
  6
BYLAYER
 66
1
 70
1
 40
0.000000
 41
0.000000
  0
VERTEX
  8
campo_jogos
 10
-9.403951
 20
38.733831
  0
VERTEX
  8
campo_jogos
 10
-9.403951
 20
38.733831
  0
VERTEX
  8
campo_jogos
 10
-9.404236
 20
38.733802
  0
VERTEX
  8
campo_jogos
 10
-9.404296
 20
38.734189
  0
VERTEX
  8
campo_jogos
 10
-9.404016
 20
38.734218
  0
VERTEX
  8
campo_jogos
 10
-9.403951
 20
38.733831
  0
SEQEND
  0
POLYLINE
  8
campo_jogos
  6
BYLAYER
 66
1
 70
1
 40
0.000000
 41
0.000000
  0
VERTEX
  8
campo_jogos
 10
-9.400851
 20
38.734121
  0
VERTEX
  8
campo_jogos
 10
-9.400818
 20
38.734122
  0
VERTEX
  8
campo_jogos
 10
-9.400818
 20
38.734097
  0
VERTEX
  8
campo_jogos
 10
-9.400827
 20
38.734097
  0
VERTEX
  8
campo_jogos
 10
-9.400824
 20
38.734021
  0
VERTEX
  8
campo_jogos
 10
-9.400842
 20
38.734021
  0
VERTEX
  8
campo_jogos
 10
-9.400841
 20
38.734094
  0
VERTEX
  8
campo_jogos
 10
-9.400850
 20
38.734094
  0
VERTEX
  8
campo_jogos
 10
-9.400851
 20
38.734121
  0
VERTEX
  8
campo_jogos
 10
-9.400851
 20
38.734121
  0
SEQEND
  0
POLYLINE
  8
campo_jogos
  6
BYLAYER
 66
1
 70
1
 40
0.000000
 41
0.000000
  0
VERTEX
  8
campo_jogos
 10
-9.400801
 20
38.734164
  0
VERTEX
  8
campo_jogos
 10
-9.400755
 20
38.734165
  0
VERTEX
  8
campo_jogos
 10
-9.400753
 20
38.734101
  0
VERTEX
  8
campo_jogos
 10
-9.400799
 20
38.734100
  0
VERTEX
  8
campo_jogos
 10
-9.400801
 20
38.734164
  0
VERTEX
  8
campo_jogos
 10
-9.400801
 20
38.734164
  0
SEQEND
  0
POLYLINE
  8
campo_jogos
  6
BYLAYER
 66
1
 70
1
 40
0.000000
 41
0.000000
  0
VERTEX
  8
campo_jogos
 10
-9.400891
 20
38.734068
  0
VERTEX
  8
campo_jogos
 10
-9.400889
 20
38.734026
  0
VERTEX
  8
campo_jogos
 10
-9.400940
 20
38.734025
  0
VERTEX
  8
campo_jogos
 10
-9.400942
 20
38.734067
  0
VERTEX
  8
campo_jogos
 10
-9.400891
 20
38.734068
  0
VERTEX
  8
campo_jogos
 10
-9.400891
 20
38.734068
  0
SEQEND
  0
POLYLINE
  8
campo_jogos
  6
BYLAYER
 66
1
 70
1
 40
0.000000
 41
0.000000
  0
VERTEX
  8
campo_jogos
 10
-9.400944
 20
38.734086
  0
VERTEX
  8
campo_jogos
 10
-9.400945
 20
38.734140
  0
VERTEX
  8
campo_jogos
 10
-9.400876
 20
38.734141
  0
VERTEX
  8
campo_jogos
 10
-9.400875
 20
38.734087
  0
VERTEX
  8
campo_jogos
 10
-9.400944
 20
38.734086
  0
VERTEX
  8
campo_jogos
 10
-9.400944
 20
38.734086
  0
SEQEND
  0
POLYLINE
  8
campo_jogos
  6
BYLAYER
 66
1
 70
1
 40
0.000000
 41
0.000000
  0
VERTEX
  8
campo_jogos
 10
-9.400772
 20
38.734020
  0
VERTEX
  8
campo_jogos
 10
-9.400768
 20
38.734040
  0
VERTEX
  8
campo_jogos
 10
-9.400719
 20
38.734041
  0
VERTEX
  8
campo_jogos
 10
-9.400718
 20
38.734020
  0
VERTEX
  8
campo_jogos
 10
-9.400772
 20
38.734020
  0
VERTEX
  8
campo_jogos
 10
-9.400772
 20
38.734020
  0
SEQEND
  0
POLYLINE
  8
campo_jogos
  6
BYLAYER
 66
1
 70
1
 40
0.000000
 41
0.000000
  0
VERTEX
  8
campo_jogos
 10
-9.390848
 20
38.734987
  0
VERTEX
  8
campo_jogos
 10
-9.390848
 20
38.734717
  0
VERTEX
  8
campo_jogos
 10
-9.391041
 20
38.734717
  0
VERTEX
  8
campo_jogos
 10
-9.391041
 20
38.734987
  0
VERTEX
  8
campo_jogos
 10
-9.390848
 20
38.734987
  0
VERTEX
  8
campo_jogos
 10
-9.390848
 20
38.734987
  0
SEQEND
  0
POLYLINE
  8
campo_jogos
  6
BYLAYER
 66
1
 70
1
 40
0.000000
 41
0.000000
  0
VERTEX
  8
campo_jogos
 10
-9.398505
 20
38.733992
  0
VERTEX
  8
campo_jogos
 10
-9.398163
 20
38.734085
  0
VERTEX
  8
campo_jogos
 10
-9.398092
 20
38.733947
  0
VERTEX
  8
campo_jogos
 10
-9.398427
 20
38.733841
  0
VERTEX
  8
campo_jogos
 10
-9.398505
 20
38.733992
  0
VERTEX
  8
campo_jogos
 10
-9.398505
 20
38.733992
  0
SEQEND
  0
POLYLINE
  8
campo_jogos
  6
BYLAYER
 66
1
 70
1
 40
0.000000
 41
0.000000
  0
VERTEX
  8
campo_jogos
 10
-9.412883
 20
38.730335
  0
VERTEX
  8
campo_jogos
 10
-9.412509
 20
38.730493
  0
VERTEX
  8
campo_jogos
 10
-9.412413
 20
38.730352
  0
VERTEX
  8
campo_jogos
 10
-9.412786
 20
38.730195
  0
VERTEX
  8
campo_jogos
 10
-9.412883
 20
38.730335
  0
VERTEX
  8
campo_jogos
 10
-9.412883
 20
38.730335
  0
SEQEND
  0
POLYLINE
  8
campo_jogos
  6
BYLAYER
 66
1
 70
1
 40
0.000000
 41
0.000000
  0
VERTEX
  8
campo_jogos
 10
-9.403816
 20
38.732286
  0
VERTEX
  8
campo_jogos
 10
-9.403544
 20
38.732462
  0
VERTEX
  8
campo_jogos
 10
-9.403215
 20
38.732149
  0
VERTEX
  8
campo_jogos
 10
-9.403486
 20
38.731973
  0
VERTEX
  8
campo_jogos
 10
-9.403816
 20
38.732286
  0
VERTEX
  8
campo_jogos
 10
-9.403816
 20
38.732286
  0
SEQEND
  0
POLYLINE
  8
campo_jogos
  6
BYLAYER
 66
1
 70
1
 40
0.000000
 41
0.000000
  0
VERTEX
  8
campo_jogos
 10
-9.408233
 20
38.729647
  0
VERTEX
  8
campo_jogos
 10
-9.408351
 20
38.729608
  0
VERTEX
  8
campo_jogos
 10
-9.408437
 20
38.729764
  0
VERTEX
  8
campo_jogos
 10
-9.408317
 20
38.729800
  0
VERTEX
  8
campo_jogos
 10
-9.408233
 20
38.729647
  0
VERTEX
  8
campo_jogos
 10
-9.408233
 20
38.729647
  0
SEQEND
  0
POLYLINE
  8
campo_jogos
  6
BYLAYER
 66
1
 70
1
 40
0.000000
 41
0.000000
  0
VERTEX
  8
campo_jogos
 10
-9.409296
 20
38.729386
  0
VERTEX
  8
campo_jogos
 10
-9.409435
 20
38.729343
  0
VERTEX
  8
campo_jogos
 10
-9.409469
 20
38.729413
  0
VERTEX
  8
campo_jogos
 10
-9.409331
 20
38.729456
  0
VERTEX
  8
campo_jogos
 10
-9.409296
 20
38.729386
  0
VERTEX
  8
campo_jogos
 10
-9.409296
 20
38.729386
  0
SEQEND
  0
POLYLINE
  8
campo_jogos
  6
BYLAYER
 66
1
 70
1
 40
0.000000
 41
0.000000
  0
VERTEX
  8
campo_jogos
 10
-9.404520
 20
38.730968
  0
VERTEX
  8
campo_jogos
 10
-9.404380
 20
38.731061
  0
VERTEX
  8
campo_jogos
 10
-9.404322
 20
38.731008
  0
VERTEX
  8
campo_jogos
 10
-9.404136
 20
38.731128
  0
VERTEX
  8
campo_jogos
 10
-9.404096
 20
38.731092
  0
VERTEX
  8
campo_jogos
 10
-9.404184
 20
38.731036
  0
VERTEX
  8
campo_jogos
 10
-9.404212
 20
38.731015
  0
VERTEX
  8
campo_jogos
 10
-9.404216
 20
38.731007
  0
VERTEX
  8
campo_jogos
 10
-9.404217
 20
38.730998
  0
VERTEX
  8
campo_jogos
 10
-9.404214
 20
38.730985
  0
VERTEX
  8
campo_jogos
 10
-9.404197
 20
38.730930
  0
VERTEX
  8
campo_jogos
 10
-9.404373
 20
38.730922
  0
VERTEX
  8
campo_jogos
 10
-9.404403
 20
38.730923
  0
VERTEX
  8
campo_jogos
 10
-9.404440
 20
38.730930
  0
VERTEX
  8
campo_jogos
 10
-9.404461
 20
38.730938
  0
VERTEX
  8
campo_jogos
 10
-9.404505
 20
38.730959
  0
VERTEX
  8
campo_jogos
 10
-9.404519
 20
38.730968
  0
VERTEX
  8
campo_jogos
 10
-9.404520
 20
38.730968
  0
VERTEX
  8
campo_jogos
 10
-9.404520
 20
38.730968
  0
SEQEND
  0
POLYLINE
  8
campo_jogos
  6
BYLAYER
 66
1
 70
1
 40
0.000000
 41
0.000000
  0
VERTEX
  8
campo_jogos
 10
-9.416631
 20
38.730511
  0
VERTEX
  8
campo_jogos
 10
-9.416631
 20
38.730511
  0
VERTEX
  8
campo_jogos
 10
-9.416875
 20
38.730473
  0
VERTEX
  8
campo_jogos
 10
-9.416973
 20
38.730864
  0
VERTEX
  8
campo_jogos
 10
-9.416733
 20
38.730903
  0
VERTEX
  8
campo_jogos
 10
-9.416631
 20
38.730511
  0
SEQEND
  0
POLYLINE
  8
campo_jogos
  6
BYLAYER
 66
1
 70
1
 40
0.000000
 41
0.000000
  0
VERTEX
  8
campo_jogos
 10
-9.416251
 20
38.730093
  0
VERTEX
  8
campo_jogos
 10
-9.416029
 20
38.729249
  0
VERTEX
  8
campo_jogos
 10
-9.416589
 20
38.729159
  0
VERTEX
  8
campo_jogos
 10
-9.416811
 20
38.730004
  0
VERTEX
  8
campo_jogos
 10
-9.416251
 20
38.730093
  0
VERTEX
  8
campo_jogos
 10
-9.416251
 20
38.730093
  0
SEQEND
  0
POLYLINE
  8
campo_jogos
  6
BYLAYER
 66
1
 70
1
 40
0.000000
 41
0.000000
  0
VERTEX
  8
campo_jogos
 10
-9.389645
 20
38.745302
  0
VERTEX
  8
campo_jogos
 10
-9.389736
 20
38.745107
  0
VERTEX
  8
campo_jogos
 10
-9.389884
 20
38.745152
  0
VERTEX
  8
campo_jogos
 10
-9.389882
 20
38.745160
  0
VERTEX
  8
campo_jogos
 10
-9.389795
 20
38.745351
  0
VERTEX
  8
campo_jogos
 10
-9.389643
 20
38.745311
  0
VERTEX
  8
campo_jogos
 10
-9.389645
 20
38.745302
  0
VERTEX
  8
campo_jogos
 10
-9.389645
 20
38.745302
  0
SEQEND
  0
POLYLINE
  8
campo_jogos
  6
BYLAYER
 66
1
 70
1
 40
0.000000
 41
0.000000
  0
VERTEX
  8
campo_jogos
 10
-9.393256
 20
38.745677
  0
VERTEX
  8
campo_jogos
 10
-9.393253
 20
38.745464
  0
VERTEX
  8
campo_jogos
 10
-9.393379
 20
38.745462
  0
VERTEX
  8
campo_jogos
 10
-9.393383
 20
38.745676
  0
VERTEX
  8
campo_jogos
 10
-9.393256
 20
38.745677
  0
VERTEX
  8
campo_jogos
 10
-9.393256
 20
38.745677
  0
SEQEND
  0
POLYLINE
  8
campo_jogos
  6
BYLAYER
 66
1
 70
1
 40
0.000000
 41
0.000000
  0
VERTEX
  8
campo_jogos
 10
-9.393273
 20
38.746816
  0
VERTEX
  8
campo_jogos
 10
-9.393245
 20
38.746603
  0
VERTEX
  8
campo_jogos
 10
-9.393374
 20
38.746593
  0
VERTEX
  8
campo_jogos
 10
-9.393402
 20
38.746805
  0
VERTEX
  8
campo_jogos
 10
-9.393273
 20
38.746816
  0
VERTEX
  8
campo_jogos
 10
-9.393273
 20
38.746816
  0
SEQEND
  0
POLYLINE
  8
campo_jogos
  6
BYLAYER
 66
1
 70
1
 40
0.000000
 41
0.000000
  0
VERTEX
  8
campo_jogos
 10
-9.388139
 20
38.746108
  0
VERTEX
  8
campo_jogos
 10
-9.388341
 20
38.745887
  0
VERTEX
  8
campo_jogos
 10
-9.388526
 20
38.745990
  0
VERTEX
  8
campo_jogos
 10
-9.388325
 20
38.746212
  0
VERTEX
  8
campo_jogos
 10
-9.388139
 20
38.746108
  0
VERTEX
  8
campo_jogos
 10
-9.388139
 20
38.746108
  0
SEQEND
  0
POLYLINE
  8
campo_jogos
  6
BYLAYER
 66
1
 70
1
 40
0.000000
 41
0.000000
  0
VERTEX
  8
campo_jogos
 10
-9.390141
 20
38.747721
  0
VERTEX
  8
campo_jogos
 10
-9.389908
 20
38.747596
  0
VERTEX
  8
campo_jogos
 10
-9.390009
 20
38.747487
  0
VERTEX
  8
campo_jogos
 10
-9.390241
 20
38.747613
  0
VERTEX
  8
campo_jogos
 10
-9.390141
 20
38.747721
  0
VERTEX
  8
campo_jogos
 10
-9.390141
 20
38.747721
  0
SEQEND
  0
POLYLINE
  8
campo_jogos
  6
BYLAYER
 66
1
 70
1
 40
0.000000
 41
0.000000
  0
VERTEX
  8
campo_jogos
 10
-9.388879
 20
38.744484
  0
VERTEX
  8
campo_jogos
 10
-9.388699
 20
38.744435
  0
VERTEX
  8
campo_jogos
 10
-9.388837
 20
38.744118
  0
VERTEX
  8
campo_jogos
 10
-9.389020
 20
38.744170
  0
VERTEX
  8
campo_jogos
 10
-9.388879
 20
38.744484
  0
VERTEX
  8
campo_jogos
 10
-9.388879
 20
38.744484
  0
SEQEND
  0
POLYLINE
  8
campo_jogos
  6
BYLAYER
 66
1
 70
1
 40
0.000000
 41
0.000000
  0
VERTEX
  8
campo_jogos
 10
-9.393786
 20
38.746004
  0
VERTEX
  8
campo_jogos
 10
-9.393581
 20
38.746044
  0
VERTEX
  8
campo_jogos
 10
-9.393479
 20
38.745727
  0
VERTEX
  8
campo_jogos
 10
-9.393683
 20
38.745686
  0
VERTEX
  8
campo_jogos
 10
-9.393786
 20
38.746004
  0
VERTEX
  8
campo_jogos
 10
-9.393786
 20
38.746004
  0
SEQEND
  0
POLYLINE
  8
campo_jogos
  6
BYLAYER
 66
1
 70
1
 40
0.000000
 41
0.000000
  0
VERTEX
  8
campo_jogos
 10
-9.418407
 20
38.714096
  0
VERTEX
  8
campo_jogos
 10
-9.418436
 20
38.713877
  0
VERTEX
  8
campo_jogos
 10
-9.418835
 20
38.713909
  0
VERTEX
  8
campo_jogos
 10
-9.418807
 20
38.714127
  0
VERTEX
  8
campo_jogos
 10
-9.418407
 20
38.714096
  0
VERTEX
  8
campo_jogos
 10
-9.418407
 20
38.714096
  0
SEQEND
  0
POLYLINE
  8
campo_jogos
  6
BYLAYER
 66
1
 70
1
 40
0.000000
 41
0.000000
  0
VERTEX
  8
campo_jogos
 10
-9.419474
 20
38.713502
  0
VERTEX
  8
campo_jogos
 10
-9.419455
 20
38.712557
  0
VERTEX
  8
campo_jogos
 10
-9.420237
 20
38.712548
  0
VERTEX
  8
campo_jogos
 10
-9.420256
 20
38.713493
  0
VERTEX
  8
campo_jogos
 10
-9.419474
 20
38.713502
  0
VERTEX
  8
campo_jogos
 10
-9.419474
 20
38.713502
  0
SEQEND
  0
POLYLINE
  8
campo_jogos
  6
BYLAYER
 66
1
 70
1
 40
0.000000
 41
0.000000
  0
VERTEX
  8
campo_jogos
 10
-9.418910
 20
38.713396
  0
VERTEX
  8
campo_jogos
 10
-9.418649
 20
38.713148
  0
VERTEX
  8
campo_jogos
 10
-9.418770
 20
38.713070
  0
VERTEX
  8
campo_jogos
 10
-9.419032
 20
38.713316
  0
VERTEX
  8
campo_jogos
 10
-9.418910
 20
38.713396
  0
VERTEX
  8
campo_jogos
 10
-9.418910
 20
38.713396
  0
SEQEND
  0
POLYLINE
  8
campo_jogos
  6
BYLAYER
 66
1
 70
1
 40
0.000000
 41
0.000000
  0
VERTEX
  8
campo_jogos
 10
-9.419309
 20
38.711212
  0
VERTEX
  8
campo_jogos
 10
-9.419237
 20
38.711071
  0
VERTEX
  8
campo_jogos
 10
-9.419333
 20
38.711041
  0
VERTEX
  8
campo_jogos
 10
-9.419405
 20
38.711182
  0
VERTEX
  8
campo_jogos
 10
-9.419309
 20
38.711212
  0
VERTEX
  8
campo_jogos
 10
-9.419309
 20
38.711212
  0
SEQEND
  0
POLYLINE
  8
campo_jogos
  6
BYLAYER
 66
1
 70
1
 40
0.000000
 41
0.000000
  0
VERTEX
  8
campo_jogos
 10
-9.413988
 20
38.711836
  0
VERTEX
  8
campo_jogos
 10
-9.414060
 20
38.711683
  0
VERTEX
  8
campo_jogos
 10
-9.414149
 20
38.711709
  0
VERTEX
  8
campo_jogos
 10
-9.414168
 20
38.711715
  0
VERTEX
  8
campo_jogos
 10
-9.414261
 20
38.711743
  0
VERTEX
  8
campo_jogos
 10
-9.414189
 20
38.711894
  0
VERTEX
  8
campo_jogos
 10
-9.413988
 20
38.711836
  0
VERTEX
  8
campo_jogos
 10
-9.413988
 20
38.711836
  0
SEQEND
  0
POLYLINE
  8
campo_jogos
  6
BYLAYER
 66
1
 70
1
 40
0.000000
 41
0.000000
  0
VERTEX
  8
campo_jogos
 10
-9.416804
 20
38.712412
  0
VERTEX
  8
campo_jogos
 10
-9.416788
 20
38.712412
  0
VERTEX
  8
campo_jogos
 10
-9.416697
 20
38.712413
  0
VERTEX
  8
campo_jogos
 10
-9.416694
 20
38.712238
  0
VERTEX
  8
campo_jogos
 10
-9.416797
 20
38.712237
  0
VERTEX
  8
campo_jogos
 10
-9.416804
 20
38.712412
  0
VERTEX
  8
campo_jogos
 10
-9.416804
 20
38.712412
  0
SEQEND
  0
POLYLINE
  8
campo_jogos
  6
BYLAYER
 66
1
 70
1
 40
0.000000
 41
0.000000
  0
VERTEX
  8
campo_jogos
 10
-9.407980
 20
38.712367
  0
VERTEX
  8
campo_jogos
 10
-9.407836
 20
38.712224
  0
VERTEX
  8
campo_jogos
 10
-9.407948
 20
38.712155
  0
VERTEX
  8
campo_jogos
 10
-9.408092
 20
38.712299
  0
VERTEX
  8
campo_jogos
 10
-9.407980
 20
38.712367
  0
VERTEX
  8
campo_jogos
 10
-9.407980
 20
38.712367
  0
SEQEND
  0
POLYLINE
  8
campo_jogos
  6
BYLAYER
 66
1
 70
1
 40
0.000000
 41
0.000000
  0
VERTEX
  8
campo_jogos
 10
-9.417399
 20
38.707627
  0
VERTEX
  8
campo_jogos
 10
-9.417382
 20
38.707484
  0
VERTEX
  8
campo_jogos
 10
-9.417512
 20
38.707476
  0
VERTEX
  8
campo_jogos
 10
-9.417530
 20
38.707621
  0
VERTEX
  8
campo_jogos
 10
-9.417399
 20
38.707627
  0
VERTEX
  8
campo_jogos
 10
-9.417399
 20
38.707627
  0
SEQEND
  0
POLYLINE
  8
campo_jogos
  6
BYLAYER
 66
1
 70
1
 40
0.000000
 41
0.000000
  0
VERTEX
  8
campo_jogos
 10
-9.406370
 20
38.708899
  0
VERTEX
  8
campo_jogos
 10
-9.406483
 20
38.708928
  0
VERTEX
  8
campo_jogos
 10
-9.406400
 20
38.709127
  0
VERTEX
  8
campo_jogos
 10
-9.406288
 20
38.709098
  0
VERTEX
  8
campo_jogos
 10
-9.406370
 20
38.708899
  0
VERTEX
  8
campo_jogos
 10
-9.406370
 20
38.708899
  0
SEQEND
  0
POLYLINE
  8
campo_jogos
  6
BYLAYER
 66
1
 70
1
 40
0.000000
 41
0.000000
  0
VERTEX
  8
campo_jogos
 10
-9.406191
 20
38.709079
  0
VERTEX
  8
campo_jogos
 10
-9.406069
 20
38.709046
  0
VERTEX
  8
campo_jogos
 10
-9.406159
 20
38.708845
  0
VERTEX
  8
campo_jogos
 10
-9.406281
 20
38.708878
  0
VERTEX
  8
campo_jogos
 10
-9.406191
 20
38.709079
  0
VERTEX
  8
campo_jogos
 10
-9.406191
 20
38.709079
  0
SEQEND
  0
POLYLINE
  8
campo_jogos
  6
BYLAYER
 66
1
 70
1
 40
0.000000
 41
0.000000
  0
VERTEX
  8
campo_jogos
 10
-9.404177
 20
38.708092
  0
VERTEX
  8
campo_jogos
 10
-9.404085
 20
38.707812
  0
VERTEX
  8
campo_jogos
 10
-9.404257
 20
38.707777
  0
VERTEX
  8
campo_jogos
 10
-9.404344
 20
38.708053
  0
VERTEX
  8
campo_jogos
 10
-9.404177
 20
38.708092
  0
VERTEX
  8
campo_jogos
 10
-9.404177
 20
38.708092
  0
SEQEND
  0
POLYLINE
  8
campo_jogos
  6
BYLAYER
 66
1
 70
1
 40
0.000000
 41
0.000000
  0
VERTEX
  8
campo_jogos
 10
-9.419070
 20
38.713911
  0
VERTEX
  8
campo_jogos
 10
-9.419097
 20
38.713912
  0
VERTEX
  8
campo_jogos
 10
-9.419051
 20
38.714338
  0
VERTEX
  8
campo_jogos
 10
-9.418965
 20
38.714371
  0
VERTEX
  8
campo_jogos
 10
-9.418938
 20
38.714369
  0
VERTEX
  8
campo_jogos
 10
-9.418724
 20
38.714350
  0
VERTEX
  8
campo_jogos
 10
-9.418652
 20
38.714344
  0
VERTEX
  8
campo_jogos
 10
-9.418663
 20
38.714248
  0
VERTEX
  8
campo_jogos
 10
-9.418677
 20
38.714140
  0
VERTEX
  8
campo_jogos
 10
-9.418820
 20
38.714153
  0
VERTEX
  8
campo_jogos
 10
-9.418853
 20
38.713893
  0
VERTEX
  8
campo_jogos
 10
-9.419070
 20
38.713911
  0
VERTEX
  8
campo_jogos
 10
-9.419070
 20
38.713911
  0
SEQEND
  0
POLYLINE
  8
campo_jogos
  6
BYLAYER
 66
1
 70
1
 40
0.000000
 41
0.000000
  0
VERTEX
  8
campo_jogos
 10
-9.420126
 20
38.692900
  0
VERTEX
  8
campo_jogos
 10
-9.420041
 20
38.692895
  0
VERTEX
  8
campo_jogos
 10
-9.420007
 20
38.692894
  0
VERTEX
  8
campo_jogos
 10
-9.419930
 20
38.692890
  0
VERTEX
  8
campo_jogos
 10
-9.419956
 20
38.692605
  0
VERTEX
  8
campo_jogos
 10
-9.420034
 20
38.692610
  0
VERTEX
  8
campo_jogos
 10
-9.420153
 20
38.692616
  0
VERTEX
  8
campo_jogos
 10
-9.420126
 20
38.692900
  0
VERTEX
  8
campo_jogos
 10
-9.420126
 20
38.692900
  0
SEQEND
  0
POLYLINE
  8
campo_jogos
  6
BYLAYER
 66
1
 70
1
 40
0.000000
 41
0.000000
  0
VERTEX
  8
campo_jogos
 10
-9.459256
 20
38.714540
  0
VERTEX
  8
campo_jogos
 10
-9.458860
 20
38.713836
  0
VERTEX
  8
campo_jogos
 10
-9.459639
 20
38.713545
  0
VERTEX
  8
campo_jogos
 10
-9.460053
 20
38.714282
  0
VERTEX
  8
campo_jogos
 10
-9.459908
 20
38.714338
  0
VERTEX
  8
campo_jogos
 10
-9.459866
 20
38.714354
  0
VERTEX
  8
campo_jogos
 10
-9.459279
 20
38.714581
  0
VERTEX
  8
campo_jogos
 10
-9.459256
 20
38.714540
  0
VERTEX
  8
campo_jogos
 10
-9.459256
 20
38.714540
  0
SEQEND
  0
POLYLINE
  8
campo_jogos
  6
BYLAYER
 66
1
 70
1
 40
0.000000
 41
0.000000
  0
VERTEX
  8
campo_jogos
 10
-9.465182
 20
38.710144
  0
VERTEX
  8
campo_jogos
 10
-9.464987
 20
38.710240
  0
VERTEX
  8
campo_jogos
 10
-9.464923
 20
38.710162
  0
VERTEX
  8
campo_jogos
 10
-9.465118
 20
38.710065
  0
VERTEX
  8
campo_jogos
 10
-9.465182
 20
38.710144
  0
VERTEX
  8
campo_jogos
 10
-9.465182
 20
38.710144
  0
SEQEND
  0
POLYLINE
  8
campo_jogos
  6
BYLAYER
 66
1
 70
1
 40
0.000000
 41
0.000000
  0
VERTEX
  8
campo_jogos
 10
-9.461378
 20
38.706852
  0
VERTEX
  8
campo_jogos
 10
-9.461225
 20
38.707003
  0
VERTEX
  8
campo_jogos
 10
-9.461135
 20
38.706943
  0
VERTEX
  8
campo_jogos
 10
-9.461284
 20
38.706790
  0
VERTEX
  8
campo_jogos
 10
-9.461378
 20
38.706852
  0
VERTEX
  8
campo_jogos
 10
-9.461378
 20
38.706852
  0
VERTEX
  8
campo_jogos
 10
-9.461378
 20
38.706852
  0
SEQEND
  0
POLYLINE
  8
campo_jogos
  6
BYLAYER
 66
1
 70
1
 40
0.000000
 41
0.000000
  0
VERTEX
  8
campo_jogos
 10
-9.461276
 20
38.714621
  0
VERTEX
  8
campo_jogos
 10
-9.461059
 20
38.714692
  0
VERTEX
  8
campo_jogos
 10
-9.460792
 20
38.714194
  0
VERTEX
  8
campo_jogos
 10
-9.461009
 20
38.714123
  0
VERTEX
  8
campo_jogos
 10
-9.461276
 20
38.714621
  0
VERTEX
  8
campo_jogos
 10
-9.461276
 20
38.714621
  0
SEQEND
  0
POLYLINE
  8
campo_jogos
  6
BYLAYER
 66
1
 70
1
 40
0.000000
 41
0.000000
  0
VERTEX
  8
campo_jogos
 10
-9.459093
 20
38.698515
  0
VERTEX
  8
campo_jogos
 10
-9.459121
 20
38.698435
  0
VERTEX
  8
campo_jogos
 10
-9.459291
 20
38.698472
  0
VERTEX
  8
campo_jogos
 10
-9.459262
 20
38.698552
  0
VERTEX
  8
campo_jogos
 10
-9.459093
 20
38.698515
  0
VERTEX
  8
campo_jogos
 10
-9.459093
 20
38.698515
  0
SEQEND
  0
POLYLINE
  8
campo_jogos
  6
BYLAYER
 66
1
 70
1
 40
0.000000
 41
0.000000
  0
VERTEX
  8
campo_jogos
 10
-9.466530
 20
38.699720
  0
VERTEX
  8
campo_jogos
 10
-9.466402
 20
38.699705
  0
VERTEX
  8
campo_jogos
 10
-9.466440
 20
38.699490
  0
VERTEX
  8
campo_jogos
 10
-9.466568
 20
38.699506
  0
VERTEX
  8
campo_jogos
 10
-9.466530
 20
38.699720
  0
VERTEX
  8
campo_jogos
 10
-9.466530
 20
38.699720
  0
SEQEND
  0
POLYLINE
  8
campo_jogos
  6
BYLAYER
 66
1
 70
1
 40
0.000000
 41
0.000000
  0
VERTEX
  8
campo_jogos
 10
-9.452777
 20
38.705339
  0
VERTEX
  8
campo_jogos
 10
-9.452757
 20
38.705271
  0
VERTEX
  8
campo_jogos
 10
-9.452900
 20
38.705245
  0
VERTEX
  8
campo_jogos
 10
-9.452920
 20
38.705313
  0
VERTEX
  8
campo_jogos
 10
-9.452777
 20
38.705339
  0
VERTEX
  8
campo_jogos
 10
-9.452777
 20
38.705339
  0
SEQEND
  0
POLYLINE
  8
campo_jogos
  6
BYLAYER
 66
1
 70
1
 40
0.000000
 41
0.000000
  0
VERTEX
  8
campo_jogos
 10
-9.450704
 20
38.701871
  0
VERTEX
  8
campo_jogos
 10
-9.450800
 20
38.701537
  0
VERTEX
  8
campo_jogos
 10
-9.451003
 20
38.701588
  0
VERTEX
  8
campo_jogos
 10
-9.450904
 20
38.701906
  0
VERTEX
  8
campo_jogos
 10
-9.450704
 20
38.701871
  0
VERTEX
  8
campo_jogos
 10
-9.450704
 20
38.701871
  0
SEQEND
  0
POLYLINE
  8
campo_jogos
  6
BYLAYER
 66
1
 70
1
 40
0.000000
 41
0.000000
  0
VERTEX
  8
campo_jogos
 10
-9.452713
 20
38.705529
  0
VERTEX
  8
campo_jogos
 10
-9.452681
 20
38.705420
  0
VERTEX
  8
campo_jogos
 10
-9.452899
 20
38.705378
  0
VERTEX
  8
campo_jogos
 10
-9.452940
 20
38.705518
  0
VERTEX
  8
campo_jogos
 10
-9.452867
 20
38.705533
  0
VERTEX
  8
campo_jogos
 10
-9.452853
 20
38.705491
  0
VERTEX
  8
campo_jogos
 10
-9.452795
 20
38.705503
  0
VERTEX
  8
campo_jogos
 10
-9.452798
 20
38.705513
  0
VERTEX
  8
campo_jogos
 10
-9.452713
 20
38.705529
  0
VERTEX
  8
campo_jogos
 10
-9.452713
 20
38.705529
  0
SEQEND
  0
POLYLINE
  8
campo_jogos
  6
BYLAYER
 66
1
 70
1
 40
0.000000
 41
0.000000
  0
VERTEX
  8
campo_jogos
 10
-9.441579
 20
38.703202
  0
VERTEX
  8
campo_jogos
 10
-9.441573
 20
38.703118
  0
VERTEX
  8
campo_jogos
 10
-9.441592
 20
38.703117
  0
VERTEX
  8
campo_jogos
 10
-9.441612
 20
38.703117
  0
VERTEX
  8
campo_jogos
 10
-9.441632
 20
38.703117
  0
VERTEX
  8
campo_jogos
 10
-9.441652
 20
38.703117
  0
VERTEX
  8
campo_jogos
 10
-9.441672
 20
38.703117
  0
VERTEX
  8
campo_jogos
 10
-9.441692
 20
38.703118
  0
VERTEX
  8
campo_jogos
 10
-9.441712
 20
38.703119
  0
VERTEX
  8
campo_jogos
 10
-9.441732
 20
38.703121
  0
VERTEX
  8
campo_jogos
 10
-9.441751
 20
38.703123
  0
VERTEX
  8
campo_jogos
 10
-9.441771
 20
38.703125
  0
VERTEX
  8
campo_jogos
 10
-9.441791
 20
38.703127
  0
VERTEX
  8
campo_jogos
 10
-9.441793
 20
38.703128
  0
VERTEX
  8
campo_jogos
 10
-9.441796
 20
38.703195
  0
VERTEX
  8
campo_jogos
 10
-9.441579
 20
38.703202
  0
VERTEX
  8
campo_jogos
 10
-9.441579
 20
38.703202
  0
SEQEND
  0
POLYLINE
  8
campo_jogos
  6
BYLAYER
 66
1
 70
1
 40
0.000000
 41
0.000000
  0
VERTEX
  8
campo_jogos
 10
-9.445952
 20
38.702986
  0
VERTEX
  8
campo_jogos
 10
-9.445981
 20
38.703199
  0
VERTEX
  8
campo_jogos
 10
-9.445855
 20
38.703209
  0
VERTEX
  8
campo_jogos
 10
-9.445826
 20
38.702996
  0
VERTEX
  8
campo_jogos
 10
-9.445952
 20
38.702986
  0
VERTEX
  8
campo_jogos
 10
-9.445952
 20
38.702986
  0
SEQEND
  0
POLYLINE
  8
campo_jogos
  6
BYLAYER
 66
1
 70
1
 40
0.000000
 41
0.000000
  0
VERTEX
  8
campo_jogos
 10
-9.447329
 20
38.705777
  0
VERTEX
  8
campo_jogos
 10
-9.447135
 20
38.705490
  0
VERTEX
  8
campo_jogos
 10
-9.447328
 20
38.705409
  0
VERTEX
  8
campo_jogos
 10
-9.447515
 20
38.705698
  0
VERTEX
  8
campo_jogos
 10
-9.447375
 20
38.705758
  0
VERTEX
  8
campo_jogos
 10
-9.447357
 20
38.705766
  0
VERTEX
  8
campo_jogos
 10
-9.447329
 20
38.705777
  0
VERTEX
  8
campo_jogos
 10
-9.447329
 20
38.705777
  0
SEQEND
  0
POLYLINE
  8
campo_jogos
  6
BYLAYER
 66
1
 70
1
 40
0.000000
 41
0.000000
  0
VERTEX
  8
campo_jogos
 10
-9.444055
 20
38.703327
  0
VERTEX
  8
campo_jogos
 10
-9.444039
 20
38.703220
  0
VERTEX
  8
campo_jogos
 10
-9.444254
 20
38.703200
  0
VERTEX
  8
campo_jogos
 10
-9.444270
 20
38.703308
  0
VERTEX
  8
campo_jogos
 10
-9.444055
 20
38.703327
  0
VERTEX
  8
campo_jogos
 10
-9.444055
 20
38.703327
  0
SEQEND
  0
POLYLINE
  8
campo_jogos
  6
BYLAYER
 66
1
 70
1
 40
0.000000
 41
0.000000
  0
VERTEX
  8
campo_jogos
 10
-9.444094
 20
38.701845
  0
VERTEX
  8
campo_jogos
 10
-9.444086
 20
38.701767
  0
VERTEX
  8
campo_jogos
 10
-9.444059
 20
38.701605
  0
VERTEX
  8
campo_jogos
 10
-9.444042
 20
38.701500
  0
VERTEX
  8
campo_jogos
 10
-9.444309
 20
38.701475
  0
VERTEX
  8
campo_jogos
 10
-9.444316
 20
38.701515
  0
VERTEX
  8
campo_jogos
 10
-9.444329
 20
38.701602
  0
VERTEX
  8
campo_jogos
 10
-9.444344
 20
38.701710
  0
VERTEX
  8
campo_jogos
 10
-9.444367
 20
38.701853
  0
VERTEX
  8
campo_jogos
 10
-9.444076
 20
38.701876
  0
VERTEX
  8
campo_jogos
 10
-9.444089
 20
38.701854
  0
VERTEX
  8
campo_jogos
 10
-9.444094
 20
38.701845
  0
VERTEX
  8
campo_jogos
 10
-9.444094
 20
38.701845
  0
SEQEND
  0
POLYLINE
  8
campo_jogos
  6
BYLAYER
 66
1
 70
1
 40
0.000000
 41
0.000000
  0
VERTEX
  8
campo_jogos
 10
-9.455511
 20
38.699861
  0
VERTEX
  8
campo_jogos
 10
-9.455873
 20
38.699757
  0
VERTEX
  8
campo_jogos
 10
-9.455939
 20
38.699900
  0
VERTEX
  8
campo_jogos
 10
-9.455577
 20
38.700004
  0
VERTEX
  8
campo_jogos
 10
-9.455511
 20
38.699861
  0
VERTEX
  8
campo_jogos
 10
-9.455511
 20
38.699861
  0
SEQEND
  0
POLYLINE
  8
campo_jogos
  6
BYLAYER
 66
1
 70
1
 40
0.000000
 41
0.000000
  0
VERTEX
  8
campo_jogos
 10
-9.450534
 20
38.699746
  0
VERTEX
  8
campo_jogos
 10
-9.450261
 20
38.699493
  0
VERTEX
  8
campo_jogos
 10
-9.450415
 20
38.699391
  0
VERTEX
  8
campo_jogos
 10
-9.450688
 20
38.699645
  0
VERTEX
  8
campo_jogos
 10
-9.450534
 20
38.699746
  0
VERTEX
  8
campo_jogos
 10
-9.450534
 20
38.699746
  0
SEQEND
  0
POLYLINE
  8
campo_jogos
  6
BYLAYER
 66
1
 70
1
 40
0.000000
 41
0.000000
  0
VERTEX
  8
campo_jogos
 10
-9.453990
 20
38.699299
  0
VERTEX
  8
campo_jogos
 10
-9.454035
 20
38.699326
  0
VERTEX
  8
campo_jogos
 10
-9.454044
 20
38.699333
  0
VERTEX
  8
campo_jogos
 10
-9.454052
 20
38.699340
  0
VERTEX
  8
campo_jogos
 10
-9.454062
 20
38.699349
  0
VERTEX
  8
campo_jogos
 10
-9.454070
 20
38.699357
  0
VERTEX
  8
campo_jogos
 10
-9.454080
 20
38.699365
  0
VERTEX
  8
campo_jogos
 10
-9.454088
 20
38.699372
  0
VERTEX
  8
campo_jogos
 10
-9.454097
 20
38.699380
  0
VERTEX
  8
campo_jogos
 10
-9.454106
 20
38.699388
  0
VERTEX
  8
campo_jogos
 10
-9.454116
 20
38.699396
  0
VERTEX
  8
campo_jogos
 10
-9.454125
 20
38.699405
  0
VERTEX
  8
campo_jogos
 10
-9.454133
 20
38.699412
  0
VERTEX
  8
campo_jogos
 10
-9.454142
 20
38.699422
  0
VERTEX
  8
campo_jogos
 10
-9.454150
 20
38.699430
  0
VERTEX
  8
campo_jogos
 10
-9.454156
 20
38.699438
  0
VERTEX
  8
campo_jogos
 10
-9.454161
 20
38.699449
  0
VERTEX
  8
campo_jogos
 10
-9.454164
 20
38.699458
  0
VERTEX
  8
campo_jogos
 10
-9.454165
 20
38.699469
  0
VERTEX
  8
campo_jogos
 10
-9.454163
 20
38.699480
  0
VERTEX
  8
campo_jogos
 10
-9.454159
 20
38.699491
  0
VERTEX
  8
campo_jogos
 10
-9.454153
 20
38.699500
  0
VERTEX
  8
campo_jogos
 10
-9.454145
 20
38.699507
  0
VERTEX
  8
campo_jogos
 10
-9.454134
 20
38.699514
  0
VERTEX
  8
campo_jogos
 10
-9.454124
 20
38.699519
  0
VERTEX
  8
campo_jogos
 10
-9.454112
 20
38.699525
  0
VERTEX
  8
campo_jogos
 10
-9.454102
 20
38.699530
  0
VERTEX
  8
campo_jogos
 10
-9.454091
 20
38.699533
  0
VERTEX
  8
campo_jogos
 10
-9.454079
 20
38.699535
  0
VERTEX
  8
campo_jogos
 10
-9.454065
 20
38.699533
  0
VERTEX
  8
campo_jogos
 10
-9.454053
 20
38.699529
  0
VERTEX
  8
campo_jogos
 10
-9.454043
 20
38.699524
  0
VERTEX
  8
campo_jogos
 10
-9.454033
 20
38.699516
  0
VERTEX
  8
campo_jogos
 10
-9.454025
 20
38.699506
  0
VERTEX
  8
campo_jogos
 10
-9.454017
 20
38.699496
  0
VERTEX
  8
campo_jogos
 10
-9.454012
 20
38.699486
  0
VERTEX
  8
campo_jogos
 10
-9.454007
 20
38.699475
  0
VERTEX
  8
campo_jogos
 10
-9.454003
 20
38.699466
  0
VERTEX
  8
campo_jogos
 10
-9.453999
 20
38.699455
  0
VERTEX
  8
campo_jogos
 10
-9.453997
 20
38.699446
  0
VERTEX
  8
campo_jogos
 10
-9.453995
 20
38.699435
  0
VERTEX
  8
campo_jogos
 10
-9.453992
 20
38.699425
  0
VERTEX
  8
campo_jogos
 10
-9.453989
 20
38.699416
  0
VERTEX
  8
campo_jogos
 10
-9.453986
 20
38.699407
  0
VERTEX
  8
campo_jogos
 10
-9.453983
 20
38.699396
  0
VERTEX
  8
campo_jogos
 10
-9.453980
 20
38.699383
  0
VERTEX
  8
campo_jogos
 10
-9.453976
 20
38.699373
  0
VERTEX
  8
campo_jogos
 10
-9.453973
 20
38.699364
  0
VERTEX
  8
campo_jogos
 10
-9.453969
 20
38.699355
  0
VERTEX
  8
campo_jogos
 10
-9.453965
 20
38.699346
  0
VERTEX
  8
campo_jogos
 10
-9.453962
 20
38.699336
  0
VERTEX
  8
campo_jogos
 10
-9.453959
 20
38.699327
  0
VERTEX
  8
campo_jogos
 10
-9.453958
 20
38.699317
  0
VERTEX
  8
campo_jogos
 10
-9.453958
 20
38.699307
  0
VERTEX
  8
campo_jogos
 10
-9.453961
 20
38.699297
  0
VERTEX
  8
campo_jogos
 10
-9.453966
 20
38.699294
  0
VERTEX
  8
campo_jogos
 10
-9.453972
 20
38.699295
  0
VERTEX
  8
campo_jogos
 10
-9.453990
 20
38.699299
  0
VERTEX
  8
campo_jogos
 10
-9.453990
 20
38.699299
  0
SEQEND
  0
POLYLINE
  8
campo_jogos
  6
BYLAYER
 66
1
 70
1
 40
0.000000
 41
0.000000
  0
VERTEX
  8
campo_jogos
 10
-9.446881
 20
38.700079
  0
VERTEX
  8
campo_jogos
 10
-9.447004
 20
38.699780
  0
VERTEX
  8
campo_jogos
 10
-9.447204
 20
38.699830
  0
VERTEX
  8
campo_jogos
 10
-9.447081
 20
38.700130
  0
VERTEX
  8
campo_jogos
 10
-9.446881
 20
38.700079
  0
VERTEX
  8
campo_jogos
 10
-9.446881
 20
38.700079
  0
SEQEND
  0
POLYLINE
  8
campo_jogos
  6
BYLAYER
 66
1
 70
1
 40
0.000000
 41
0.000000
  0
VERTEX
  8
campo_jogos
 10
-9.447433
 20
38.699603
  0
VERTEX
  8
campo_jogos
 10
-9.447281
 20
38.699494
  0
VERTEX
  8
campo_jogos
 10
-9.447563
 20
38.699247
  0
VERTEX
  8
campo_jogos
 10
-9.447719
 20
38.699360
  0
VERTEX
  8
campo_jogos
 10
-9.447433
 20
38.699603
  0
VERTEX
  8
campo_jogos
 10
-9.447433
 20
38.699603
  0
SEQEND
  0
POLYLINE
  8
campo_jogos
  6
BYLAYER
 66
1
 70
1
 40
0.000000
 41
0.000000
  0
VERTEX
  8
campo_jogos
 10
-9.440871
 20
38.701641
  0
VERTEX
  8
campo_jogos
 10
-9.440714
 20
38.700754
  0
VERTEX
  8
campo_jogos
 10
-9.441396
 20
38.700680
  0
VERTEX
  8
campo_jogos
 10
-9.441562
 20
38.701615
  0
VERTEX
  8
campo_jogos
 10
-9.441380
 20
38.701635
  0
VERTEX
  8
campo_jogos
 10
-9.440880
 20
38.701689
  0
VERTEX
  8
campo_jogos
 10
-9.440871
 20
38.701641
  0
VERTEX
  8
campo_jogos
 10
-9.440871
 20
38.701641
  0
SEQEND
  0
POLYLINE
  8
campo_jogos
  6
BYLAYER
 66
1
 70
1
 40
0.000000
 41
0.000000
  0
VERTEX
  8
campo_jogos
 10
-9.439386
 20
38.701514
  0
VERTEX
  8
campo_jogos
 10
-9.439369
 20
38.701433
  0
VERTEX
  8
campo_jogos
 10
-9.439503
 20
38.701418
  0
VERTEX
  8
campo_jogos
 10
-9.439505
 20
38.701425
  0
VERTEX
  8
campo_jogos
 10
-9.439645
 20
38.701413
  0
VERTEX
  8
campo_jogos
 10
-9.439656
 20
38.701482
  0
VERTEX
  8
campo_jogos
 10
-9.439386
 20
38.701514
  0
VERTEX
  8
campo_jogos
 10
-9.439386
 20
38.701514
  0
SEQEND
  0
POLYLINE
  8
campo_jogos
  6
BYLAYER
 66
1
 70
1
 40
0.000000
 41
0.000000
  0
VERTEX
  8
campo_jogos
 10
-9.443461
 20
38.699153
  0
VERTEX
  8
campo_jogos
 10
-9.443380
 20
38.699120
  0
VERTEX
  8
campo_jogos
 10
-9.443384
 20
38.699034
  0
VERTEX
  8
campo_jogos
 10
-9.443456
 20
38.699033
  0
VERTEX
  8
campo_jogos
 10
-9.443458
 20
38.699033
  0
VERTEX
  8
campo_jogos
 10
-9.443524
 20
38.699051
  0
VERTEX
  8
campo_jogos
 10
-9.443564
 20
38.699063
  0
VERTEX
  8
campo_jogos
 10
-9.443609
 20
38.699096
  0
VERTEX
  8
campo_jogos
 10
-9.443642
 20
38.699131
  0
VERTEX
  8
campo_jogos
 10
-9.443659
 20
38.699166
  0
VERTEX
  8
campo_jogos
 10
-9.443663
 20
38.699198
  0
VERTEX
  8
campo_jogos
 10
-9.443664
 20
38.699224
  0
VERTEX
  8
campo_jogos
 10
-9.443659
 20
38.699231
  0
VERTEX
  8
campo_jogos
 10
-9.443640
 20
38.699231
  0
VERTEX
  8
campo_jogos
 10
-9.443620
 20
38.699242
  0
VERTEX
  8
campo_jogos
 10
-9.443597
 20
38.699250
  0
VERTEX
  8
campo_jogos
 10
-9.443573
 20
38.699253
  0
VERTEX
  8
campo_jogos
 10
-9.443549
 20
38.699252
  0
VERTEX
  8
campo_jogos
 10
-9.443525
 20
38.699247
  0
VERTEX
  8
campo_jogos
 10
-9.443504
 20
38.699237
  0
VERTEX
  8
campo_jogos
 10
-9.443486
 20
38.699224
  0
VERTEX
  8
campo_jogos
 10
-9.443472
 20
38.699209
  0
VERTEX
  8
campo_jogos
 10
-9.443463
 20
38.699191
  0
VERTEX
  8
campo_jogos
 10
-9.443459
 20
38.699172
  0
VERTEX
  8
campo_jogos
 10
-9.443461
 20
38.699153
  0
VERTEX
  8
campo_jogos
 10
-9.443461
 20
38.699153
  0
SEQEND
  0
POLYLINE
  8
campo_jogos
  6
BYLAYER
 66
1
 70
1
 40
0.000000
 41
0.000000
  0
VERTEX
  8
campo_jogos
 10
-9.439742
 20
38.703399
  0
VERTEX
  8
campo_jogos
 10
-9.439482
 20
38.703428
  0
VERTEX
  8
campo_jogos
 10
-9.439420
 20
38.703068
  0
VERTEX
  8
campo_jogos
 10
-9.439679
 20
38.703045
  0
VERTEX
  8
campo_jogos
 10
-9.439742
 20
38.703399
  0
VERTEX
  8
campo_jogos
 10
-9.439742
 20
38.703399
  0
SEQEND
  0
POLYLINE
  8
campo_jogos
  6
BYLAYER
 66
1
 70
1
 40
0.000000
 41
0.000000
  0
VERTEX
  8
campo_jogos
 10
-9.443410
 20
38.699372
  0
VERTEX
  8
campo_jogos
 10
-9.443413
 20
38.699369
  0
VERTEX
  8
campo_jogos
 10
-9.443481
 20
38.699349
  0
VERTEX
  8
campo_jogos
 10
-9.443493
 20
38.699351
  0
VERTEX
  8
campo_jogos
 10
-9.443503
 20
38.699356
  0
VERTEX
  8
campo_jogos
 10
-9.443508
 20
38.699364
  0
VERTEX
  8
campo_jogos
 10
-9.443508
 20
38.699372
  0
VERTEX
  8
campo_jogos
 10
-9.443502
 20
38.699382
  0
VERTEX
  8
campo_jogos
 10
-9.443491
 20
38.699389
  0
VERTEX
  8
campo_jogos
 10
-9.443429
 20
38.699404
  0
VERTEX
  8
campo_jogos
 10
-9.443424
 20
38.699403
  0
VERTEX
  8
campo_jogos
 10
-9.443419
 20
38.699401
  0
VERTEX
  8
campo_jogos
 10
-9.443415
 20
38.699398
  0
VERTEX
  8
campo_jogos
 10
-9.443411
 20
38.699395
  0
VERTEX
  8
campo_jogos
 10
-9.443409
 20
38.699392
  0
VERTEX
  8
campo_jogos
 10
-9.443407
 20
38.699388
  0
VERTEX
  8
campo_jogos
 10
-9.443406
 20
38.699384
  0
VERTEX
  8
campo_jogos
 10
-9.443406
 20
38.699380
  0
VERTEX
  8
campo_jogos
 10
-9.443408
 20
38.699376
  0
VERTEX
  8
campo_jogos
 10
-9.443410
 20
38.699372
  0
VERTEX
  8
campo_jogos
 10
-9.443410
 20
38.699372
  0
SEQEND
  0
POLYLINE
  8
campo_jogos
  6
BYLAYER
 66
1
 70
1
 40
0.000000
 41
0.000000
  0
VERTEX
  8
campo_jogos
 10
-9.440434
 20
38.700735
  0
VERTEX
  8
campo_jogos
 10
-9.440434
 20
38.700735
  0
VERTEX
  8
campo_jogos
 10
-9.440431
 20
38.700719
  0
VERTEX
  8
campo_jogos
 10
-9.440424
 20
38.700719
  0
VERTEX
  8
campo_jogos
 10
-9.440369
 20
38.700416
  0
VERTEX
  8
campo_jogos
 10
-9.440356
 20
38.700334
  0
VERTEX
  8
campo_jogos
 10
-9.440347
 20
38.700335
  0
VERTEX
  8
campo_jogos
 10
-9.440308
 20
38.700120
  0
VERTEX
  8
campo_jogos
 10
-9.440315
 20
38.700119
  0
VERTEX
  8
campo_jogos
 10
-9.440299
 20
38.700036
  0
VERTEX
  8
campo_jogos
 10
-9.440293
 20
38.700036
  0
VERTEX
  8
campo_jogos
 10
-9.440269
 20
38.699917
  0
VERTEX
  8
campo_jogos
 10
-9.440258
 20
38.699918
  0
VERTEX
  8
campo_jogos
 10
-9.440226
 20
38.699740
  0
VERTEX
  8
campo_jogos
 10
-9.440226
 20
38.699732
  0
VERTEX
  8
campo_jogos
 10
-9.440228
 20
38.699725
  0
VERTEX
  8
campo_jogos
 10
-9.440230
 20
38.699718
  0
VERTEX
  8
campo_jogos
 10
-9.440235
 20
38.699711
  0
VERTEX
  8
campo_jogos
 10
-9.440241
 20
38.699705
  0
VERTEX
  8
campo_jogos
 10
-9.440244
 20
38.699702
  0
VERTEX
  8
campo_jogos
 10
-9.441041
 20
38.699614
  0
VERTEX
  8
campo_jogos
 10
-9.441056
 20
38.699702
  0
VERTEX
  8
campo_jogos
 10
-9.441065
 20
38.699701
  0
VERTEX
  8
campo_jogos
 10
-9.441216
 20
38.700569
  0
VERTEX
  8
campo_jogos
 10
-9.441197
 20
38.700572
  0
VERTEX
  8
campo_jogos
 10
-9.441209
 20
38.700649
  0
VERTEX
  8
campo_jogos
 10
-9.440434
 20
38.700735
  0
VERTEX
  8
campo_jogos
 10
-9.440434
 20
38.700735
  0
SEQEND
  0
POLYLINE
  8
campo_jogos
  6
BYLAYER
 66
1
 70
1
 40
0.000000
 41
0.000000
  0
VERTEX
  8
campo_jogos
 10
-9.458702
 20
38.696870
  0
VERTEX
  8
campo_jogos
 10
-9.458481
 20
38.696743
  0
VERTEX
  8
campo_jogos
 10
-9.458557
 20
38.696662
  0
VERTEX
  8
campo_jogos
 10
-9.458778
 20
38.696789
  0
VERTEX
  8
campo_jogos
 10
-9.458702
 20
38.696870
  0
VERTEX
  8
campo_jogos
 10
-9.458702
 20
38.696870
  0
SEQEND
  0
POLYLINE
  8
campo_jogos
  6
BYLAYER
 66
1
 70
1
 40
0.000000
 41
0.000000
  0
VERTEX
  8
campo_jogos
 10
-9.444840
 20
38.709157
  0
VERTEX
  8
campo_jogos
 10
-9.444954
 20
38.709198
  0
VERTEX
  8
campo_jogos
 10
-9.444838
 20
38.709392
  0
VERTEX
  8
campo_jogos
 10
-9.444725
 20
38.709350
  0
VERTEX
  8
campo_jogos
 10
-9.444840
 20
38.709157
  0
VERTEX
  8
campo_jogos
 10
-9.444840
 20
38.709157
  0
SEQEND
  0
POLYLINE
  8
campo_jogos
  6
BYLAYER
 66
1
 70
1
 40
0.000000
 41
0.000000
  0
VERTEX
  8
campo_jogos
 10
-9.444848
 20
38.706543
  0
VERTEX
  8
campo_jogos
 10
-9.445040
 20
38.706703
  0
VERTEX
  8
campo_jogos
 10
-9.444930
 20
38.706784
  0
VERTEX
  8
campo_jogos
 10
-9.444738
 20
38.706624
  0
VERTEX
  8
campo_jogos
 10
-9.444848
 20
38.706543
  0
VERTEX
  8
campo_jogos
 10
-9.444848
 20
38.706543
  0
SEQEND
  0
POLYLINE
  8
campo_jogos
  6
BYLAYER
 66
1
 70
1
 40
0.000000
 41
0.000000
  0
VERTEX
  8
campo_jogos
 10
-9.445617
 20
38.708329
  0
VERTEX
  8
campo_jogos
 10
-9.445719
 20
38.708372
  0
VERTEX
  8
campo_jogos
 10
-9.445594
 20
38.708553
  0
VERTEX
  8
campo_jogos
 10
-9.445492
 20
38.708510
  0
VERTEX
  8
campo_jogos
 10
-9.445617
 20
38.708329
  0
VERTEX
  8
campo_jogos
 10
-9.445617
 20
38.708329
  0
SEQEND
  0
POLYLINE
  8
campo_jogos
  6
BYLAYER
 66
1
 70
1
 40
0.000000
 41
0.000000
  0
VERTEX
  8
campo_jogos
 10
-9.455107
 20
38.714710
  0
VERTEX
  8
campo_jogos
 10
-9.454947
 20
38.714604
  0
VERTEX
  8
campo_jogos
 10
-9.455221
 20
38.714352
  0
VERTEX
  8
campo_jogos
 10
-9.455381
 20
38.714459
  0
VERTEX
  8
campo_jogos
 10
-9.455107
 20
38.714710
  0
VERTEX
  8
campo_jogos
 10
-9.455107
 20
38.714710
  0
SEQEND
  0
POLYLINE
  8
campo_jogos
  6
BYLAYER
 66
1
 70
1
 40
0.000000
 41
0.000000
  0
VERTEX
  8
campo_jogos
 10
-9.448052
 20
38.713219
  0
VERTEX
  8
campo_jogos
 10
-9.448039
 20
38.713160
  0
VERTEX
  8
campo_jogos
 10
-9.448014
 20
38.713099
  0
VERTEX
  8
campo_jogos
 10
-9.447997
 20
38.713051
  0
VERTEX
  8
campo_jogos
 10
-9.447992
 20
38.712998
  0
VERTEX
  8
campo_jogos
 10
-9.447991
 20
38.712987
  0
VERTEX
  8
campo_jogos
 10
-9.447991
 20
38.712976
  0
VERTEX
  8
campo_jogos
 10
-9.447992
 20
38.712965
  0
VERTEX
  8
campo_jogos
 10
-9.447994
 20
38.712956
  0
VERTEX
  8
campo_jogos
 10
-9.447995
 20
38.712945
  0
VERTEX
  8
campo_jogos
 10
-9.447999
 20
38.712931
  0
VERTEX
  8
campo_jogos
 10
-9.448010
 20
38.712909
  0
VERTEX
  8
campo_jogos
 10
-9.448027
 20
38.712909
  0
VERTEX
  8
campo_jogos
 10
-9.448101
 20
38.712891
  0
VERTEX
  8
campo_jogos
 10
-9.448107
 20
38.712890
  0
VERTEX
  8
campo_jogos
 10
-9.448112
 20
38.712889
  0
VERTEX
  8
campo_jogos
 10
-9.448117
 20
38.712889
  0
VERTEX
  8
campo_jogos
 10
-9.448123
 20
38.712889
  0
VERTEX
  8
campo_jogos
 10
-9.448128
 20
38.712890
  0
VERTEX
  8
campo_jogos
 10
-9.448133
 20
38.712891
  0
VERTEX
  8
campo_jogos
 10
-9.448139
 20
38.712891
  0
VERTEX
  8
campo_jogos
 10
-9.448144
 20
38.712893
  0
VERTEX
  8
campo_jogos
 10
-9.448149
 20
38.712894
  0
VERTEX
  8
campo_jogos
 10
-9.448154
 20
38.712896
  0
VERTEX
  8
campo_jogos
 10
-9.448158
 20
38.712898
  0
VERTEX
  8
campo_jogos
 10
-9.448190
 20
38.712912
  0
VERTEX
  8
campo_jogos
 10
-9.448256
 20
38.712958
  0
VERTEX
  8
campo_jogos
 10
-9.448264
 20
38.712966
  0
VERTEX
  8
campo_jogos
 10
-9.448271
 20
38.712974
  0
VERTEX
  8
campo_jogos
 10
-9.448276
 20
38.712983
  0
VERTEX
  8
campo_jogos
 10
-9.448281
 20
38.712993
  0
VERTEX
  8
campo_jogos
 10
-9.448284
 20
38.713003
  0
VERTEX
  8
campo_jogos
 10
-9.448286
 20
38.713012
  0
VERTEX
  8
campo_jogos
 10
-9.448287
 20
38.713023
  0
VERTEX
  8
campo_jogos
 10
-9.448286
 20
38.713033
  0
VERTEX
  8
campo_jogos
 10
-9.448284
 20
38.713042
  0
VERTEX
  8
campo_jogos
 10
-9.448281
 20
38.713052
  0
VERTEX
  8
campo_jogos
 10
-9.448277
 20
38.713062
  0
VERTEX
  8
campo_jogos
 10
-9.448264
 20
38.713090
  0
VERTEX
  8
campo_jogos
 10
-9.448249
 20
38.713120
  0
VERTEX
  8
campo_jogos
 10
-9.448235
 20
38.713150
  0
VERTEX
  8
campo_jogos
 10
-9.448228
 20
38.713181
  0
VERTEX
  8
campo_jogos
 10
-9.448226
 20
38.713186
  0
VERTEX
  8
campo_jogos
 10
-9.448224
 20
38.713190
  0
VERTEX
  8
campo_jogos
 10
-9.448222
 20
38.713194
  0
VERTEX
  8
campo_jogos
 10
-9.448220
 20
38.713198
  0
VERTEX
  8
campo_jogos
 10
-9.448217
 20
38.713202
  0
VERTEX
  8
campo_jogos
 10
-9.448214
 20
38.713205
  0
VERTEX
  8
campo_jogos
 10
-9.448211
 20
38.713209
  0
VERTEX
  8
campo_jogos
 10
-9.448208
 20
38.713213
  0
VERTEX
  8
campo_jogos
 10
-9.448204
 20
38.713216
  0
VERTEX
  8
campo_jogos
 10
-9.448201
 20
38.713219
  0
VERTEX
  8
campo_jogos
 10
-9.448197
 20
38.713223
  0
VERTEX
  8
campo_jogos
 10
-9.448173
 20
38.713235
  0
VERTEX
  8
campo_jogos
 10
-9.448147
 20
38.713253
  0
VERTEX
  8
campo_jogos
 10
-9.448114
 20
38.713279
  0
VERTEX
  8
campo_jogos
 10
-9.448088
 20
38.713302
  0
VERTEX
  8
campo_jogos
 10
-9.448063
 20
38.713318
  0
VERTEX
  8
campo_jogos
 10
-9.448053
 20
38.713322
  0
VERTEX
  8
campo_jogos
 10
-9.448053
 20
38.713300
  0
VERTEX
  8
campo_jogos
 10
-9.448053
 20
38.713291
  0
VERTEX
  8
campo_jogos
 10
-9.448052
 20
38.713219
  0
VERTEX
  8
campo_jogos
 10
-9.448052
 20
38.713219
  0
SEQEND
  0
POLYLINE
  8
campo_jogos
  6
BYLAYER
 66
1
 70
1
 40
0.000000
 41
0.000000
  0
VERTEX
  8
campo_jogos
 10
-9.444542
 20
38.714139
  0
VERTEX
  8
campo_jogos
 10
-9.444542
 20
38.713845
  0
VERTEX
  8
campo_jogos
 10
-9.444722
 20
38.713802
  0
VERTEX
  8
campo_jogos
 10
-9.444726
 20
38.713927
  0
VERTEX
  8
campo_jogos
 10
-9.444726
 20
38.714010
  0
VERTEX
  8
campo_jogos
 10
-9.444728
 20
38.714139
  0
VERTEX
  8
campo_jogos
 10
-9.444542
 20
38.714139
  0
VERTEX
  8
campo_jogos
 10
-9.444542
 20
38.714139
  0
SEQEND
  0
POLYLINE
  8
campo_jogos
  6
BYLAYER
 66
1
 70
1
 40
0.000000
 41
0.000000
  0
VERTEX
  8
campo_jogos
 10
-9.456296
 20
38.709220
  0
VERTEX
  8
campo_jogos
 10
-9.456195
 20
38.709018
  0
VERTEX
  8
campo_jogos
 10
-9.456315
 20
38.708981
  0
VERTEX
  8
campo_jogos
 10
-9.456416
 20
38.709183
  0
VERTEX
  8
campo_jogos
 10
-9.456296
 20
38.709220
  0
VERTEX
  8
campo_jogos
 10
-9.456296
 20
38.709220
  0
SEQEND
  0
POLYLINE
  8
campo_jogos
  6
BYLAYER
 66
1
 70
1
 40
0.000000
 41
0.000000
  0
VERTEX
  8
campo_jogos
 10
-9.456096
 20
38.709277
  0
VERTEX
  8
campo_jogos
 10
-9.455997
 20
38.709082
  0
VERTEX
  8
campo_jogos
 10
-9.456115
 20
38.709045
  0
VERTEX
  8
campo_jogos
 10
-9.456214
 20
38.709241
  0
VERTEX
  8
campo_jogos
 10
-9.456096
 20
38.709277
  0
VERTEX
  8
campo_jogos
 10
-9.456096
 20
38.709277
  0
SEQEND
  0
POLYLINE
  8
campo_jogos
  6
BYLAYER
 66
1
 70
1
 40
0.000000
 41
0.000000
  0
VERTEX
  8
campo_jogos
 10
-9.455602
 20
38.709425
  0
VERTEX
  8
campo_jogos
 10
-9.455508
 20
38.709223
  0
VERTEX
  8
campo_jogos
 10
-9.455625
 20
38.709190
  0
VERTEX
  8
campo_jogos
 10
-9.455720
 20
38.709392
  0
VERTEX
  8
campo_jogos
 10
-9.455602
 20
38.709425
  0
VERTEX
  8
campo_jogos
 10
-9.455602
 20
38.709425
  0
SEQEND
  0
POLYLINE
  8
campo_jogos
  6
BYLAYER
 66
1
 70
1
 40
0.000000
 41
0.000000
  0
VERTEX
  8
campo_jogos
 10
-9.455934
 20
38.708837
  0
VERTEX
  8
campo_jogos
 10
-9.455839
 20
38.708637
  0
VERTEX
  8
campo_jogos
 10
-9.455959
 20
38.708602
  0
VERTEX
  8
campo_jogos
 10
-9.456054
 20
38.708802
  0
VERTEX
  8
campo_jogos
 10
-9.455934
 20
38.708837
  0
VERTEX
  8
campo_jogos
 10
-9.455934
 20
38.708837
  0
SEQEND
  0
POLYLINE
  8
campo_jogos
  6
BYLAYER
 66
1
 70
1
 40
0.000000
 41
0.000000
  0
VERTEX
  8
campo_jogos
 10
-9.455736
 20
38.708896
  0
VERTEX
  8
campo_jogos
 10
-9.455641
 20
38.708694
  0
VERTEX
  8
campo_jogos
 10
-9.455760
 20
38.708660
  0
VERTEX
  8
campo_jogos
 10
-9.455855
 20
38.708861
  0
VERTEX
  8
campo_jogos
 10
-9.455736
 20
38.708896
  0
VERTEX
  8
campo_jogos
 10
-9.455736
 20
38.708896
  0
SEQEND
  0
POLYLINE
  8
campo_jogos
  6
BYLAYER
 66
1
 70
1
 40
0.000000
 41
0.000000
  0
VERTEX
  8
campo_jogos
 10
-9.455545
 20
38.708953
  0
VERTEX
  8
campo_jogos
 10
-9.455446
 20
38.708755
  0
VERTEX
  8
campo_jogos
 10
-9.455564
 20
38.708719
  0
VERTEX
  8
campo_jogos
 10
-9.455663
 20
38.708917
  0
VERTEX
  8
campo_jogos
 10
-9.455545
 20
38.708953
  0
VERTEX
  8
campo_jogos
 10
-9.455545
 20
38.708953
  0
SEQEND
  0
POLYLINE
  8
campo_jogos
  6
BYLAYER
 66
1
 70
1
 40
0.000000
 41
0.000000
  0
VERTEX
  8
campo_jogos
 10
-9.455343
 20
38.709012
  0
VERTEX
  8
campo_jogos
 10
-9.455246
 20
38.708811
  0
VERTEX
  8
campo_jogos
 10
-9.455363
 20
38.708777
  0
VERTEX
  8
campo_jogos
 10
-9.455460
 20
38.708977
  0
VERTEX
  8
campo_jogos
 10
-9.455343
 20
38.709012
  0
VERTEX
  8
campo_jogos
 10
-9.455343
 20
38.709012
  0
SEQEND
  0
POLYLINE
  8
campo_jogos
  6
BYLAYER
 66
1
 70
1
 40
0.000000
 41
0.000000
  0
VERTEX
  8
campo_jogos
 10
-9.451344
 20
38.707188
  0
VERTEX
  8
campo_jogos
 10
-9.451282
 20
38.706980
  0
VERTEX
  8
campo_jogos
 10
-9.451404
 20
38.706957
  0
VERTEX
  8
campo_jogos
 10
-9.451467
 20
38.707166
  0
VERTEX
  8
campo_jogos
 10
-9.451344
 20
38.707188
  0
VERTEX
  8
campo_jogos
 10
-9.451344
 20
38.707188
  0
SEQEND
  0
POLYLINE
  8
campo_jogos
  6
BYLAYER
 66
1
 70
1
 40
0.000000
 41
0.000000
  0
VERTEX
  8
campo_jogos
 10
-9.448785
 20
38.707931
  0
VERTEX
  8
campo_jogos
 10
-9.448750
 20
38.707432
  0
VERTEX
  8
campo_jogos
 10
-9.449146
 20
38.707415
  0
VERTEX
  8
campo_jogos
 10
-9.449181
 20
38.707914
  0
VERTEX
  8
campo_jogos
 10
-9.448785
 20
38.707931
  0
VERTEX
  8
campo_jogos
 10
-9.448785
 20
38.707931
  0
SEQEND
  0
POLYLINE
  8
campo_jogos
  6
BYLAYER
 66
1
 70
1
 40
0.000000
 41
0.000000
  0
VERTEX
  8
campo_jogos
 10
-9.449517
 20
38.707358
  0
VERTEX
  8
campo_jogos
 10
-9.449559
 20
38.707151
  0
VERTEX
  8
campo_jogos
 10
-9.449723
 20
38.707118
  0
VERTEX
  8
campo_jogos
 10
-9.449887
 20
38.707080
  0
VERTEX
  8
campo_jogos
 10
-9.450062
 20
38.707061
  0
VERTEX
  8
campo_jogos
 10
-9.450073
 20
38.707107
  0
VERTEX
  8
campo_jogos
 10
-9.450075
 20
38.707121
  0
VERTEX
  8
campo_jogos
 10
-9.450091
 20
38.707125
  0
VERTEX
  8
campo_jogos
 10
-9.450107
 20
38.707126
  0
VERTEX
  8
campo_jogos
 10
-9.450119
 20
38.707126
  0
VERTEX
  8
campo_jogos
 10
-9.450131
 20
38.707125
  0
VERTEX
  8
campo_jogos
 10
-9.450142
 20
38.707124
  0
VERTEX
  8
campo_jogos
 10
-9.450157
 20
38.707124
  0
VERTEX
  8
campo_jogos
 10
-9.450171
 20
38.707124
  0
VERTEX
  8
campo_jogos
 10
-9.450183
 20
38.707124
  0
VERTEX
  8
campo_jogos
 10
-9.450196
 20
38.707125
  0
VERTEX
  8
campo_jogos
 10
-9.450209
 20
38.707125
  0
VERTEX
  8
campo_jogos
 10
-9.450222
 20
38.707126
  0
VERTEX
  8
campo_jogos
 10
-9.450233
 20
38.707127
  0
VERTEX
  8
campo_jogos
 10
-9.450244
 20
38.707133
  0
VERTEX
  8
campo_jogos
 10
-9.450254
 20
38.707276
  0
VERTEX
  8
campo_jogos
 10
-9.450258
 20
38.707358
  0
VERTEX
  8
campo_jogos
 10
-9.450258
 20
38.707369
  0
VERTEX
  8
campo_jogos
 10
-9.450259
 20
38.707379
  0
VERTEX
  8
campo_jogos
 10
-9.450258
 20
38.707388
  0
VERTEX
  8
campo_jogos
 10
-9.450258
 20
38.707399
  0
VERTEX
  8
campo_jogos
 10
-9.450257
 20
38.707409
  0
VERTEX
  8
campo_jogos
 10
-9.450257
 20
38.707419
  0
VERTEX
  8
campo_jogos
 10
-9.450257
 20
38.707428
  0
VERTEX
  8
campo_jogos
 10
-9.450258
 20
38.707439
  0
VERTEX
  8
campo_jogos
 10
-9.450258
 20
38.707449
  0
VERTEX
  8
campo_jogos
 10
-9.450255
 20
38.707459
  0
VERTEX
  8
campo_jogos
 10
-9.450248
 20
38.707465
  0
VERTEX
  8
campo_jogos
 10
-9.450238
 20
38.707469
  0
VERTEX
  8
campo_jogos
 10
-9.450226
 20
38.707471
  0
VERTEX
  8
campo_jogos
 10
-9.450211
 20
38.707472
  0
VERTEX
  8
campo_jogos
 10
-9.450197
 20
38.707473
  0
VERTEX
  8
campo_jogos
 10
-9.450181
 20
38.707473
  0
VERTEX
  8
campo_jogos
 10
-9.450168
 20
38.707473
  0
VERTEX
  8
campo_jogos
 10
-9.450156
 20
38.707473
  0
VERTEX
  8
campo_jogos
 10
-9.450140
 20
38.707473
  0
VERTEX
  8
campo_jogos
 10
-9.450126
 20
38.707473
  0
VERTEX
  8
campo_jogos
 10
-9.450114
 20
38.707474
  0
VERTEX
  8
campo_jogos
 10
-9.450100
 20
38.707474
  0
VERTEX
  8
campo_jogos
 10
-9.450088
 20
38.707474
  0
VERTEX
  8
campo_jogos
 10
-9.450070
 20
38.707474
  0
VERTEX
  8
campo_jogos
 10
-9.450058
 20
38.707474
  0
VERTEX
  8
campo_jogos
 10
-9.450043
 20
38.707474
  0
VERTEX
  8
campo_jogos
 10
-9.450028
 20
38.707474
  0
VERTEX
  8
campo_jogos
 10
-9.450013
 20
38.707475
  0
VERTEX
  8
campo_jogos
 10
-9.450000
 20
38.707475
  0
VERTEX
  8
campo_jogos
 10
-9.449988
 20
38.707475
  0
VERTEX
  8
campo_jogos
 10
-9.449974
 20
38.707475
  0
VERTEX
  8
campo_jogos
 10
-9.449962
 20
38.707476
  0
VERTEX
  8
campo_jogos
 10
-9.449951
 20
38.707476
  0
VERTEX
  8
campo_jogos
 10
-9.449939
 20
38.707476
  0
VERTEX
  8
campo_jogos
 10
-9.449925
 20
38.707476
  0
VERTEX
  8
campo_jogos
 10
-9.449907
 20
38.707475
  0
VERTEX
  8
campo_jogos
 10
-9.449890
 20
38.707475
  0
VERTEX
  8
campo_jogos
 10
-9.449874
 20
38.707475
  0
VERTEX
  8
campo_jogos
 10
-9.449858
 20
38.707475
  0
VERTEX
  8
campo_jogos
 10
-9.449843
 20
38.707475
  0
VERTEX
  8
campo_jogos
 10
-9.449830
 20
38.707474
  0
VERTEX
  8
campo_jogos
 10
-9.449817
 20
38.707474
  0
VERTEX
  8
campo_jogos
 10
-9.449803
 20
38.707474
  0
VERTEX
  8
campo_jogos
 10
-9.449767
 20
38.707474
  0
VERTEX
  8
campo_jogos
 10
-9.449690
 20
38.707481
  0
VERTEX
  8
campo_jogos
 10
-9.449635
 20
38.707478
  0
VERTEX
  8
campo_jogos
 10
-9.449515
 20
38.707469
  0
VERTEX
  8
campo_jogos
 10
-9.449541
 20
38.707366
  0
VERTEX
  8
campo_jogos
 10
-9.449517
 20
38.707358
  0
VERTEX
  8
campo_jogos
 10
-9.449517
 20
38.707358
  0
SEQEND
  0
POLYLINE
  8
campo_jogos
  6
BYLAYER
 66
1
 70
1
 40
0.000000
 41
0.000000
  0
VERTEX
  8
campo_jogos
 10
-9.455340
 20
38.709841
  0
VERTEX
  8
campo_jogos
 10
-9.455263
 20
38.709681
  0
VERTEX
  8
campo_jogos
 10
-9.455378
 20
38.709648
  0
VERTEX
  8
campo_jogos
 10
-9.455461
 20
38.709819
  0
VERTEX
  8
campo_jogos
 10
-9.455345
 20
38.709853
  0
VERTEX
  8
campo_jogos
 10
-9.455340
 20
38.709841
  0
VERTEX
  8
campo_jogos
 10
-9.455340
 20
38.709841
  0
SEQEND
  0
POLYLINE
  8
campo_jogos
  6
BYLAYER
 66
1
 70
1
 40
0.000000
 41
0.000000
  0
VERTEX
  8
campo_jogos
 10
-9.455461
 20
38.709819
  0
VERTEX
  8
campo_jogos
 10
-9.455378
 20
38.709648
  0
VERTEX
  8
campo_jogos
 10
-9.455487
 20
38.709616
  0
VERTEX
  8
campo_jogos
 10
-9.455570
 20
38.709787
  0
VERTEX
  8
campo_jogos
 10
-9.455461
 20
38.709819
  0
VERTEX
  8
campo_jogos
 10
-9.455461
 20
38.709819
  0
SEQEND
  0
POLYLINE
  8
campo_jogos
  6
BYLAYER
 66
1
 70
1
 40
0.000000
 41
0.000000
  0
VERTEX
  8
campo_jogos
 10
-9.455594
 20
38.709780
  0
VERTEX
  8
campo_jogos
 10
-9.455510
 20
38.709609
  0
VERTEX
  8
campo_jogos
 10
-9.455622
 20
38.709576
  0
VERTEX
  8
campo_jogos
 10
-9.455704
 20
38.709747
  0
VERTEX
  8
campo_jogos
 10
-9.455668
 20
38.709758
  0
VERTEX
  8
campo_jogos
 10
-9.455661
 20
38.709760
  0
VERTEX
  8
campo_jogos
 10
-9.455594
 20
38.709780
  0
VERTEX
  8
campo_jogos
 10
-9.455594
 20
38.709780
  0
SEQEND
  0
POLYLINE
  8
campo_jogos
  6
BYLAYER
 66
1
 70
1
 40
0.000000
 41
0.000000
  0
VERTEX
  8
campo_jogos
 10
-9.451829
 20
38.707511
  0
VERTEX
  8
campo_jogos
 10
-9.451722
 20
38.707186
  0
VERTEX
  8
campo_jogos
 10
-9.451933
 20
38.707144
  0
VERTEX
  8
campo_jogos
 10
-9.452035
 20
38.707471
  0
VERTEX
  8
campo_jogos
 10
-9.451829
 20
38.707511
  0
VERTEX
  8
campo_jogos
 10
-9.451829
 20
38.707511
  0
SEQEND
  0
POLYLINE
  8
campo_jogos
  6
BYLAYER
 66
1
 70
1
 40
0.000000
 41
0.000000
  0
VERTEX
  8
campo_jogos
 10
-9.452035
 20
38.707471
  0
VERTEX
  8
campo_jogos
 10
-9.451933
 20
38.707144
  0
VERTEX
  8
campo_jogos
 10
-9.452140
 20
38.707103
  0
VERTEX
  8
campo_jogos
 10
-9.452243
 20
38.707431
  0
VERTEX
  8
campo_jogos
 10
-9.452035
 20
38.707471
  0
VERTEX
  8
campo_jogos
 10
-9.452035
 20
38.707471
  0
SEQEND
  0
POLYLINE
  8
campo_jogos
  6
BYLAYER
 66
1
 70
1
 40
0.000000
 41
0.000000
  0
VERTEX
  8
campo_jogos
 10
-9.451706
 20
38.707141
  0
VERTEX
  8
campo_jogos
 10
-9.451612
 20
38.706817
  0
VERTEX
  8
campo_jogos
 10
-9.451818
 20
38.706775
  0
VERTEX
  8
campo_jogos
 10
-9.451921
 20
38.707101
  0
VERTEX
  8
campo_jogos
 10
-9.451706
 20
38.707141
  0
VERTEX
  8
campo_jogos
 10
-9.451706
 20
38.707141
  0
SEQEND
  0
POLYLINE
  8
campo_jogos
  6
BYLAYER
 66
1
 70
1
 40
0.000000
 41
0.000000
  0
VERTEX
  8
campo_jogos
 10
-9.451921
 20
38.707101
  0
VERTEX
  8
campo_jogos
 10
-9.451818
 20
38.706775
  0
VERTEX
  8
campo_jogos
 10
-9.452023
 20
38.706734
  0
VERTEX
  8
campo_jogos
 10
-9.452031
 20
38.706757
  0
VERTEX
  8
campo_jogos
 10
-9.452127
 20
38.707063
  0
VERTEX
  8
campo_jogos
 10
-9.451921
 20
38.707101
  0
VERTEX
  8
campo_jogos
 10
-9.451921
 20
38.707101
  0
SEQEND
  0
POLYLINE
  8
campo_jogos
  6
BYLAYER
 66
1
 70
1
 40
0.000000
 41
0.000000
  0
VERTEX
  8
campo_jogos
 10
-9.451991
 20
38.707976
  0
VERTEX
  8
campo_jogos
 10
-9.451884
 20
38.707645
  0
VERTEX
  8
campo_jogos
 10
-9.452085
 20
38.707605
  0
VERTEX
  8
campo_jogos
 10
-9.452185
 20
38.707937
  0
VERTEX
  8
campo_jogos
 10
-9.451991
 20
38.707976
  0
VERTEX
  8
campo_jogos
 10
-9.451991
 20
38.707976
  0
SEQEND
  0
POLYLINE
  8
campo_jogos
  6
BYLAYER
 66
1
 70
1
 40
0.000000
 41
0.000000
  0
VERTEX
  8
campo_jogos
 10
-9.452185
 20
38.707937
  0
VERTEX
  8
campo_jogos
 10
-9.452085
 20
38.707605
  0
VERTEX
  8
campo_jogos
 10
-9.452285
 20
38.707564
  0
VERTEX
  8
campo_jogos
 10
-9.452389
 20
38.707895
  0
VERTEX
  8
campo_jogos
 10
-9.452389
 20
38.707896
  0
VERTEX
  8
campo_jogos
 10
-9.452313
 20
38.707911
  0
VERTEX
  8
campo_jogos
 10
-9.452279
 20
38.707918
  0
VERTEX
  8
campo_jogos
 10
-9.452186
 20
38.707937
  0
VERTEX
  8
campo_jogos
 10
-9.452185
 20
38.707937
  0
VERTEX
  8
campo_jogos
 10
-9.452185
 20
38.707937
  0
SEQEND
  0
POLYLINE
  8
campo_jogos
  6
BYLAYER
 66
1
 70
1
 40
0.000000
 41
0.000000
  0
VERTEX
  8
campo_jogos
 10
-9.452463
 20
38.708340
  0
VERTEX
  8
campo_jogos
 10
-9.452295
 20
38.708511
  0
VERTEX
  8
campo_jogos
 10
-9.452193
 20
38.708450
  0
VERTEX
  8
campo_jogos
 10
-9.452361
 20
38.708280
  0
VERTEX
  8
campo_jogos
 10
-9.452463
 20
38.708340
  0
VERTEX
  8
campo_jogos
 10
-9.452463
 20
38.708340
  0
SEQEND
  0
POLYLINE
  8
campo_jogos
  6
BYLAYER
 66
1
 70
1
 40
0.000000
 41
0.000000
  0
VERTEX
  8
campo_jogos
 10
-9.444861
 20
38.709877
  0
VERTEX
  8
campo_jogos
 10
-9.444802
 20
38.709780
  0
VERTEX
  8
campo_jogos
 10
-9.445017
 20
38.709700
  0
VERTEX
  8
campo_jogos
 10
-9.445076
 20
38.709797
  0
VERTEX
  8
campo_jogos
 10
-9.444861
 20
38.709877
  0
SEQEND
  0
POLYLINE
  8
campo_jogos
  6
BYLAYER
 66
1
 70
1
 40
0.000000
 41
0.000000
  0
VERTEX
  8
campo_jogos
 10
-9.449728
 20
38.695844
  0
VERTEX
  8
campo_jogos
 10
-9.450047
 20
38.695627
  0
VERTEX
  8
campo_jogos
 10
-9.450179
 20
38.695746
  0
VERTEX
  8
campo_jogos
 10
-9.449860
 20
38.695964
  0
VERTEX
  8
campo_jogos
 10
-9.449728
 20
38.695844
  0
VERTEX
  8
campo_jogos
 10
-9.449728
 20
38.695844
  0
SEQEND
  0
POLYLINE
  8
campo_jogos
  6
BYLAYER
 66
1
 70
1
 40
0.000000
 41
0.000000
  0
VERTEX
  8
campo_jogos
 10
-9.454415
 20
38.695708
  0
VERTEX
  8
campo_jogos
 10
-9.454408
 20
38.695919
  0
VERTEX
  8
campo_jogos
 10
-9.454282
 20
38.695917
  0
VERTEX
  8
campo_jogos
 10
-9.454289
 20
38.695706
  0
VERTEX
  8
campo_jogos
 10
-9.454415
 20
38.695708
  0
VERTEX
  8
campo_jogos
 10
-9.454415
 20
38.695708
  0
SEQEND
  0
POLYLINE
  8
campo_jogos
  6
BYLAYER
 66
1
 70
1
 40
0.000000
 41
0.000000
  0
VERTEX
  8
campo_jogos
 10
-9.441547
 20
38.696239
  0
VERTEX
  8
campo_jogos
 10
-9.441508
 20
38.696056
  0
VERTEX
  8
campo_jogos
 10
-9.441663
 20
38.696036
  0
VERTEX
  8
campo_jogos
 10
-9.441689
 20
38.696219
  0
VERTEX
  8
campo_jogos
 10
-9.441547
 20
38.696239
  0
VERTEX
  8
campo_jogos
 10
-9.441547
 20
38.696239
  0
SEQEND
  0
POLYLINE
  8
campo_jogos
  6
BYLAYER
 66
1
 70
1
 40
0.000000
 41
0.000000
  0
VERTEX
  8
campo_jogos
 10
-9.445292
 20
38.696133
  0
VERTEX
  8
campo_jogos
 10
-9.445299
 20
38.695983
  0
VERTEX
  8
campo_jogos
 10
-9.445674
 20
38.695993
  0
VERTEX
  8
campo_jogos
 10
-9.445667
 20
38.696143
  0
VERTEX
  8
campo_jogos
 10
-9.445292
 20
38.696133
  0
VERTEX
  8
campo_jogos
 10
-9.445292
 20
38.696133
  0
SEQEND
  0
POLYLINE
  8
campo_jogos
  6
BYLAYER
 66
1
 70
1
 40
0.000000
 41
0.000000
  0
VERTEX
  8
campo_jogos
 10
-9.440248
 20
38.696363
  0
VERTEX
  8
campo_jogos
 10
-9.440224
 20
38.696078
  0
VERTEX
  8
campo_jogos
 10
-9.440240
 20
38.696077
  0
VERTEX
  8
campo_jogos
 10
-9.440329
 20
38.696071
  0
VERTEX
  8
campo_jogos
 10
-9.440350
 20
38.696069
  0
VERTEX
  8
campo_jogos
 10
-9.440601
 20
38.696051
  0
VERTEX
  8
campo_jogos
 10
-9.440619
 20
38.696346
  0
VERTEX
  8
campo_jogos
 10
-9.440248
 20
38.696363
  0
VERTEX
  8
campo_jogos
 10
-9.440248
 20
38.696363
  0
SEQEND
  0
POLYLINE
  8
campo_jogos
  6
BYLAYER
 66
1
 70
1
 40
0.000000
 41
0.000000
  0
VERTEX
  8
campo_jogos
 10
-9.450655
 20
38.696620
  0
VERTEX
  8
campo_jogos
 10
-9.450473
 20
38.696923
  0
VERTEX
  8
campo_jogos
 10
-9.450258
 20
38.696845
  0
VERTEX
  8
campo_jogos
 10
-9.450428
 20
38.696544
  0
VERTEX
  8
campo_jogos
 10
-9.450655
 20
38.696620
  0
VERTEX
  8
campo_jogos
 10
-9.450655
 20
38.696620
  0
SEQEND
  0
POLYLINE
  8
campo_jogos
  6
BYLAYER
 66
1
 70
1
 40
0.000000
 41
0.000000
  0
VERTEX
  8
campo_jogos
 10
-9.342420
 20
38.741382
  0
VERTEX
  8
campo_jogos
 10
-9.342413
 20
38.741060
  0
VERTEX
  8
campo_jogos
 10
-9.342619
 20
38.741056
  0
VERTEX
  8
campo_jogos
 10
-9.342624
 20
38.741378
  0
VERTEX
  8
campo_jogos
 10
-9.342420
 20
38.741382
  0
VERTEX
  8
campo_jogos
 10
-9.342420
 20
38.741382
  0
SEQEND
  0
POLYLINE
  8
campo_jogos
  6
BYLAYER
 66
1
 70
1
 40
0.000000
 41
0.000000
  0
VERTEX
  8
campo_jogos
 10
-9.342168
 20
38.737768
  0
VERTEX
  8
campo_jogos
 10
-9.341929
 20
38.737428
  0
VERTEX
  8
campo_jogos
 10
-9.342158
 20
38.737326
  0
VERTEX
  8
campo_jogos
 10
-9.342398
 20
38.737673
  0
VERTEX
  8
campo_jogos
 10
-9.342168
 20
38.737768
  0
VERTEX
  8
campo_jogos
 10
-9.342168
 20
38.737768
  0
SEQEND
  0
POLYLINE
  8
campo_jogos
  6
BYLAYER
 66
1
 70
1
 40
0.000000
 41
0.000000
  0
VERTEX
  8
campo_jogos
 10
-9.340454
 20
38.738538
  0
VERTEX
  8
campo_jogos
 10
-9.340445
 20
38.738613
  0
VERTEX
  8
campo_jogos
 10
-9.340444
 20
38.738618
  0
VERTEX
  8
campo_jogos
 10
-9.340441
 20
38.738643
  0
VERTEX
  8
campo_jogos
 10
-9.340101
 20
38.738617
  0
VERTEX
  8
campo_jogos
 10
-9.340117
 20
38.738482
  0
VERTEX
  8
campo_jogos
 10
-9.340457
 20
38.738511
  0
VERTEX
  8
campo_jogos
 10
-9.340454
 20
38.738538
  0
VERTEX
  8
campo_jogos
 10
-9.340454
 20
38.738538
  0
SEQEND
  0
POLYLINE
  8
campo_jogos
  6
BYLAYER
 66
1
 70
1
 40
0.000000
 41
0.000000
  0
VERTEX
  8
campo_jogos
 10
-9.341016
 20
38.737699
  0
VERTEX
  8
campo_jogos
 10
-9.340897
 20
38.737517
  0
VERTEX
  8
campo_jogos
 10
-9.341064
 20
38.737449
  0
VERTEX
  8
campo_jogos
 10
-9.341196
 20
38.737645
  0
VERTEX
  8
campo_jogos
 10
-9.341024
 20
38.737714
  0
VERTEX
  8
campo_jogos
 10
-9.341019
 20
38.737704
  0
VERTEX
  8
campo_jogos
 10
-9.341016
 20
38.737699
  0
VERTEX
  8
campo_jogos
 10
-9.341016
 20
38.737699
  0
SEQEND
  0
POLYLINE
  8
campo_jogos
  6
BYLAYER
 66
1
 70
1
 40
0.000000
 41
0.000000
  0
VERTEX
  8
campo_jogos
 10
-9.343637
 20
38.737566
  0
VERTEX
  8
campo_jogos
 10
-9.344012
 20
38.738115
  0
VERTEX
  8
campo_jogos
 10
-9.342805
 20
38.738623
  0
VERTEX
  8
campo_jogos
 10
-9.342431
 20
38.738075
  0
VERTEX
  8
campo_jogos
 10
-9.343637
 20
38.737566
  0
VERTEX
  8
campo_jogos
 10
-9.343637
 20
38.737566
  0
SEQEND
  0
POLYLINE
  8
campo_jogos
  6
BYLAYER
 66
1
 70
1
 40
0.000000
 41
0.000000
  0
VERTEX
  8
campo_jogos
 10
-9.347085
 20
38.726012
  0
VERTEX
  8
campo_jogos
 10
-9.347115
 20
38.725744
  0
VERTEX
  8
campo_jogos
 10
-9.347284
 20
38.725756
  0
VERTEX
  8
campo_jogos
 10
-9.347253
 20
38.726024
  0
VERTEX
  8
campo_jogos
 10
-9.347085
 20
38.726012
  0
VERTEX
  8
campo_jogos
 10
-9.347085
 20
38.726012
  0
SEQEND
  0
POLYLINE
  8
campo_jogos
  6
BYLAYER
 66
1
 70
1
 40
0.000000
 41
0.000000
  0
VERTEX
  8
campo_jogos
 10
-9.341344
 20
38.727227
  0
VERTEX
  8
campo_jogos
 10
-9.341343
 20
38.727174
  0
VERTEX
  8
campo_jogos
 10
-9.341459
 20
38.727172
  0
VERTEX
  8
campo_jogos
 10
-9.341461
 20
38.727225
  0
VERTEX
  8
campo_jogos
 10
-9.341344
 20
38.727227
  0
VERTEX
  8
campo_jogos
 10
-9.341344
 20
38.727227
  0
SEQEND
  0
POLYLINE
  8
campo_jogos
  6
BYLAYER
 66
1
 70
1
 40
0.000000
 41
0.000000
  0
VERTEX
  8
campo_jogos
 10
-9.341491
 20
38.729636
  0
VERTEX
  8
campo_jogos
 10
-9.341503
 20
38.729571
  0
VERTEX
  8
campo_jogos
 10
-9.341574
 20
38.729579
  0
VERTEX
  8
campo_jogos
 10
-9.341558
 20
38.729652
  0
VERTEX
  8
campo_jogos
 10
-9.341557
 20
38.729660
  0
VERTEX
  8
campo_jogos
 10
-9.341488
 20
38.729652
  0
VERTEX
  8
campo_jogos
 10
-9.341491
 20
38.729636
  0
VERTEX
  8
campo_jogos
 10
-9.341491
 20
38.729636
  0
SEQEND
  0
POLYLINE
  8
campo_jogos
  6
BYLAYER
 66
1
 70
1
 40
0.000000
 41
0.000000
  0
VERTEX
  8
campo_jogos
 10
-9.340063
 20
38.727229
  0
VERTEX
  8
campo_jogos
 10
-9.340000
 20
38.727096
  0
VERTEX
  8
campo_jogos
 10
-9.339998
 20
38.727091
  0
VERTEX
  8
campo_jogos
 10
-9.339986
 20
38.727067
  0
VERTEX
  8
campo_jogos
 10
-9.340326
 20
38.726986
  0
VERTEX
  8
campo_jogos
 10
-9.340337
 20
38.727011
  0
VERTEX
  8
campo_jogos
 10
-9.340340
 20
38.727019
  0
VERTEX
  8
campo_jogos
 10
-9.340403
 20
38.727158
  0
VERTEX
  8
campo_jogos
 10
-9.340063
 20
38.727229
  0
VERTEX
  8
campo_jogos
 10
-9.340063
 20
38.727229
  0
SEQEND
  0
POLYLINE
  8
campo_jogos
  6
BYLAYER
 66
1
 70
1
 40
0.000000
 41
0.000000
  0
VERTEX
  8
campo_jogos
 10
-9.341521
 20
38.729718
  0
VERTEX
  8
campo_jogos
 10
-9.341529
 20
38.729691
  0
VERTEX
  8
campo_jogos
 10
-9.341532
 20
38.729681
  0
VERTEX
  8
campo_jogos
 10
-9.341554
 20
38.729685
  0
VERTEX
  8
campo_jogos
 10
-9.341601
 20
38.729695
  0
VERTEX
  8
campo_jogos
 10
-9.341588
 20
38.729733
  0
VERTEX
  8
campo_jogos
 10
-9.341582
 20
38.729749
  0
VERTEX
  8
campo_jogos
 10
-9.341548
 20
38.729742
  0
VERTEX
  8
campo_jogos
 10
-9.341551
 20
38.729733
  0
VERTEX
  8
campo_jogos
 10
-9.341554
 20
38.729724
  0
VERTEX
  8
campo_jogos
 10
-9.341521
 20
38.729718
  0
VERTEX
  8
campo_jogos
 10
-9.341521
 20
38.729718
  0
SEQEND
  0
POLYLINE
  8
campo_jogos
  6
BYLAYER
 66
1
 70
1
 40
0.000000
 41
0.000000
  0
VERTEX
  8
campo_jogos
 10
-9.329529
 20
38.726532
  0
VERTEX
  8
campo_jogos
 10
-9.328811
 20
38.726286
  0
VERTEX
  8
campo_jogos
 10
-9.329294
 20
38.725418
  0
VERTEX
  8
campo_jogos
 10
-9.330011
 20
38.725663
  0
VERTEX
  8
campo_jogos
 10
-9.329529
 20
38.726532
  0
VERTEX
  8
campo_jogos
 10
-9.329529
 20
38.726532
  0
SEQEND
  0
POLYLINE
  8
campo_jogos
  6
BYLAYER
 66
1
 70
1
 40
0.000000
 41
0.000000
  0
VERTEX
  8
campo_jogos
 10
-9.333033
 20
38.732337
  0
VERTEX
  8
campo_jogos
 10
-9.332747
 20
38.732377
  0
VERTEX
  8
campo_jogos
 10
-9.332657
 20
38.731986
  0
VERTEX
  8
campo_jogos
 10
-9.332941
 20
38.731945
  0
VERTEX
  8
campo_jogos
 10
-9.333033
 20
38.732337
  0
VERTEX
  8
campo_jogos
 10
-9.333033
 20
38.732337
  0
SEQEND
  0
POLYLINE
  8
campo_jogos
  6
BYLAYER
 66
1
 70
1
 40
0.000000
 41
0.000000
  0
VERTEX
  8
campo_jogos
 10
-9.381809
 20
38.722784
  0
VERTEX
  8
campo_jogos
 10
-9.381800
 20
38.722609
  0
VERTEX
  8
campo_jogos
 10
-9.382254
 20
38.722593
  0
VERTEX
  8
campo_jogos
 10
-9.382262
 20
38.722770
  0
VERTEX
  8
campo_jogos
 10
-9.381809
 20
38.722784
  0
VERTEX
  8
campo_jogos
 10
-9.381809
 20
38.722784
  0
SEQEND
  0
POLYLINE
  8
campo_jogos
  6
BYLAYER
 66
1
 70
1
 40
0.000000
 41
0.000000
  0
VERTEX
  8
campo_jogos
 10
-9.378650
 20
38.723714
  0
VERTEX
  8
campo_jogos
 10
-9.378693
 20
38.723665
  0
VERTEX
  8
campo_jogos
 10
-9.378683
 20
38.723659
  0
VERTEX
  8
campo_jogos
 10
-9.378719
 20
38.723615
  0
VERTEX
  8
campo_jogos
 10
-9.378759
 20
38.723638
  0
VERTEX
  8
campo_jogos
 10
-9.378987
 20
38.723757
  0
VERTEX
  8
campo_jogos
 10
-9.378885
 20
38.723823
  0
VERTEX
  8
campo_jogos
 10
-9.378650
 20
38.723714
  0
VERTEX
  8
campo_jogos
 10
-9.378650
 20
38.723714
  0
SEQEND
  0
POLYLINE
  8
campo_jogos
  6
BYLAYER
 66
1
 70
1
 40
0.000000
 41
0.000000
  0
VERTEX
  8
campo_jogos
 10
-9.382388
 20
38.720240
  0
VERTEX
  8
campo_jogos
 10
-9.382450
 20
38.720139
  0
VERTEX
  8
campo_jogos
 10
-9.382664
 20
38.720220
  0
VERTEX
  8
campo_jogos
 10
-9.382619
 20
38.720294
  0
VERTEX
  8
campo_jogos
 10
-9.382602
 20
38.720321
  0
VERTEX
  8
campo_jogos
 10
-9.382533
 20
38.720294
  0
VERTEX
  8
campo_jogos
 10
-9.382388
 20
38.720240
  0
VERTEX
  8
campo_jogos
 10
-9.382388
 20
38.720240
  0
SEQEND
  0
POLYLINE
  8
campo_jogos
  6
BYLAYER
 66
1
 70
1
 40
0.000000
 41
0.000000
  0
VERTEX
  8
campo_jogos
 10
-9.379205
 20
38.724241
  0
VERTEX
  8
campo_jogos
 10
-9.379407
 20
38.724157
  0
VERTEX
  8
campo_jogos
 10
-9.379624
 20
38.724477
  0
VERTEX
  8
campo_jogos
 10
-9.379422
 20
38.724561
  0
VERTEX
  8
campo_jogos
 10
-9.379205
 20
38.724241
  0
SEQEND
  0
POLYLINE
  8
campo_jogos
  6
BYLAYER
 66
1
 70
1
 40
0.000000
 41
0.000000
  0
VERTEX
  8
campo_jogos
 10
-9.349794
 20
38.723704
  0
VERTEX
  8
campo_jogos
 10
-9.350184
 20
38.723516
  0
VERTEX
  8
campo_jogos
 10
-9.350306
 20
38.723670
  0
VERTEX
  8
campo_jogos
 10
-9.349915
 20
38.723859
  0
VERTEX
  8
campo_jogos
 10
-9.349794
 20
38.723704
  0
VERTEX
  8
campo_jogos
 10
-9.349794
 20
38.723704
  0
SEQEND
  0
POLYLINE
  8
campo_jogos
  6
BYLAYER
 66
1
 70
1
 40
0.000000
 41
0.000000
  0
VERTEX
  8
campo_jogos
 10
-9.350462
 20
38.722021
  0
VERTEX
  8
campo_jogos
 10
-9.350189
 20
38.721721
  0
VERTEX
  8
campo_jogos
 10
-9.350340
 20
38.721640
  0
VERTEX
  8
campo_jogos
 10
-9.350357
 20
38.721659
  0
VERTEX
  8
campo_jogos
 10
-9.350365
 20
38.721667
  0
VERTEX
  8
campo_jogos
 10
-9.350469
 20
38.721781
  0
VERTEX
  8
campo_jogos
 10
-9.350483
 20
38.721797
  0
VERTEX
  8
campo_jogos
 10
-9.350613
 20
38.721940
  0
VERTEX
  8
campo_jogos
 10
-9.350462
 20
38.722021
  0
VERTEX
  8
campo_jogos
 10
-9.350462
 20
38.722021
  0
SEQEND
  0
POLYLINE
  8
campo_jogos
  6
BYLAYER
 66
1
 70
1
 40
0.000000
 41
0.000000
  0
VERTEX
  8
campo_jogos
 10
-9.351193
 20
38.722530
  0
VERTEX
  8
campo_jogos
 10
-9.350950
 20
38.722664
  0
VERTEX
  8
campo_jogos
 10
-9.350823
 20
38.722522
  0
VERTEX
  8
campo_jogos
 10
-9.351065
 20
38.722388
  0
VERTEX
  8
campo_jogos
 10
-9.351193
 20
38.722530
  0
VERTEX
  8
campo_jogos
 10
-9.351193
 20
38.722530
  0
SEQEND
  0
POLYLINE
  8
campo_jogos
  6
BYLAYER
 66
1
 70
1
 40
0.000000
 41
0.000000
  0
VERTEX
  8
campo_jogos
 10
-9.347838
 20
38.722607
  0
VERTEX
  8
campo_jogos
 10
-9.347815
 20
38.721598
  0
VERTEX
  8
campo_jogos
 10
-9.348645
 20
38.721587
  0
VERTEX
  8
campo_jogos
 10
-9.348667
 20
38.722595
  0
VERTEX
  8
campo_jogos
 10
-9.347838
 20
38.722607
  0
VERTEX
  8
campo_jogos
 10
-9.347838
 20
38.722607
  0
SEQEND
  0
POLYLINE
  8
campo_jogos
  6
BYLAYER
 66
1
 70
1
 40
0.000000
 41
0.000000
  0
VERTEX
  8
campo_jogos
 10
-9.347586
 20
38.721160
  0
VERTEX
  8
campo_jogos
 10
-9.348349
 20
38.721148
  0
VERTEX
  8
campo_jogos
 10
-9.348363
 20
38.721548
  0
VERTEX
  8
campo_jogos
 10
-9.348152
 20
38.721551
  0
VERTEX
  8
campo_jogos
 10
-9.348152
 20
38.721568
  0
VERTEX
  8
campo_jogos
 10
-9.348084
 20
38.721569
  0
VERTEX
  8
campo_jogos
 10
-9.347809
 20
38.721572
  0
VERTEX
  8
campo_jogos
 10
-9.347809
 20
38.721557
  0
VERTEX
  8
campo_jogos
 10
-9.347599
 20
38.721559
  0
VERTEX
  8
campo_jogos
 10
-9.347586
 20
38.721160
  0
VERTEX
  8
campo_jogos
 10
-9.347586
 20
38.721160
  0
SEQEND
  0
POLYLINE
  8
campo_jogos
  6
BYLAYER
 66
1
 70
1
 40
0.000000
 41
0.000000
  0
VERTEX
  8
campo_jogos
 10
-9.343112
 20
38.717888
  0
VERTEX
  8
campo_jogos
 10
-9.343266
 20
38.717590
  0
VERTEX
  8
campo_jogos
 10
-9.343483
 20
38.717657
  0
VERTEX
  8
campo_jogos
 10
-9.343329
 20
38.717957
  0
VERTEX
  8
campo_jogos
 10
-9.343112
 20
38.717888
  0
VERTEX
  8
campo_jogos
 10
-9.343112
 20
38.717888
  0
SEQEND
  0
POLYLINE
  8
campo_jogos
  6
BYLAYER
 66
1
 70
1
 40
0.000000
 41
0.000000
  0
VERTEX
  8
campo_jogos
 10
-9.342749
 20
38.717820
  0
VERTEX
  8
campo_jogos
 10
-9.342941
 20
38.717446
  0
VERTEX
  8
campo_jogos
 10
-9.343199
 20
38.717527
  0
VERTEX
  8
campo_jogos
 10
-9.343008
 20
38.717903
  0
VERTEX
  8
campo_jogos
 10
-9.342749
 20
38.717820
  0
VERTEX
  8
campo_jogos
 10
-9.342749
 20
38.717820
  0
SEQEND
  0
POLYLINE
  8
campo_jogos
  6
BYLAYER
 66
1
 70
1
 40
0.000000
 41
0.000000
  0
VERTEX
  8
campo_jogos
 10
-9.342480
 20
38.717727
  0
VERTEX
  8
campo_jogos
 10
-9.342511
 20
38.717670
  0
VERTEX
  8
campo_jogos
 10
-9.342700
 20
38.717729
  0
VERTEX
  8
campo_jogos
 10
-9.342669
 20
38.717790
  0
VERTEX
  8
campo_jogos
 10
-9.342480
 20
38.717727
  0
VERTEX
  8
campo_jogos
 10
-9.342480
 20
38.717727
  0
SEQEND
  0
POLYLINE
  8
campo_jogos
  6
BYLAYER
 66
1
 70
1
 40
0.000000
 41
0.000000
  0
VERTEX
  8
campo_jogos
 10
-9.342084
 20
38.718062
  0
VERTEX
  8
campo_jogos
 10
-9.342238
 20
38.717766
  0
VERTEX
  8
campo_jogos
 10
-9.342407
 20
38.717821
  0
VERTEX
  8
campo_jogos
 10
-9.342431
 20
38.717828
  0
VERTEX
  8
campo_jogos
 10
-9.342277
 20
38.718127
  0
VERTEX
  8
campo_jogos
 10
-9.342084
 20
38.718062
  0
VERTEX
  8
campo_jogos
 10
-9.342084
 20
38.718062
  0
SEQEND
  0
POLYLINE
  8
campo_jogos
  6
BYLAYER
 66
1
 70
1
 40
0.000000
 41
0.000000
  0
VERTEX
  8
campo_jogos
 10
-9.342277
 20
38.718127
  0
VERTEX
  8
campo_jogos
 10
-9.342431
 20
38.717828
  0
VERTEX
  8
campo_jogos
 10
-9.342620
 20
38.717890
  0
VERTEX
  8
campo_jogos
 10
-9.342464
 20
38.718189
  0
VERTEX
  8
campo_jogos
 10
-9.342277
 20
38.718127
  0
VERTEX
  8
campo_jogos
 10
-9.342277
 20
38.718127
  0
SEQEND
  0
POLYLINE
  8
campo_jogos
  6
BYLAYER
 66
1
 70
1
 40
0.000000
 41
0.000000
  0
VERTEX
  8
campo_jogos
 10
-9.342636
 20
38.717568
  0
VERTEX
  8
campo_jogos
 10
-9.342668
 20
38.717504
  0
VERTEX
  8
campo_jogos
 10
-9.342795
 20
38.717545
  0
VERTEX
  8
campo_jogos
 10
-9.342762
 20
38.717609
  0
VERTEX
  8
campo_jogos
 10
-9.342636
 20
38.717568
  0
VERTEX
  8
campo_jogos
 10
-9.342636
 20
38.717568
  0
SEQEND
  0
POLYLINE
  8
campo_jogos
  6
BYLAYER
 66
1
 70
1
 40
0.000000
 41
0.000000
  0
VERTEX
  8
campo_jogos
 10
-9.342604
 20
38.717632
  0
VERTEX
  8
campo_jogos
 10
-9.342636
 20
38.717568
  0
VERTEX
  8
campo_jogos
 10
-9.342762
 20
38.717609
  0
VERTEX
  8
campo_jogos
 10
-9.342729
 20
38.717673
  0
VERTEX
  8
campo_jogos
 10
-9.342604
 20
38.717632
  0
VERTEX
  8
campo_jogos
 10
-9.342604
 20
38.717632
  0
SEQEND
  0
POLYLINE
  8
campo_jogos
  6
BYLAYER
 66
1
 70
1
 40
0.000000
 41
0.000000
  0
VERTEX
  8
campo_jogos
 10
-9.342700
 20
38.717729
  0
VERTEX
  8
campo_jogos
 10
-9.342511
 20
38.717670
  0
VERTEX
  8
campo_jogos
 10
-9.342543
 20
38.717613
  0
VERTEX
  8
campo_jogos
 10
-9.342729
 20
38.717673
  0
VERTEX
  8
campo_jogos
 10
-9.342700
 20
38.717729
  0
VERTEX
  8
campo_jogos
 10
-9.342700
 20
38.717729
  0
SEQEND
  0
POLYLINE
  8
campo_jogos
  6
BYLAYER
 66
1
 70
1
 40
0.000000
 41
0.000000
  0
VERTEX
  8
campo_jogos
 10
-9.343360
 20
38.717970
  0
VERTEX
  8
campo_jogos
 10
-9.343498
 20
38.717698
  0
VERTEX
  8
campo_jogos
 10
-9.343602
 20
38.717841
  0
VERTEX
  8
campo_jogos
 10
-9.343511
 20
38.718017
  0
VERTEX
  8
campo_jogos
 10
-9.343360
 20
38.717970
  0
VERTEX
  8
campo_jogos
 10
-9.343360
 20
38.717970
  0
SEQEND
  0
POLYLINE
  8
campo_jogos
  6
BYLAYER
 66
1
 70
1
 40
0.000000
 41
0.000000
  0
VERTEX
  8
campo_jogos
 10
-9.331764
 20
38.717604
  0
VERTEX
  8
campo_jogos
 10
-9.331762
 20
38.717492
  0
VERTEX
  8
campo_jogos
 10
-9.332003
 20
38.717490
  0
VERTEX
  8
campo_jogos
 10
-9.332007
 20
38.717601
  0
VERTEX
  8
campo_jogos
 10
-9.331764
 20
38.717604
  0
VERTEX
  8
campo_jogos
 10
-9.331764
 20
38.717604
  0
SEQEND
  0
POLYLINE
  8
campo_jogos
  6
BYLAYER
 66
1
 70
1
 40
0.000000
 41
0.000000
  0
VERTEX
  8
campo_jogos
 10
-9.334395
 20
38.719042
  0
VERTEX
  8
campo_jogos
 10
-9.334393
 20
38.718746
  0
VERTEX
  8
campo_jogos
 10
-9.334617
 20
38.718744
  0
VERTEX
  8
campo_jogos
 10
-9.334623
 20
38.719037
  0
VERTEX
  8
campo_jogos
 10
-9.334395
 20
38.719042
  0
VERTEX
  8
campo_jogos
 10
-9.334395
 20
38.719042
  0
SEQEND
  0
POLYLINE
  8
campo_jogos
  6
BYLAYER
 66
1
 70
1
 40
0.000000
 41
0.000000
  0
VERTEX
  8
campo_jogos
 10
-9.337439
 20
38.721895
  0
VERTEX
  8
campo_jogos
 10
-9.337350
 20
38.721636
  0
VERTEX
  8
campo_jogos
 10
-9.337530
 20
38.721600
  0
VERTEX
  8
campo_jogos
 10
-9.337626
 20
38.721863
  0
VERTEX
  8
campo_jogos
 10
-9.337439
 20
38.721895
  0
VERTEX
  8
campo_jogos
 10
-9.337439
 20
38.721895
  0
SEQEND
  0
POLYLINE
  8
campo_jogos
  6
BYLAYER
 66
1
 70
1
 40
0.000000
 41
0.000000
  0
VERTEX
  8
campo_jogos
 10
-9.340282
 20
38.716282
  0
VERTEX
  8
campo_jogos
 10
-9.339931
 20
38.716427
  0
VERTEX
  8
campo_jogos
 10
-9.339825
 20
38.716268
  0
VERTEX
  8
campo_jogos
 10
-9.340172
 20
38.716125
  0
VERTEX
  8
campo_jogos
 10
-9.340282
 20
38.716282
  0
VERTEX
  8
campo_jogos
 10
-9.340282
 20
38.716282
  0
SEQEND
  0
POLYLINE
  8
campo_jogos
  6
BYLAYER
 66
1
 70
1
 40
0.000000
 41
0.000000
  0
VERTEX
  8
campo_jogos
 10
-9.327616
 20
38.716910
  0
VERTEX
  8
campo_jogos
 10
-9.327378
 20
38.716927
  0
VERTEX
  8
campo_jogos
 10
-9.327367
 20
38.716824
  0
VERTEX
  8
campo_jogos
 10
-9.327605
 20
38.716808
  0
VERTEX
  8
campo_jogos
 10
-9.327616
 20
38.716910
  0
VERTEX
  8
campo_jogos
 10
-9.327616
 20
38.716910
  0
SEQEND
  0
POLYLINE
  8
campo_jogos
  6
BYLAYER
 66
1
 70
1
 40
0.000000
 41
0.000000
  0
VERTEX
  8
campo_jogos
 10
-9.345332
 20
38.713525
  0
VERTEX
  8
campo_jogos
 10
-9.345323
 20
38.713267
  0
VERTEX
  8
campo_jogos
 10
-9.345499
 20
38.713264
  0
VERTEX
  8
campo_jogos
 10
-9.345508
 20
38.713520
  0
VERTEX
  8
campo_jogos
 10
-9.345332
 20
38.713525
  0
VERTEX
  8
campo_jogos
 10
-9.345332
 20
38.713525
  0
SEQEND
  0
POLYLINE
  8
campo_jogos
  6
BYLAYER
 66
1
 70
1
 40
0.000000
 41
0.000000
  0
VERTEX
  8
campo_jogos
 10
-9.329512
 20
38.712994
  0
VERTEX
  8
campo_jogos
 10
-9.329197
 20
38.712734
  0
VERTEX
  8
campo_jogos
 10
-9.329479
 20
38.712516
  0
VERTEX
  8
campo_jogos
 10
-9.329868
 20
38.712804
  0
VERTEX
  8
campo_jogos
 10
-9.329569
 20
38.713031
  0
VERTEX
  8
campo_jogos
 10
-9.329518
 20
38.712990
  0
VERTEX
  8
campo_jogos
 10
-9.329512
 20
38.712994
  0
VERTEX
  8
campo_jogos
 10
-9.329512
 20
38.712994
  0
SEQEND
  0
POLYLINE
  8
campo_jogos
  6
BYLAYER
 66
1
 70
1
 40
0.000000
 41
0.000000
  0
VERTEX
  8
campo_jogos
 10
-9.329520
 20
38.713345
  0
VERTEX
  8
campo_jogos
 10
-9.329400
 20
38.713247
  0
VERTEX
  8
campo_jogos
 10
-9.329630
 20
38.713072
  0
VERTEX
  8
campo_jogos
 10
-9.329751
 20
38.713170
  0
VERTEX
  8
campo_jogos
 10
-9.329520
 20
38.713345
  0
VERTEX
  8
campo_jogos
 10
-9.329520
 20
38.713345
  0
SEQEND
  0
POLYLINE
  8
campo_jogos
  6
BYLAYER
 66
1
 70
1
 40
0.000000
 41
0.000000
  0
VERTEX
  8
campo_jogos
 10
-9.328797
 20
38.712773
  0
VERTEX
  8
campo_jogos
 10
-9.328724
 20
38.712715
  0
VERTEX
  8
campo_jogos
 10
-9.328795
 20
38.712660
  0
VERTEX
  8
campo_jogos
 10
-9.329217
 20
38.712336
  0
VERTEX
  8
campo_jogos
 10
-9.329448
 20
38.712522
  0
VERTEX
  8
campo_jogos
 10
-9.328955
 20
38.712898
  0
VERTEX
  8
campo_jogos
 10
-9.328797
 20
38.712773
  0
VERTEX
  8
campo_jogos
 10
-9.328797
 20
38.712773
  0
SEQEND
  0
POLYLINE
  8
campo_jogos
  6
BYLAYER
 66
1
 70
1
 40
0.000000
 41
0.000000
  0
VERTEX
  8
campo_jogos
 10
-9.342541
 20
38.708749
  0
VERTEX
  8
campo_jogos
 10
-9.342534
 20
38.708854
  0
VERTEX
  8
campo_jogos
 10
-9.342451
 20
38.708850
  0
VERTEX
  8
campo_jogos
 10
-9.342460
 20
38.708744
  0
VERTEX
  8
campo_jogos
 10
-9.342541
 20
38.708749
  0
VERTEX
  8
campo_jogos
 10
-9.342541
 20
38.708749
  0
SEQEND
  0
POLYLINE
  8
campo_jogos
  6
BYLAYER
 66
1
 70
1
 40
0.000000
 41
0.000000
  0
VERTEX
  8
campo_jogos
 10
-9.343267
 20
38.708594
  0
VERTEX
  8
campo_jogos
 10
-9.343265
 20
38.708618
  0
VERTEX
  8
campo_jogos
 10
-9.343199
 20
38.708616
  0
VERTEX
  8
campo_jogos
 10
-9.343198
 20
38.708592
  0
VERTEX
  8
campo_jogos
 10
-9.343267
 20
38.708594
  0
VERTEX
  8
campo_jogos
 10
-9.343267
 20
38.708594
  0
SEQEND
  0
POLYLINE
  8
campo_jogos
  6
BYLAYER
 66
1
 70
1
 40
0.000000
 41
0.000000
  0
VERTEX
  8
campo_jogos
 10
-9.339976
 20
38.716173
  0
VERTEX
  8
campo_jogos
 10
-9.339819
 20
38.716241
  0
VERTEX
  8
campo_jogos
 10
-9.339672
 20
38.716015
  0
VERTEX
  8
campo_jogos
 10
-9.339824
 20
38.715951
  0
VERTEX
  8
campo_jogos
 10
-9.339976
 20
38.716173
  0
VERTEX
  8
campo_jogos
 10
-9.339976
 20
38.716173
  0
SEQEND
  0
POLYLINE
  8
campo_jogos
  6
BYLAYER
 66
1
 70
1
 40
0.000000
 41
0.000000
  0
VERTEX
  8
campo_jogos
 10
-9.339958
 20
38.715832
  0
VERTEX
  8
campo_jogos
 10
-9.339715
 20
38.715932
  0
VERTEX
  8
campo_jogos
 10
-9.339665
 20
38.715854
  0
VERTEX
  8
campo_jogos
 10
-9.339907
 20
38.715754
  0
VERTEX
  8
campo_jogos
 10
-9.339958
 20
38.715832
  0
VERTEX
  8
campo_jogos
 10
-9.339958
 20
38.715832
  0
SEQEND
  0
POLYLINE
  8
campo_jogos
  6
BYLAYER
 66
1
 70
1
 40
0.000000
 41
0.000000
  0
VERTEX
  8
campo_jogos
 10
-9.340271
 20
38.715959
  0
VERTEX
  8
campo_jogos
 10
-9.340210
 20
38.715985
  0
VERTEX
  8
campo_jogos
 10
-9.340131
 20
38.715878
  0
VERTEX
  8
campo_jogos
 10
-9.340193
 20
38.715855
  0
VERTEX
  8
campo_jogos
 10
-9.340271
 20
38.715959
  0
VERTEX
  8
campo_jogos
 10
-9.340271
 20
38.715959
  0
SEQEND
  0
POLYLINE
  8
campo_jogos
  6
BYLAYER
 66
1
 70
1
 40
0.000000
 41
0.000000
  0
VERTEX
  8
campo_jogos
 10
-9.338425
 20
38.710239
  0
VERTEX
  8
campo_jogos
 10
-9.338450
 20
38.710595
  0
VERTEX
  8
campo_jogos
 10
-9.338213
 20
38.710605
  0
VERTEX
  8
campo_jogos
 10
-9.338189
 20
38.710249
  0
VERTEX
  8
campo_jogos
 10
-9.338425
 20
38.710239
  0
SEQEND
  0
POLYLINE
  8
campo_jogos
  6
BYLAYER
 66
1
 70
1
 40
0.000000
 41
0.000000
  0
VERTEX
  8
campo_jogos
 10
-9.341514
 20
38.700853
  0
VERTEX
  8
campo_jogos
 10
-9.341485
 20
38.701043
  0
VERTEX
  8
campo_jogos
 10
-9.341338
 20
38.701029
  0
VERTEX
  8
campo_jogos
 10
-9.341367
 20
38.700839
  0
VERTEX
  8
campo_jogos
 10
-9.341514
 20
38.700853
  0
VERTEX
  8
campo_jogos
 10
-9.341514
 20
38.700853
  0
SEQEND
  0
POLYLINE
  8
campo_jogos
  6
BYLAYER
 66
1
 70
1
 40
0.000000
 41
0.000000
  0
VERTEX
  8
campo_jogos
 10
-9.345507
 20
38.705323
  0
VERTEX
  8
campo_jogos
 10
-9.345510
 20
38.705447
  0
VERTEX
  8
campo_jogos
 10
-9.345190
 20
38.705451
  0
VERTEX
  8
campo_jogos
 10
-9.345187
 20
38.705328
  0
VERTEX
  8
campo_jogos
 10
-9.345507
 20
38.705323
  0
VERTEX
  8
campo_jogos
 10
-9.345507
 20
38.705323
  0
SEQEND
  0
POLYLINE
  8
campo_jogos
  6
BYLAYER
 66
1
 70
1
 40
0.000000
 41
0.000000
  0
VERTEX
  8
campo_jogos
 10
-9.344702
 20
38.703689
  0
VERTEX
  8
campo_jogos
 10
-9.344692
 20
38.703683
  0
VERTEX
  8
campo_jogos
 10
-9.344684
 20
38.703675
  0
VERTEX
  8
campo_jogos
 10
-9.344678
 20
38.703666
  0
VERTEX
  8
campo_jogos
 10
-9.344674
 20
38.703656
  0
VERTEX
  8
campo_jogos
 10
-9.344673
 20
38.703646
  0
VERTEX
  8
campo_jogos
 10
-9.344675
 20
38.703636
  0
VERTEX
  8
campo_jogos
 10
-9.344679
 20
38.703627
  0
VERTEX
  8
campo_jogos
 10
-9.344685
 20
38.703618
  0
VERTEX
  8
campo_jogos
 10
-9.344693
 20
38.703611
  0
VERTEX
  8
campo_jogos
 10
-9.344703
 20
38.703605
  0
VERTEX
  8
campo_jogos
 10
-9.344715
 20
38.703600
  0
VERTEX
  8
campo_jogos
 10
-9.344727
 20
38.703598
  0
VERTEX
  8
campo_jogos
 10
-9.344740
 20
38.703597
  0
VERTEX
  8
campo_jogos
 10
-9.344753
 20
38.703599
  0
VERTEX
  8
campo_jogos
 10
-9.344765
 20
38.703602
  0
VERTEX
  8
campo_jogos
 10
-9.344776
 20
38.703607
  0
VERTEX
  8
campo_jogos
 10
-9.344785
 20
38.703614
  0
VERTEX
  8
campo_jogos
 10
-9.344792
 20
38.703622
  0
VERTEX
  8
campo_jogos
 10
-9.344798
 20
38.703631
  0
VERTEX
  8
campo_jogos
 10
-9.344800
 20
38.703641
  0
VERTEX
  8
campo_jogos
 10
-9.344801
 20
38.703651
  0
VERTEX
  8
campo_jogos
 10
-9.344799
 20
38.703661
  0
VERTEX
  8
campo_jogos
 10
-9.344794
 20
38.703670
  0
VERTEX
  8
campo_jogos
 10
-9.344787
 20
38.703679
  0
VERTEX
  8
campo_jogos
 10
-9.344778
 20
38.703686
  0
VERTEX
  8
campo_jogos
 10
-9.344767
 20
38.703691
  0
VERTEX
  8
campo_jogos
 10
-9.344756
 20
38.703695
  0
VERTEX
  8
campo_jogos
 10
-9.344743
 20
38.703697
  0
VERTEX
  8
campo_jogos
 10
-9.344738
 20
38.703697
  0
VERTEX
  8
campo_jogos
 10
-9.344725
 20
38.703696
  0
VERTEX
  8
campo_jogos
 10
-9.344713
 20
38.703694
  0
VERTEX
  8
campo_jogos
 10
-9.344702
 20
38.703689
  0
VERTEX
  8
campo_jogos
 10
-9.344702
 20
38.703689
  0
SEQEND
  0
POLYLINE
  8
campo_jogos
  6
BYLAYER
 66
1
 70
1
 40
0.000000
 41
0.000000
  0
VERTEX
  8
campo_jogos
 10
-9.335462
 20
38.704512
  0
VERTEX
  8
campo_jogos
 10
-9.335350
 20
38.704574
  0
VERTEX
  8
campo_jogos
 10
-9.335307
 20
38.704525
  0
VERTEX
  8
campo_jogos
 10
-9.335416
 20
38.704461
  0
VERTEX
  8
campo_jogos
 10
-9.335462
 20
38.704512
  0
VERTEX
  8
campo_jogos
 10
-9.335462
 20
38.704512
  0
SEQEND
  0
POLYLINE
  8
campo_jogos
  6
BYLAYER
 66
1
 70
1
 40
0.000000
 41
0.000000
  0
VERTEX
  8
campo_jogos
 10
-9.332685
 20
38.698844
  0
VERTEX
  8
campo_jogos
 10
-9.332841
 20
38.698836
  0
VERTEX
  8
campo_jogos
 10
-9.332866
 20
38.699109
  0
VERTEX
  8
campo_jogos
 10
-9.332710
 20
38.699118
  0
VERTEX
  8
campo_jogos
 10
-9.332685
 20
38.698844
  0
VERTEX
  8
campo_jogos
 10
-9.332685
 20
38.698844
  0
SEQEND
  0
POLYLINE
  8
campo_jogos
  6
BYLAYER
 66
1
 70
1
 40
0.000000
 41
0.000000
  0
VERTEX
  8
campo_jogos
 10
-9.328938
 20
38.698336
  0
VERTEX
  8
campo_jogos
 10
-9.328879
 20
38.698439
  0
VERTEX
  8
campo_jogos
 10
-9.328763
 20
38.698397
  0
VERTEX
  8
campo_jogos
 10
-9.328798
 20
38.698338
  0
VERTEX
  8
campo_jogos
 10
-9.328875
 20
38.698206
  0
VERTEX
  8
campo_jogos
 10
-9.328990
 20
38.698247
  0
VERTEX
  8
campo_jogos
 10
-9.328938
 20
38.698336
  0
VERTEX
  8
campo_jogos
 10
-9.328938
 20
38.698336
  0
SEQEND
  0
POLYLINE
  8
campo_jogos
  6
BYLAYER
 66
1
 70
1
 40
0.000000
 41
0.000000
  0
VERTEX
  8
campo_jogos
 10
-9.344833
 20
38.703409
  0
VERTEX
  8
campo_jogos
 10
-9.344604
 20
38.703393
  0
VERTEX
  8
campo_jogos
 10
-9.344644
 20
38.703035
  0
VERTEX
  8
campo_jogos
 10
-9.344872
 20
38.703049
  0
VERTEX
  8
campo_jogos
 10
-9.344833
 20
38.703409
  0
VERTEX
  8
campo_jogos
 10
-9.344833
 20
38.703409
  0
SEQEND
  0
POLYLINE
  8
campo_jogos
  6
BYLAYER
 66
1
 70
1
 40
0.000000
 41
0.000000
  0
VERTEX
  8
campo_jogos
 10
-9.329222
 20
38.700694
  0
VERTEX
  8
campo_jogos
 10
-9.329012
 20
38.700678
  0
VERTEX
  8
campo_jogos
 10
-9.329042
 20
38.700398
  0
VERTEX
  8
campo_jogos
 10
-9.329252
 20
38.700411
  0
VERTEX
  8
campo_jogos
 10
-9.329222
 20
38.700694
  0
VERTEX
  8
campo_jogos
 10
-9.329222
 20
38.700694
  0
SEQEND
  0
POLYLINE
  8
campo_jogos
  6
BYLAYER
 66
1
 70
1
 40
0.000000
 41
0.000000
  0
VERTEX
  8
campo_jogos
 10
-9.337781
 20
38.702035
  0
VERTEX
  8
campo_jogos
 10
-9.337931
 20
38.702059
  0
VERTEX
  8
campo_jogos
 10
-9.337871
 20
38.702253
  0
VERTEX
  8
campo_jogos
 10
-9.337817
 20
38.702239
  0
VERTEX
  8
campo_jogos
 10
-9.337556
 20
38.702175
  0
VERTEX
  8
campo_jogos
 10
-9.337605
 20
38.702037
  0
VERTEX
  8
campo_jogos
 10
-9.337662
 20
38.702016
  0
VERTEX
  8
campo_jogos
 10
-9.337781
 20
38.702035
  0
VERTEX
  8
campo_jogos
 10
-9.337781
 20
38.702035
  0
SEQEND
  0
POLYLINE
  8
campo_jogos
  6
BYLAYER
 66
1
 70
1
 40
0.000000
 41
0.000000
  0
VERTEX
  8
campo_jogos
 10
-9.366151
 20
38.738646
  0
VERTEX
  8
campo_jogos
 10
-9.366145
 20
38.738548
  0
VERTEX
  8
campo_jogos
 10
-9.366355
 20
38.738540
  0
VERTEX
  8
campo_jogos
 10
-9.366377
 20
38.738868
  0
VERTEX
  8
campo_jogos
 10
-9.366166
 20
38.738876
  0
VERTEX
  8
campo_jogos
 10
-9.366153
 20
38.738687
  0
VERTEX
  8
campo_jogos
 10
-9.366151
 20
38.738646
  0
VERTEX
  8
campo_jogos
 10
-9.366151
 20
38.738646
  0
SEQEND
  0
POLYLINE
  8
campo_jogos
  6
BYLAYER
 66
1
 70
1
 40
0.000000
 41
0.000000
  0
VERTEX
  8
campo_jogos
 10
-9.374523
 20
38.739192
  0
VERTEX
  8
campo_jogos
 10
-9.374805
 20
38.739173
  0
VERTEX
  8
campo_jogos
 10
-9.374816
 20
38.739274
  0
VERTEX
  8
campo_jogos
 10
-9.374531
 20
38.739293
  0
VERTEX
  8
campo_jogos
 10
-9.374523
 20
38.739192
  0
VERTEX
  8
campo_jogos
 10
-9.374523
 20
38.739192
  0
SEQEND
  0
POLYLINE
  8
campo_jogos
  6
BYLAYER
 66
1
 70
1
 40
0.000000
 41
0.000000
  0
VERTEX
  8
campo_jogos
 10
-9.360209
 20
38.734610
  0
VERTEX
  8
campo_jogos
 10
-9.360150
 20
38.734400
  0
VERTEX
  8
campo_jogos
 10
-9.360274
 20
38.734378
  0
VERTEX
  8
campo_jogos
 10
-9.360333
 20
38.734589
  0
VERTEX
  8
campo_jogos
 10
-9.360209
 20
38.734610
  0
VERTEX
  8
campo_jogos
 10
-9.360209
 20
38.734610
  0
SEQEND
  0
POLYLINE
  8
campo_jogos
  6
BYLAYER
 66
1
 70
1
 40
0.000000
 41
0.000000
  0
VERTEX
  8
campo_jogos
 10
-9.360068
 20
38.734414
  0
VERTEX
  8
campo_jogos
 10
-9.360126
 20
38.734624
  0
VERTEX
  8
campo_jogos
 10
-9.360003
 20
38.734645
  0
VERTEX
  8
campo_jogos
 10
-9.359945
 20
38.734435
  0
VERTEX
  8
campo_jogos
 10
-9.360068
 20
38.734414
  0
VERTEX
  8
campo_jogos
 10
-9.360068
 20
38.734414
  0
SEQEND
  0
POLYLINE
  8
campo_jogos
  6
BYLAYER
 66
1
 70
1
 40
0.000000
 41
0.000000
  0
VERTEX
  8
campo_jogos
 10
-9.360423
 20
38.734180
  0
VERTEX
  8
campo_jogos
 10
-9.361212
 20
38.734045
  0
VERTEX
  8
campo_jogos
 10
-9.361322
 20
38.734440
  0
VERTEX
  8
campo_jogos
 10
-9.360534
 20
38.734575
  0
VERTEX
  8
campo_jogos
 10
-9.360423
 20
38.734180
  0
VERTEX
  8
campo_jogos
 10
-9.360423
 20
38.734180
  0
SEQEND
  0
POLYLINE
  8
campo_jogos
  6
BYLAYER
 66
1
 70
1
 40
0.000000
 41
0.000000
  0
VERTEX
  8
campo_jogos
 10
-9.357014
 20
38.739002
  0
VERTEX
  8
campo_jogos
 10
-9.356962
 20
38.739049
  0
VERTEX
  8
campo_jogos
 10
-9.356778
 20
38.739039
  0
VERTEX
  8
campo_jogos
 10
-9.356856
 20
38.738932
  0
VERTEX
  8
campo_jogos
 10
-9.357014
 20
38.739002
  0
VERTEX
  8
campo_jogos
 10
-9.357014
 20
38.739002
  0
SEQEND
  0
POLYLINE
  8
campo_jogos
  6
BYLAYER
 66
1
 70
1
 40
0.000000
 41
0.000000
  0
VERTEX
  8
campo_jogos
 10
-9.359736
 20
38.735772
  0
VERTEX
  8
campo_jogos
 10
-9.359714
 20
38.735684
  0
VERTEX
  8
campo_jogos
 10
-9.359702
 20
38.735615
  0
VERTEX
  8
campo_jogos
 10
-9.359698
 20
38.735569
  0
VERTEX
  8
campo_jogos
 10
-9.359697
 20
38.735490
  0
VERTEX
  8
campo_jogos
 10
-9.359704
 20
38.735392
  0
VERTEX
  8
campo_jogos
 10
-9.359704
 20
38.735392
  0
VERTEX
  8
campo_jogos
 10
-9.360560
 20
38.735247
  0
VERTEX
  8
campo_jogos
 10
-9.360661
 20
38.735612
  0
VERTEX
  8
campo_jogos
 10
-9.359736
 20
38.735772
  0
VERTEX
  8
campo_jogos
 10
-9.359736
 20
38.735772
  0
VERTEX
  8
campo_jogos
 10
-9.359736
 20
38.735772
  0
SEQEND
  0
POLYLINE
  8
campo_jogos
  6
BYLAYER
 66
1
 70
1
 40
0.000000
 41
0.000000
  0
VERTEX
  8
campo_jogos
 10
-9.360535
 20
38.735212
  0
VERTEX
  8
campo_jogos
 10
-9.360155
 20
38.735274
  0
VERTEX
  8
campo_jogos
 10
-9.360035
 20
38.734826
  0
VERTEX
  8
campo_jogos
 10
-9.360408
 20
38.734765
  0
VERTEX
  8
campo_jogos
 10
-9.360415
 20
38.734787
  0
VERTEX
  8
campo_jogos
 10
-9.360407
 20
38.734788
  0
VERTEX
  8
campo_jogos
 10
-9.360459
 20
38.734979
  0
VERTEX
  8
campo_jogos
 10
-9.360468
 20
38.734978
  0
VERTEX
  8
campo_jogos
 10
-9.360474
 20
38.735001
  0
VERTEX
  8
campo_jogos
 10
-9.360467
 20
38.735002
  0
VERTEX
  8
campo_jogos
 10
-9.360520
 20
38.735192
  0
VERTEX
  8
campo_jogos
 10
-9.360529
 20
38.735189
  0
VERTEX
  8
campo_jogos
 10
-9.360535
 20
38.735212
  0
VERTEX
  8
campo_jogos
 10
-9.360535
 20
38.735212
  0
SEQEND
  0
POLYLINE
  8
campo_jogos
  6
BYLAYER
 66
1
 70
1
 40
0.000000
 41
0.000000
  0
VERTEX
  8
campo_jogos
 10
-9.361140
 20
38.736025
  0
VERTEX
  8
campo_jogos
 10
-9.361086
 20
38.735677
  0
VERTEX
  8
campo_jogos
 10
-9.361475
 20
38.735612
  0
VERTEX
  8
campo_jogos
 10
-9.361530
 20
38.735800
  0
VERTEX
  8
campo_jogos
 10
-9.361545
 20
38.735845
  0
VERTEX
  8
campo_jogos
 10
-9.361575
 20
38.735951
  0
VERTEX
  8
campo_jogos
 10
-9.361195
 20
38.736016
  0
VERTEX
  8
campo_jogos
 10
-9.361140
 20
38.736025
  0
VERTEX
  8
campo_jogos
 10
-9.361140
 20
38.736025
  0
SEQEND
  0
POLYLINE
  8
campo_jogos
  6
BYLAYER
 66
1
 70
1
 40
0.000000
 41
0.000000
  0
VERTEX
  8
campo_jogos
 10
-9.360316
 20
38.733677
  0
VERTEX
  8
campo_jogos
 10
-9.361045
 20
38.733555
  0
VERTEX
  8
campo_jogos
 10
-9.361141
 20
38.733906
  0
VERTEX
  8
campo_jogos
 10
-9.360412
 20
38.734028
  0
VERTEX
  8
campo_jogos
 10
-9.360316
 20
38.733677
  0
VERTEX
  8
campo_jogos
 10
-9.360316
 20
38.733677
  0
SEQEND
  0
POLYLINE
  8
campo_jogos
  6
BYLAYER
 66
1
 70
1
 40
0.000000
 41
0.000000
  0
VERTEX
  8
campo_jogos
 10
-9.364478
 20
38.729341
  0
VERTEX
  8
campo_jogos
 10
-9.364420
 20
38.729261
  0
VERTEX
  8
campo_jogos
 10
-9.364429
 20
38.729200
  0
VERTEX
  8
campo_jogos
 10
-9.364620
 20
38.729163
  0
VERTEX
  8
campo_jogos
 10
-9.364624
 20
38.729176
  0
VERTEX
  8
campo_jogos
 10
-9.364632
 20
38.729202
  0
VERTEX
  8
campo_jogos
 10
-9.364666
 20
38.729304
  0
VERTEX
  8
campo_jogos
 10
-9.364478
 20
38.729341
  0
VERTEX
  8
campo_jogos
 10
-9.364478
 20
38.729341
  0
SEQEND
  0
POLYLINE
  8
campo_jogos
  6
BYLAYER
 66
1
 70
1
 40
0.000000
 41
0.000000
  0
VERTEX
  8
campo_jogos
 10
-9.349576
 20
38.727349
  0
VERTEX
  8
campo_jogos
 10
-9.349604
 20
38.727081
  0
VERTEX
  8
campo_jogos
 10
-9.349773
 20
38.727092
  0
VERTEX
  8
campo_jogos
 10
-9.349744
 20
38.727360
  0
VERTEX
  8
campo_jogos
 10
-9.349576
 20
38.727349
  0
VERTEX
  8
campo_jogos
 10
-9.349576
 20
38.727349
  0
SEQEND
  0
POLYLINE
  8
campo_jogos
  6
BYLAYER
 66
1
 70
1
 40
0.000000
 41
0.000000
  0
VERTEX
  8
campo_jogos
 10
-9.348316
 20
38.726680
  0
VERTEX
  8
campo_jogos
 10
-9.348344
 20
38.726411
  0
VERTEX
  8
campo_jogos
 10
-9.348514
 20
38.726422
  0
VERTEX
  8
campo_jogos
 10
-9.348487
 20
38.726691
  0
VERTEX
  8
campo_jogos
 10
-9.348316
 20
38.726680
  0
VERTEX
  8
campo_jogos
 10
-9.348316
 20
38.726680
  0
SEQEND
  0
POLYLINE
  8
campo_jogos
  6
BYLAYER
 66
1
 70
1
 40
0.000000
 41
0.000000
  0
VERTEX
  8
campo_jogos
 10
-9.349348
 20
38.725627
  0
VERTEX
  8
campo_jogos
 10
-9.349330
 20
38.725787
  0
VERTEX
  8
campo_jogos
 10
-9.349226
 20
38.725780
  0
VERTEX
  8
campo_jogos
 10
-9.349245
 20
38.725620
  0
VERTEX
  8
campo_jogos
 10
-9.349348
 20
38.725627
  0
VERTEX
  8
campo_jogos
 10
-9.349348
 20
38.725627
  0
SEQEND
  0
POLYLINE
  8
campo_jogos
  6
BYLAYER
 66
1
 70
1
 40
0.000000
 41
0.000000
  0
VERTEX
  8
campo_jogos
 10
-9.347972
 20
38.726742
  0
VERTEX
  8
campo_jogos
 10
-9.347728
 20
38.726906
  0
VERTEX
  8
campo_jogos
 10
-9.347616
 20
38.726803
  0
VERTEX
  8
campo_jogos
 10
-9.347860
 20
38.726639
  0
VERTEX
  8
campo_jogos
 10
-9.347972
 20
38.726742
  0
VERTEX
  8
campo_jogos
 10
-9.347972
 20
38.726742
  0
SEQEND
  0
POLYLINE
  8
campo_jogos
  6
BYLAYER
 66
1
 70
1
 40
0.000000
 41
0.000000
  0
VERTEX
  8
campo_jogos
 10
-9.354154
 20
38.729177
  0
VERTEX
  8
campo_jogos
 10
-9.354185
 20
38.729165
  0
VERTEX
  8
campo_jogos
 10
-9.354222
 20
38.729219
  0
VERTEX
  8
campo_jogos
 10
-9.354192
 20
38.729232
  0
VERTEX
  8
campo_jogos
 10
-9.354154
 20
38.729177
  0
VERTEX
  8
campo_jogos
 10
-9.354154
 20
38.729177
  0
SEQEND
  0
POLYLINE
  8
campo_jogos
  6
BYLAYER
 66
1
 70
1
 40
0.000000
 41
0.000000
  0
VERTEX
  8
campo_jogos
 10
-9.354137
 20
38.729204
  0
VERTEX
  8
campo_jogos
 10
-9.354085
 20
38.729225
  0
VERTEX
  8
campo_jogos
 10
-9.354048
 20
38.729193
  0
VERTEX
  8
campo_jogos
 10
-9.354046
 20
38.729191
  0
VERTEX
  8
campo_jogos
 10
-9.354044
 20
38.729190
  0
VERTEX
  8
campo_jogos
 10
-9.354042
 20
38.729189
  0
VERTEX
  8
campo_jogos
 10
-9.354039
 20
38.729188
  0
VERTEX
  8
campo_jogos
 10
-9.354037
 20
38.729188
  0
VERTEX
  8
campo_jogos
 10
-9.354034
 20
38.729188
  0
VERTEX
  8
campo_jogos
 10
-9.354046
 20
38.729181
  0
VERTEX
  8
campo_jogos
 10
-9.354058
 20
38.729175
  0
VERTEX
  8
campo_jogos
 10
-9.354071
 20
38.729169
  0
VERTEX
  8
campo_jogos
 10
-9.354084
 20
38.729164
  0
VERTEX
  8
campo_jogos
 10
-9.354097
 20
38.729159
  0
VERTEX
  8
campo_jogos
 10
-9.354107
 20
38.729155
  0
VERTEX
  8
campo_jogos
 10
-9.354119
 20
38.729166
  0
VERTEX
  8
campo_jogos
 10
-9.354137
 20
38.729204
  0
VERTEX
  8
campo_jogos
 10
-9.354137
 20
38.729204
  0
SEQEND
  0
POLYLINE
  8
campo_jogos
  6
BYLAYER
 66
1
 70
1
 40
0.000000
 41
0.000000
  0
VERTEX
  8
campo_jogos
 10
-9.353757
 20
38.726239
  0
VERTEX
  8
campo_jogos
 10
-9.353769
 20
38.726232
  0
VERTEX
  8
campo_jogos
 10
-9.353795
 20
38.726217
  0
VERTEX
  8
campo_jogos
 10
-9.353870
 20
38.726304
  0
VERTEX
  8
campo_jogos
 10
-9.353767
 20
38.726359
  0
VERTEX
  8
campo_jogos
 10
-9.353712
 20
38.726297
  0
VERTEX
  8
campo_jogos
 10
-9.353754
 20
38.726274
  0
VERTEX
  8
campo_jogos
 10
-9.353733
 20
38.726252
  0
VERTEX
  8
campo_jogos
 10
-9.353757
 20
38.726239
  0
VERTEX
  8
campo_jogos
 10
-9.353757
 20
38.726239
  0
SEQEND
  0
POLYLINE
  8
campo_jogos
  6
BYLAYER
 66
1
 70
1
 40
0.000000
 41
0.000000
  0
VERTEX
  8
campo_jogos
 10
-9.379739
 20
38.745996
  0
VERTEX
  8
campo_jogos
 10
-9.379723
 20
38.745880
  0
VERTEX
  8
campo_jogos
 10
-9.379863
 20
38.745881
  0
VERTEX
  8
campo_jogos
 10
-9.379870
 20
38.745960
  0
VERTEX
  8
campo_jogos
 10
-9.379765
 20
38.745990
  0
VERTEX
  8
campo_jogos
 10
-9.379739
 20
38.745996
  0
VERTEX
  8
campo_jogos
 10
-9.379739
 20
38.745996
  0
SEQEND
  0
POLYLINE
  8
campo_jogos
  6
BYLAYER
 66
1
 70
1
 40
0.000000
 41
0.000000
  0
VERTEX
  8
campo_jogos
 10
-9.378826
 20
38.731620
  0
VERTEX
  8
campo_jogos
 10
-9.378988
 20
38.731957
  0
VERTEX
  8
campo_jogos
 10
-9.378773
 20
38.732023
  0
VERTEX
  8
campo_jogos
 10
-9.378610
 20
38.731683
  0
VERTEX
  8
campo_jogos
 10
-9.378826
 20
38.731620
  0
VERTEX
  8
campo_jogos
 10
-9.378826
 20
38.731620
  0
SEQEND
  0
POLYLINE
  8
campo_jogos
  6
BYLAYER
 66
1
 70
1
 40
0.000000
 41
0.000000
  0
VERTEX
  8
campo_jogos
 10
-9.370620
 20
38.731446
  0
VERTEX
  8
campo_jogos
 10
-9.370720
 20
38.731132
  0
VERTEX
  8
campo_jogos
 10
-9.370914
 20
38.731166
  0
VERTEX
  8
campo_jogos
 10
-9.370812
 20
38.731482
  0
VERTEX
  8
campo_jogos
 10
-9.370620
 20
38.731446
  0
VERTEX
  8
campo_jogos
 10
-9.370620
 20
38.731446
  0
SEQEND
  0
POLYLINE
  8
campo_jogos
  6
BYLAYER
 66
1
 70
1
 40
0.000000
 41
0.000000
  0
VERTEX
  8
campo_jogos
 10
-9.370604
 20
38.731441
  0
VERTEX
  8
campo_jogos
 10
-9.370425
 20
38.731406
  0
VERTEX
  8
campo_jogos
 10
-9.370524
 20
38.731096
  0
VERTEX
  8
campo_jogos
 10
-9.370701
 20
38.731128
  0
VERTEX
  8
campo_jogos
 10
-9.370604
 20
38.731441
  0
VERTEX
  8
campo_jogos
 10
-9.370604
 20
38.731441
  0
SEQEND
  0
POLYLINE
  8
campo_jogos
  6
BYLAYER
 66
1
 70
1
 40
0.000000
 41
0.000000
  0
VERTEX
  8
campo_jogos
 10
-9.317574
 20
38.743412
  0
VERTEX
  8
campo_jogos
 10
-9.317498
 20
38.743212
  0
VERTEX
  8
campo_jogos
 10
-9.317538
 20
38.743220
  0
VERTEX
  8
campo_jogos
 10
-9.317587
 20
38.743235
  0
VERTEX
  8
campo_jogos
 10
-9.317624
 20
38.743252
  0
VERTEX
  8
campo_jogos
 10
-9.317667
 20
38.743346
  0
VERTEX
  8
campo_jogos
 10
-9.317661
 20
38.743348
  0
VERTEX
  8
campo_jogos
 10
-9.317656
 20
38.743349
  0
VERTEX
  8
campo_jogos
 10
-9.317650
 20
38.743350
  0
VERTEX
  8
campo_jogos
 10
-9.317646
 20
38.743351
  0
VERTEX
  8
campo_jogos
 10
-9.317648
 20
38.743358
  0
VERTEX
  8
campo_jogos
 10
-9.317653
 20
38.743357
  0
VERTEX
  8
campo_jogos
 10
-9.317659
 20
38.743356
  0
VERTEX
  8
campo_jogos
 10
-9.317664
 20
38.743354
  0
VERTEX
  8
campo_jogos
 10
-9.317670
 20
38.743353
  0
VERTEX
  8
campo_jogos
 10
-9.317698
 20
38.743414
  0
VERTEX
  8
campo_jogos
 10
-9.317689
 20
38.743416
  0
VERTEX
  8
campo_jogos
 10
-9.317644
 20
38.743425
  0
VERTEX
  8
campo_jogos
 10
-9.317603
 20
38.743421
  0
VERTEX
  8
campo_jogos
 10
-9.317574
 20
38.743412
  0
VERTEX
  8
campo_jogos
 10
-9.317574
 20
38.743412
  0
SEQEND
  0
POLYLINE
  8
campo_jogos
  6
BYLAYER
 66
1
 70
1
 40
0.000000
 41
0.000000
  0
VERTEX
  8
campo_jogos
 10
-9.315177
 20
38.739861
  0
VERTEX
  8
campo_jogos
 10
-9.315686
 20
38.739132
  0
VERTEX
  8
campo_jogos
 10
-9.316173
 20
38.739339
  0
VERTEX
  8
campo_jogos
 10
-9.315664
 20
38.740064
  0
VERTEX
  8
campo_jogos
 10
-9.315177
 20
38.739861
  0
VERTEX
  8
campo_jogos
 10
-9.315177
 20
38.739861
  0
SEQEND
  0
POLYLINE
  8
campo_jogos
  6
BYLAYER
 66
1
 70
1
 40
0.000000
 41
0.000000
  0
VERTEX
  8
campo_jogos
 10
-9.309963
 20
38.737465
  0
VERTEX
  8
campo_jogos
 10
-9.309927
 20
38.737150
  0
VERTEX
  8
campo_jogos
 10
-9.310123
 20
38.737137
  0
VERTEX
  8
campo_jogos
 10
-9.310159
 20
38.737452
  0
VERTEX
  8
campo_jogos
 10
-9.309963
 20
38.737465
  0
VERTEX
  8
campo_jogos
 10
-9.309963
 20
38.737465
  0
SEQEND
  0
POLYLINE
  8
campo_jogos
  6
BYLAYER
 66
1
 70
1
 40
0.000000
 41
0.000000
  0
VERTEX
  8
campo_jogos
 10
-9.324022
 20
38.746498
  0
VERTEX
  8
campo_jogos
 10
-9.324256
 20
38.746531
  0
VERTEX
  8
campo_jogos
 10
-9.324099
 20
38.747060
  0
VERTEX
  8
campo_jogos
 10
-9.323870
 20
38.747028
  0
VERTEX
  8
campo_jogos
 10
-9.324022
 20
38.746498
  0
VERTEX
  8
campo_jogos
 10
-9.324022
 20
38.746498
  0
SEQEND
  0
POLYLINE
  8
campo_jogos
  6
BYLAYER
 66
1
 70
1
 40
0.000000
 41
0.000000
  0
VERTEX
  8
campo_jogos
 10
-9.317625
 20
38.729904
  0
VERTEX
  8
campo_jogos
 10
-9.317495
 20
38.729538
  0
VERTEX
  8
campo_jogos
 10
-9.317478
 20
38.729491
  0
VERTEX
  8
campo_jogos
 10
-9.317473
 20
38.729476
  0
VERTEX
  8
campo_jogos
 10
-9.317785
 20
38.729419
  0
VERTEX
  8
campo_jogos
 10
-9.317945
 20
38.729839
  0
VERTEX
  8
campo_jogos
 10
-9.317625
 20
38.729904
  0
VERTEX
  8
campo_jogos
 10
-9.317625
 20
38.729904
  0
SEQEND
  0
POLYLINE
  8
campo_jogos
  6
BYLAYER
 66
1
 70
1
 40
0.000000
 41
0.000000
  0
VERTEX
  8
campo_jogos
 10
-9.317309
 20
38.730070
  0
VERTEX
  8
campo_jogos
 10
-9.317468
 20
38.730297
  0
VERTEX
  8
campo_jogos
 10
-9.317315
 20
38.730362
  0
VERTEX
  8
campo_jogos
 10
-9.317157
 20
38.730135
  0
VERTEX
  8
campo_jogos
 10
-9.317309
 20
38.730070
  0
VERTEX
  8
campo_jogos
 10
-9.317309
 20
38.730070
  0
SEQEND
  0
POLYLINE
  8
campo_jogos
  6
BYLAYER
 66
1
 70
1
 40
0.000000
 41
0.000000
  0
VERTEX
  8
campo_jogos
 10
-9.327957
 20
38.713504
  0
VERTEX
  8
campo_jogos
 10
-9.328250
 20
38.713278
  0
VERTEX
  8
campo_jogos
 10
-9.328394
 20
38.713395
  0
VERTEX
  8
campo_jogos
 10
-9.328101
 20
38.713620
  0
VERTEX
  8
campo_jogos
 10
-9.327957
 20
38.713504
  0
VERTEX
  8
campo_jogos
 10
-9.327957
 20
38.713504
  0
SEQEND
  0
POLYLINE
  8
campo_jogos
  6
BYLAYER
 66
1
 70
1
 40
0.000000
 41
0.000000
  0
VERTEX
  8
campo_jogos
 10
-9.328373
 20
38.713730
  0
VERTEX
  8
campo_jogos
 10
-9.328583
 20
38.713573
  0
VERTEX
  8
campo_jogos
 10
-9.328675
 20
38.713649
  0
VERTEX
  8
campo_jogos
 10
-9.328465
 20
38.713806
  0
VERTEX
  8
campo_jogos
 10
-9.328373
 20
38.713730
  0
VERTEX
  8
campo_jogos
 10
-9.328373
 20
38.713730
  0
SEQEND
  0
POLYLINE
  8
campo_jogos
  6
BYLAYER
 66
1
 70
1
 40
0.000000
 41
0.000000
  0
VERTEX
  8
campo_jogos
 10
-9.326020
 20
38.713173
  0
VERTEX
  8
campo_jogos
 10
-9.326020
 20
38.713173
  0
VERTEX
  8
campo_jogos
 10
-9.325705
 20
38.713202
  0
VERTEX
  8
campo_jogos
 10
-9.325656
 20
38.712880
  0
VERTEX
  8
campo_jogos
 10
-9.325971
 20
38.712851
  0
VERTEX
  8
campo_jogos
 10
-9.326020
 20
38.713173
  0
SEQEND
  0
POLYLINE
  8
campo_jogos
  6
BYLAYER
 66
1
 70
1
 40
0.000000
 41
0.000000
  0
VERTEX
  8
campo_jogos
 10
-9.325815
 20
38.698031
  0
VERTEX
  8
campo_jogos
 10
-9.325841
 20
38.697934
  0
VERTEX
  8
campo_jogos
 10
-9.325876
 20
38.697796
  0
VERTEX
  8
campo_jogos
 10
-9.326129
 20
38.697837
  0
VERTEX
  8
campo_jogos
 10
-9.326057
 20
38.698102
  0
VERTEX
  8
campo_jogos
 10
-9.325806
 20
38.698063
  0
VERTEX
  8
campo_jogos
 10
-9.325815
 20
38.698031
  0
VERTEX
  8
campo_jogos
 10
-9.325815
 20
38.698031
  0
SEQEND
  0
POLYLINE
  8
campo_jogos
  6
BYLAYER
 66
1
 70
1
 40
0.000000
 41
0.000000
  0
VERTEX
  8
campo_jogos
 10
-9.323929
 20
38.698388
  0
VERTEX
  8
campo_jogos
 10
-9.323928
 20
38.698389
  0
VERTEX
  8
campo_jogos
 10
-9.323921
 20
38.698388
  0
VERTEX
  8
campo_jogos
 10
-9.323584
 20
38.698331
  0
VERTEX
  8
campo_jogos
 10
-9.323693
 20
38.697931
  0
VERTEX
  8
campo_jogos
 10
-9.324033
 20
38.697986
  0
VERTEX
  8
campo_jogos
 10
-9.323929
 20
38.698388
  0
VERTEX
  8
campo_jogos
 10
-9.323929
 20
38.698388
  0
SEQEND
  0
POLYLINE
  8
campo_jogos
  6
BYLAYER
 66
1
 70
1
 40
0.000000
 41
0.000000
  0
VERTEX
  8
campo_jogos
 10
-9.323883
 20
38.697474
  0
VERTEX
  8
campo_jogos
 10
-9.323803
 20
38.697768
  0
VERTEX
  8
campo_jogos
 10
-9.323791
 20
38.697767
  0
VERTEX
  8
campo_jogos
 10
-9.323557
 20
38.697731
  0
VERTEX
  8
campo_jogos
 10
-9.323638
 20
38.697434
  0
VERTEX
  8
campo_jogos
 10
-9.323883
 20
38.697474
  0
VERTEX
  8
campo_jogos
 10
-9.323883
 20
38.697474
  0
SEQEND
  0
POLYLINE
  8
campo_jogos
  6
BYLAYER
 66
1
 70
1
 40
0.000000
 41
0.000000
  0
VERTEX
  8
campo_jogos
 10
-9.323451
 20
38.697835
  0
VERTEX
  8
campo_jogos
 10
-9.323051
 20
38.697768
  0
VERTEX
  8
campo_jogos
 10
-9.323151
 20
38.697362
  0
VERTEX
  8
campo_jogos
 10
-9.323564
 20
38.697441
  0
VERTEX
  8
campo_jogos
 10
-9.323451
 20
38.697835
  0
VERTEX
  8
campo_jogos
 10
-9.323451
 20
38.697835
  0
SEQEND
  0
POLYLINE
  8
campo_jogos
  6
BYLAYER
 66
1
 70
1
 40
0.000000
 41
0.000000
  0
VERTEX
  8
campo_jogos
 10
-9.323541
 20
38.682055
  0
VERTEX
  8
campo_jogos
 10
-9.323166
 20
38.681929
  0
VERTEX
  8
campo_jogos
 10
-9.323244
 20
38.681784
  0
VERTEX
  8
campo_jogos
 10
-9.323620
 20
38.681910
  0
VERTEX
  8
campo_jogos
 10
-9.323541
 20
38.682055
  0
VERTEX
  8
campo_jogos
 10
-9.323541
 20
38.682055
  0
SEQEND
  0
POLYLINE
  8
campo_jogos
  6
BYLAYER
 66
1
 70
1
 40
0.000000
 41
0.000000
  0
VERTEX
  8
campo_jogos
 10
-9.327613
 20
38.680473
  0
VERTEX
  8
campo_jogos
 10
-9.327382
 20
38.680467
  0
VERTEX
  8
campo_jogos
 10
-9.327396
 20
38.680195
  0
VERTEX
  8
campo_jogos
 10
-9.327626
 20
38.680200
  0
VERTEX
  8
campo_jogos
 10
-9.327613
 20
38.680473
  0
VERTEX
  8
campo_jogos
 10
-9.327613
 20
38.680473
  0
SEQEND
  0
POLYLINE
  8
campo_jogos
  6
BYLAYER
 66
1
 70
1
 40
0.000000
 41
0.000000
  0
VERTEX
  8
campo_jogos
 10
-9.365172
 20
38.713445
  0
VERTEX
  8
campo_jogos
 10
-9.365105
 20
38.713324
  0
VERTEX
  8
campo_jogos
 10
-9.365381
 20
38.713231
  0
VERTEX
  8
campo_jogos
 10
-9.365448
 20
38.713352
  0
VERTEX
  8
campo_jogos
 10
-9.365172
 20
38.713445
  0
VERTEX
  8
campo_jogos
 10
-9.365172
 20
38.713445
  0
SEQEND
  0
POLYLINE
  8
campo_jogos
  6
BYLAYER
 66
1
 70
1
 40
0.000000
 41
0.000000
  0
VERTEX
  8
campo_jogos
 10
-9.364065
 20
38.713166
  0
VERTEX
  8
campo_jogos
 10
-9.364071
 20
38.713055
  0
VERTEX
  8
campo_jogos
 10
-9.364302
 20
38.713062
  0
VERTEX
  8
campo_jogos
 10
-9.364297
 20
38.713172
  0
VERTEX
  8
campo_jogos
 10
-9.364065
 20
38.713166
  0
VERTEX
  8
campo_jogos
 10
-9.364065
 20
38.713166
  0
SEQEND
  0
POLYLINE
  8
campo_jogos
  6
BYLAYER
 66
1
 70
1
 40
0.000000
 41
0.000000
  0
VERTEX
  8
campo_jogos
 10
-9.383490
 20
38.702969
  0
VERTEX
  8
campo_jogos
 10
-9.383482
 20
38.703069
  0
VERTEX
  8
campo_jogos
 10
-9.383060
 20
38.703047
  0
VERTEX
  8
campo_jogos
 10
-9.383074
 20
38.702891
  0
VERTEX
  8
campo_jogos
 10
-9.383495
 20
38.702913
  0
VERTEX
  8
campo_jogos
 10
-9.383490
 20
38.702969
  0
VERTEX
  8
campo_jogos
 10
-9.383490
 20
38.702969
  0
SEQEND
  0
POLYLINE
  8
campo_jogos
  6
BYLAYER
 66
1
 70
1
 40
0.000000
 41
0.000000
  0
VERTEX
  8
campo_jogos
 10
-9.374349
 20
38.706697
  0
VERTEX
  8
campo_jogos
 10
-9.374444
 20
38.706708
  0
VERTEX
  8
campo_jogos
 10
-9.374430
 20
38.706783
  0
VERTEX
  8
campo_jogos
 10
-9.374335
 20
38.706772
  0
VERTEX
  8
campo_jogos
 10
-9.374349
 20
38.706697
  0
VERTEX
  8
campo_jogos
 10
-9.374349
 20
38.706697
  0
SEQEND
  0
POLYLINE
  8
campo_jogos
  6
BYLAYER
 66
1
 70
1
 40
0.000000
 41
0.000000
  0
VERTEX
  8
campo_jogos
 10
-9.373913
 20
38.706636
  0
VERTEX
  8
campo_jogos
 10
-9.373899
 20
38.706713
  0
VERTEX
  8
campo_jogos
 10
-9.373840
 20
38.706706
  0
VERTEX
  8
campo_jogos
 10
-9.373848
 20
38.706630
  0
VERTEX
  8
campo_jogos
 10
-9.373913
 20
38.706636
  0
VERTEX
  8
campo_jogos
 10
-9.373913
 20
38.706636
  0
SEQEND
  0
POLYLINE
  8
campo_jogos
  6
BYLAYER
 66
1
 70
1
 40
0.000000
 41
0.000000
  0
VERTEX
  8
campo_jogos
 10
-9.374195
 20
38.706645
  0
VERTEX
  8
campo_jogos
 10
-9.374204
 20
38.706577
  0
VERTEX
  8
campo_jogos
 10
-9.374345
 20
38.706589
  0
VERTEX
  8
campo_jogos
 10
-9.374335
 20
38.706657
  0
VERTEX
  8
campo_jogos
 10
-9.374195
 20
38.706645
  0
VERTEX
  8
campo_jogos
 10
-9.374195
 20
38.706645
  0
SEQEND
  0
POLYLINE
  8
campo_jogos
  6
BYLAYER
 66
1
 70
1
 40
0.000000
 41
0.000000
  0
VERTEX
  8
campo_jogos
 10
-9.374061
 20
38.706632
  0
VERTEX
  8
campo_jogos
 10
-9.374082
 20
38.706505
  0
VERTEX
  8
campo_jogos
 10
-9.374122
 20
38.706508
  0
VERTEX
  8
campo_jogos
 10
-9.374179
 20
38.706548
  0
VERTEX
  8
campo_jogos
 10
-9.374164
 20
38.706639
  0
VERTEX
  8
campo_jogos
 10
-9.374061
 20
38.706632
  0
VERTEX
  8
campo_jogos
 10
-9.374061
 20
38.706632
  0
SEQEND
  0
POLYLINE
  8
campo_jogos
  6
BYLAYER
 66
1
 70
1
 40
0.000000
 41
0.000000
  0
VERTEX
  8
campo_jogos
 10
-9.379290
 20
38.698813
  0
VERTEX
  8
campo_jogos
 10
-9.379395
 20
38.698872
  0
VERTEX
  8
campo_jogos
 10
-9.379274
 20
38.699005
  0
VERTEX
  8
campo_jogos
 10
-9.379169
 20
38.698946
  0
VERTEX
  8
campo_jogos
 10
-9.379290
 20
38.698813
  0
VERTEX
  8
campo_jogos
 10
-9.379290
 20
38.698813
  0
SEQEND
  0
POLYLINE
  8
campo_jogos
  6
BYLAYER
 66
1
 70
1
 40
0.000000
 41
0.000000
  0
VERTEX
  8
campo_jogos
 10
-9.379010
 20
38.699954
  0
VERTEX
  8
campo_jogos
 10
-9.378812
 20
38.699962
  0
VERTEX
  8
campo_jogos
 10
-9.378807
 20
38.699871
  0
VERTEX
  8
campo_jogos
 10
-9.379004
 20
38.699863
  0
VERTEX
  8
campo_jogos
 10
-9.379010
 20
38.699954
  0
VERTEX
  8
campo_jogos
 10
-9.379010
 20
38.699954
  0
SEQEND
  0
POLYLINE
  8
campo_jogos
  6
BYLAYER
 66
1
 70
1
 40
0.000000
 41
0.000000
  0
VERTEX
  8
campo_jogos
 10
-9.379658
 20
38.700499
  0
VERTEX
  8
campo_jogos
 10
-9.379391
 20
38.700468
  0
VERTEX
  8
campo_jogos
 10
-9.379410
 20
38.700368
  0
VERTEX
  8
campo_jogos
 10
-9.379677
 20
38.700400
  0
VERTEX
  8
campo_jogos
 10
-9.379658
 20
38.700499
  0
VERTEX
  8
campo_jogos
 10
-9.379658
 20
38.700499
  0
SEQEND
  0
POLYLINE
  8
campo_jogos
  6
BYLAYER
 66
1
 70
1
 40
0.000000
 41
0.000000
  0
VERTEX
  8
campo_jogos
 10
-9.375308
 20
38.700101
  0
VERTEX
  8
campo_jogos
 10
-9.375560
 20
38.700172
  0
VERTEX
  8
campo_jogos
 10
-9.375516
 20
38.700253
  0
VERTEX
  8
campo_jogos
 10
-9.375269
 20
38.700172
  0
VERTEX
  8
campo_jogos
 10
-9.375308
 20
38.700101
  0
VERTEX
  8
campo_jogos
 10
-9.375308
 20
38.700101
  0
SEQEND
  0
POLYLINE
  8
campo_jogos
  6
BYLAYER
 66
1
 70
1
 40
0.000000
 41
0.000000
  0
VERTEX
  8
campo_jogos
 10
-9.366267
 20
38.699238
  0
VERTEX
  8
campo_jogos
 10
-9.365998
 20
38.699197
  0
VERTEX
  8
campo_jogos
 10
-9.366022
 20
38.699103
  0
VERTEX
  8
campo_jogos
 10
-9.366290
 20
38.699145
  0
VERTEX
  8
campo_jogos
 10
-9.366267
 20
38.699238
  0
VERTEX
  8
campo_jogos
 10
-9.366267
 20
38.699238
  0
SEQEND
  0
POLYLINE
  8
campo_jogos
  6
BYLAYER
 66
1
 70
1
 40
0.000000
 41
0.000000
  0
VERTEX
  8
campo_jogos
 10
-9.366592
 20
38.699192
  0
VERTEX
  8
campo_jogos
 10
-9.366543
 20
38.699400
  0
VERTEX
  8
campo_jogos
 10
-9.366451
 20
38.699387
  0
VERTEX
  8
campo_jogos
 10
-9.366500
 20
38.699178
  0
VERTEX
  8
campo_jogos
 10
-9.366592
 20
38.699192
  0
VERTEX
  8
campo_jogos
 10
-9.366592
 20
38.699192
  0
SEQEND
  0
POLYLINE
  8
campo_jogos
  6
BYLAYER
 66
1
 70
1
 40
0.000000
 41
0.000000
  0
VERTEX
  8
campo_jogos
 10
-9.365678
 20
38.698584
  0
VERTEX
  8
campo_jogos
 10
-9.365924
 20
38.698681
  0
VERTEX
  8
campo_jogos
 10
-9.365866
 20
38.698770
  0
VERTEX
  8
campo_jogos
 10
-9.365621
 20
38.698673
  0
VERTEX
  8
campo_jogos
 10
-9.365678
 20
38.698584
  0
VERTEX
  8
campo_jogos
 10
-9.365678
 20
38.698584
  0
SEQEND
  0
POLYLINE
  8
campo_jogos
  6
BYLAYER
 66
1
 70
1
 40
0.000000
 41
0.000000
  0
VERTEX
  8
campo_jogos
 10
-9.374001
 20
38.700422
  0
VERTEX
  8
campo_jogos
 10
-9.374070
 20
38.700404
  0
VERTEX
  8
campo_jogos
 10
-9.374109
 20
38.700488
  0
VERTEX
  8
campo_jogos
 10
-9.374028
 20
38.700507
  0
VERTEX
  8
campo_jogos
 10
-9.374001
 20
38.700422
  0
VERTEX
  8
campo_jogos
 10
-9.374001
 20
38.700422
  0
SEQEND
  0
POLYLINE
  8
campo_jogos
  6
BYLAYER
 66
1
 70
1
 40
0.000000
 41
0.000000
  0
VERTEX
  8
campo_jogos
 10
-9.373979
 20
38.700435
  0
VERTEX
  8
campo_jogos
 10
-9.374001
 20
38.700504
  0
VERTEX
  8
campo_jogos
 10
-9.373918
 20
38.700522
  0
VERTEX
  8
campo_jogos
 10
-9.373888
 20
38.700456
  0
VERTEX
  8
campo_jogos
 10
-9.373979
 20
38.700435
  0
VERTEX
  8
campo_jogos
 10
-9.373979
 20
38.700435
  0
SEQEND
  0
POLYLINE
  8
campo_jogos
  6
BYLAYER
 66
1
 70
1
 40
0.000000
 41
0.000000
  0
VERTEX
  8
campo_jogos
 10
-9.372187
 20
38.702025
  0
VERTEX
  8
campo_jogos
 10
-9.372483
 20
38.702033
  0
VERTEX
  8
campo_jogos
 10
-9.372479
 20
38.702132
  0
VERTEX
  8
campo_jogos
 10
-9.372183
 20
38.702125
  0
VERTEX
  8
campo_jogos
 10
-9.372187
 20
38.702025
  0
VERTEX
  8
campo_jogos
 10
-9.372187
 20
38.702025
  0
SEQEND
  0
POLYLINE
  8
campo_jogos
  6
BYLAYER
 66
1
 70
1
 40
0.000000
 41
0.000000
  0
VERTEX
  8
campo_jogos
 10
-9.368047
 20
38.699508
  0
VERTEX
  8
campo_jogos
 10
-9.367752
 20
38.699465
  0
VERTEX
  8
campo_jogos
 10
-9.367777
 20
38.699356
  0
VERTEX
  8
campo_jogos
 10
-9.368073
 20
38.699399
  0
VERTEX
  8
campo_jogos
 10
-9.368047
 20
38.699508
  0
VERTEX
  8
campo_jogos
 10
-9.368047
 20
38.699508
  0
SEQEND
  0
POLYLINE
  8
campo_jogos
  6
BYLAYER
 66
1
 70
1
 40
0.000000
 41
0.000000
  0
VERTEX
  8
campo_jogos
 10
-9.379280
 20
38.700439
  0
VERTEX
  8
campo_jogos
 10
-9.379156
 20
38.700416
  0
VERTEX
  8
campo_jogos
 10
-9.379204
 20
38.700204
  0
VERTEX
  8
campo_jogos
 10
-9.379337
 20
38.700227
  0
VERTEX
  8
campo_jogos
 10
-9.379280
 20
38.700439
  0
VERTEX
  8
campo_jogos
 10
-9.379280
 20
38.700439
  0
SEQEND
  0
POLYLINE
  8
campo_jogos
  6
BYLAYER
 66
1
 70
1
 40
0.000000
 41
0.000000
  0
VERTEX
  8
campo_jogos
 10
-9.382986
 20
38.706778
  0
VERTEX
  8
campo_jogos
 10
-9.382947
 20
38.706837
  0
VERTEX
  8
campo_jogos
 10
-9.382807
 20
38.706780
  0
VERTEX
  8
campo_jogos
 10
-9.382756
 20
38.706759
  0
VERTEX
  8
campo_jogos
 10
-9.382957
 20
38.706458
  0
VERTEX
  8
campo_jogos
 10
-9.383147
 20
38.706536
  0
VERTEX
  8
campo_jogos
 10
-9.382986
 20
38.706778
  0
VERTEX
  8
campo_jogos
 10
-9.382986
 20
38.706778
  0
SEQEND
  0
POLYLINE
  8
campo_jogos
  6
BYLAYER
 66
1
 70
1
 40
0.000000
 41
0.000000
  0
VERTEX
  8
campo_jogos
 10
-9.375833
 20
38.704052
  0
VERTEX
  8
campo_jogos
 10
-9.375782
 20
38.704140
  0
VERTEX
  8
campo_jogos
 10
-9.375532
 20
38.704056
  0
VERTEX
  8
campo_jogos
 10
-9.375582
 20
38.703966
  0
VERTEX
  8
campo_jogos
 10
-9.375833
 20
38.704052
  0
VERTEX
  8
campo_jogos
 10
-9.375833
 20
38.704052
  0
SEQEND
  0
POLYLINE
  8
campo_jogos
  6
BYLAYER
 66
1
 70
1
 40
0.000000
 41
0.000000
  0
VERTEX
  8
campo_jogos
 10
-9.383183
 20
38.703059
  0
VERTEX
  8
campo_jogos
 10
-9.383480
 20
38.703073
  0
VERTEX
  8
campo_jogos
 10
-9.383470
 20
38.703185
  0
VERTEX
  8
campo_jogos
 10
-9.383175
 20
38.703165
  0
VERTEX
  8
campo_jogos
 10
-9.383183
 20
38.703059
  0
VERTEX
  8
campo_jogos
 10
-9.383183
 20
38.703059
  0
SEQEND
  0
POLYLINE
  8
campo_jogos
  6
BYLAYER
 66
1
 70
1
 40
0.000000
 41
0.000000
  0
VERTEX
  8
campo_jogos
 10
-9.371902
 20
38.698830
  0
VERTEX
  8
campo_jogos
 10
-9.372132
 20
38.698962
  0
VERTEX
  8
campo_jogos
 10
-9.372045
 20
38.699056
  0
VERTEX
  8
campo_jogos
 10
-9.371813
 20
38.698924
  0
VERTEX
  8
campo_jogos
 10
-9.371902
 20
38.698830
  0
VERTEX
  8
campo_jogos
 10
-9.371902
 20
38.698830
  0
VERTEX
  8
campo_jogos
 10
-9.371902
 20
38.698830
  0
SEQEND
  0
POLYLINE
  8
campo_jogos
  6
BYLAYER
 66
1
 70
1
 40
0.000000
 41
0.000000
  0
VERTEX
  8
campo_jogos
 10
-9.368988
 20
38.699510
  0
VERTEX
  8
campo_jogos
 10
-9.369106
 20
38.699393
  0
VERTEX
  8
campo_jogos
 10
-9.369418
 20
38.699597
  0
VERTEX
  8
campo_jogos
 10
-9.369300
 20
38.699708
  0
VERTEX
  8
campo_jogos
 10
-9.368988
 20
38.699510
  0
VERTEX
  8
campo_jogos
 10
-9.368988
 20
38.699510
  0
SEQEND
  0
POLYLINE
  8
campo_jogos
  6
BYLAYER
 66
1
 70
1
 40
0.000000
 41
0.000000
  0
VERTEX
  8
campo_jogos
 10
-9.368447
 20
38.703156
  0
VERTEX
  8
campo_jogos
 10
-9.368606
 20
38.703150
  0
VERTEX
  8
campo_jogos
 10
-9.368612
 20
38.703240
  0
VERTEX
  8
campo_jogos
 10
-9.368455
 20
38.703249
  0
VERTEX
  8
campo_jogos
 10
-9.368447
 20
38.703156
  0
VERTEX
  8
campo_jogos
 10
-9.368447
 20
38.703156
  0
SEQEND
  0
POLYLINE
  8
campo_jogos
  6
BYLAYER
 66
1
 70
1
 40
0.000000
 41
0.000000
  0
VERTEX
  8
campo_jogos
 10
-9.372816
 20
38.706722
  0
VERTEX
  8
campo_jogos
 10
-9.372816
 20
38.706722
  0
VERTEX
  8
campo_jogos
 10
-9.372806
 20
38.706785
  0
VERTEX
  8
campo_jogos
 10
-9.372602
 20
38.706766
  0
VERTEX
  8
campo_jogos
 10
-9.372612
 20
38.706702
  0
VERTEX
  8
campo_jogos
 10
-9.372816
 20
38.706722
  0
SEQEND
  0
POLYLINE
  8
campo_jogos
  6
BYLAYER
 66
1
 70
1
 40
0.000000
 41
0.000000
  0
VERTEX
  8
campo_jogos
 10
-9.379616
 20
38.704438
  0
VERTEX
  8
campo_jogos
 10
-9.379669
 20
38.704679
  0
VERTEX
  8
campo_jogos
 10
-9.379520
 20
38.704695
  0
VERTEX
  8
campo_jogos
 10
-9.379465
 20
38.704460
  0
VERTEX
  8
campo_jogos
 10
-9.379616
 20
38.704438
  0
VERTEX
  8
campo_jogos
 10
-9.379616
 20
38.704438
  0
SEQEND
  0
POLYLINE
  8
campo_jogos
  6
BYLAYER
 66
1
 70
1
 40
0.000000
 41
0.000000
  0
VERTEX
  8
campo_jogos
 10
-9.361548
 20
38.706231
  0
VERTEX
  8
campo_jogos
 10
-9.361326
 20
38.706169
  0
VERTEX
  8
campo_jogos
 10
-9.361376
 20
38.706061
  0
VERTEX
  8
campo_jogos
 10
-9.361598
 20
38.706123
  0
VERTEX
  8
campo_jogos
 10
-9.361548
 20
38.706231
  0
VERTEX
  8
campo_jogos
 10
-9.361548
 20
38.706231
  0
SEQEND
  0
POLYLINE
  8
campo_jogos
  6
BYLAYER
 66
1
 70
1
 40
0.000000
 41
0.000000
  0
VERTEX
  8
campo_jogos
 10
-9.351814
 20
38.706186
  0
VERTEX
  8
campo_jogos
 10
-9.351181
 20
38.705653
  0
VERTEX
  8
campo_jogos
 10
-9.351529
 20
38.705392
  0
VERTEX
  8
campo_jogos
 10
-9.352161
 20
38.705926
  0
VERTEX
  8
campo_jogos
 10
-9.351923
 20
38.706103
  0
VERTEX
  8
campo_jogos
 10
-9.351814
 20
38.706186
  0
VERTEX
  8
campo_jogos
 10
-9.351814
 20
38.706186
  0
SEQEND
  0
POLYLINE
  8
campo_jogos
  6
BYLAYER
 66
1
 70
1
 40
0.000000
 41
0.000000
  0
VERTEX
  8
campo_jogos
 10
-9.362655
 20
38.700011
  0
VERTEX
  8
campo_jogos
 10
-9.362638
 20
38.700209
  0
VERTEX
  8
campo_jogos
 10
-9.362549
 20
38.700204
  0
VERTEX
  8
campo_jogos
 10
-9.362566
 20
38.700006
  0
VERTEX
  8
campo_jogos
 10
-9.362655
 20
38.700011
  0
VERTEX
  8
campo_jogos
 10
-9.362655
 20
38.700011
  0
SEQEND
  0
POLYLINE
  8
campo_jogos
  6
BYLAYER
 66
1
 70
1
 40
0.000000
 41
0.000000
  0
VERTEX
  8
campo_jogos
 10
-9.362410
 20
38.699300
  0
VERTEX
  8
campo_jogos
 10
-9.362151
 20
38.699365
  0
VERTEX
  8
campo_jogos
 10
-9.362111
 20
38.699268
  0
VERTEX
  8
campo_jogos
 10
-9.362370
 20
38.699203
  0
VERTEX
  8
campo_jogos
 10
-9.362410
 20
38.699300
  0
VERTEX
  8
campo_jogos
 10
-9.362410
 20
38.699300
  0
SEQEND
  0
POLYLINE
  8
campo_jogos
  6
BYLAYER
 66
1
 70
1
 40
0.000000
 41
0.000000
  0
VERTEX
  8
campo_jogos
 10
-9.354555
 20
38.700214
  0
VERTEX
  8
campo_jogos
 10
-9.354689
 20
38.700176
  0
VERTEX
  8
campo_jogos
 10
-9.354763
 20
38.700336
  0
VERTEX
  8
campo_jogos
 10
-9.354630
 20
38.700374
  0
VERTEX
  8
campo_jogos
 10
-9.354555
 20
38.700214
  0
VERTEX
  8
campo_jogos
 10
-9.354555
 20
38.700214
  0
SEQEND
  0
POLYLINE
  8
campo_jogos
  6
BYLAYER
 66
1
 70
1
 40
0.000000
 41
0.000000
  0
VERTEX
  8
campo_jogos
 10
-9.353840
 20
38.701107
  0
VERTEX
  8
campo_jogos
 10
-9.353788
 20
38.701001
  0
VERTEX
  8
campo_jogos
 10
-9.353947
 20
38.700954
  0
VERTEX
  8
campo_jogos
 10
-9.353998
 20
38.701061
  0
VERTEX
  8
campo_jogos
 10
-9.353840
 20
38.701107
  0
VERTEX
  8
campo_jogos
 10
-9.353840
 20
38.701107
  0
SEQEND
  0
POLYLINE
  8
campo_jogos
  6
BYLAYER
 66
1
 70
1
 40
0.000000
 41
0.000000
  0
VERTEX
  8
campo_jogos
 10
-9.346997
 20
38.701274
  0
VERTEX
  8
campo_jogos
 10
-9.347052
 20
38.701272
  0
VERTEX
  8
campo_jogos
 10
-9.347062
 20
38.701412
  0
VERTEX
  8
campo_jogos
 10
-9.347000
 20
38.701415
  0
VERTEX
  8
campo_jogos
 10
-9.346792
 20
38.701425
  0
VERTEX
  8
campo_jogos
 10
-9.346782
 20
38.701284
  0
VERTEX
  8
campo_jogos
 10
-9.346997
 20
38.701274
  0
VERTEX
  8
campo_jogos
 10
-9.346997
 20
38.701274
  0
SEQEND
  0
POLYLINE
  8
campo_jogos
  6
BYLAYER
 66
1
 70
1
 40
0.000000
 41
0.000000
  0
VERTEX
  8
campo_jogos
 10
-9.354424
 20
38.705119
  0
VERTEX
  8
campo_jogos
 10
-9.354325
 20
38.705120
  0
VERTEX
  8
campo_jogos
 10
-9.354317
 20
38.704925
  0
VERTEX
  8
campo_jogos
 10
-9.354421
 20
38.704922
  0
VERTEX
  8
campo_jogos
 10
-9.354424
 20
38.705119
  0
VERTEX
  8
campo_jogos
 10
-9.354424
 20
38.705119
  0
SEQEND
  0
POLYLINE
  8
campo_jogos
  6
BYLAYER
 66
1
 70
1
 40
0.000000
 41
0.000000
  0
VERTEX
  8
campo_jogos
 10
-9.348999
 20
38.685541
  0
VERTEX
  8
campo_jogos
 10
-9.348951
 20
38.685455
  0
VERTEX
  8
campo_jogos
 10
-9.348956
 20
38.685445
  0
VERTEX
  8
campo_jogos
 10
-9.348967
 20
38.685435
  0
VERTEX
  8
campo_jogos
 10
-9.348980
 20
38.685427
  0
VERTEX
  8
campo_jogos
 10
-9.348994
 20
38.685422
  0
VERTEX
  8
campo_jogos
 10
-9.349010
 20
38.685419
  0
VERTEX
  8
campo_jogos
 10
-9.349026
 20
38.685418
  0
VERTEX
  8
campo_jogos
 10
-9.349042
 20
38.685420
  0
VERTEX
  8
campo_jogos
 10
-9.349058
 20
38.685424
  0
VERTEX
  8
campo_jogos
 10
-9.349101
 20
38.685499
  0
VERTEX
  8
campo_jogos
 10
-9.349095
 20
38.685511
  0
VERTEX
  8
campo_jogos
 10
-9.349086
 20
38.685522
  0
VERTEX
  8
campo_jogos
 10
-9.349073
 20
38.685531
  0
VERTEX
  8
campo_jogos
 10
-9.349054
 20
38.685539
  0
VERTEX
  8
campo_jogos
 10
-9.349032
 20
38.685543
  0
VERTEX
  8
campo_jogos
 10
-9.348999
 20
38.685541
  0
VERTEX
  8
campo_jogos
 10
-9.348999
 20
38.685541
  0
SEQEND
  0
POLYLINE
  8
campo_jogos
  6
BYLAYER
 66
1
 70
1
 40
0.000000
 41
0.000000
  0
VERTEX
  8
campo_jogos
 10
-9.353955
 20
38.688047
  0
VERTEX
  8
campo_jogos
 10
-9.354088
 20
38.688041
  0
VERTEX
  8
campo_jogos
 10
-9.354107
 20
38.688274
  0
VERTEX
  8
campo_jogos
 10
-9.353969
 20
38.688268
  0
VERTEX
  8
campo_jogos
 10
-9.353955
 20
38.688047
  0
VERTEX
  8
campo_jogos
 10
-9.353955
 20
38.688047
  0
SEQEND
  0
POLYLINE
  8
campo_jogos
  6
BYLAYER
 66
1
 70
1
 40
0.000000
 41
0.000000
  0
VERTEX
  8
campo_jogos
 10
-9.346776
 20
38.682363
  0
VERTEX
  8
campo_jogos
 10
-9.346933
 20
38.682226
  0
VERTEX
  8
campo_jogos
 10
-9.347020
 20
38.682288
  0
VERTEX
  8
campo_jogos
 10
-9.346863
 20
38.682425
  0
VERTEX
  8
campo_jogos
 10
-9.346776
 20
38.682363
  0
VERTEX
  8
campo_jogos
 10
-9.346776
 20
38.682363
  0
SEQEND
  0
POLYLINE
  8
campo_jogos
  6
BYLAYER
 66
1
 70
1
 40
0.000000
 41
0.000000
  0
VERTEX
  8
campo_jogos
 10
-9.348646
 20
38.685128
  0
VERTEX
  8
campo_jogos
 10
-9.348406
 20
38.684810
  0
VERTEX
  8
campo_jogos
 10
-9.348466
 20
38.684783
  0
VERTEX
  8
campo_jogos
 10
-9.348612
 20
38.684717
  0
VERTEX
  8
campo_jogos
 10
-9.348845
 20
38.685034
  0
VERTEX
  8
campo_jogos
 10
-9.348646
 20
38.685128
  0
VERTEX
  8
campo_jogos
 10
-9.348646
 20
38.685128
  0
SEQEND
  0
POLYLINE
  8
campo_jogos
  6
BYLAYER
 66
1
 70
1
 40
0.000000
 41
0.000000
  0
VERTEX
  8
campo_jogos
 10
-9.354042
 20
38.687780
  0
VERTEX
  8
campo_jogos
 10
-9.354043
 20
38.687895
  0
VERTEX
  8
campo_jogos
 10
-9.353969
 20
38.687896
  0
VERTEX
  8
campo_jogos
 10
-9.353967
 20
38.687781
  0
VERTEX
  8
campo_jogos
 10
-9.354042
 20
38.687780
  0
VERTEX
  8
campo_jogos
 10
-9.354042
 20
38.687780
  0
SEQEND
  0
POLYLINE
  8
campo_jogos
  6
BYLAYER
 66
1
 70
1
 40
0.000000
 41
0.000000
  0
VERTEX
  8
campo_jogos
 10
-9.349213
 20
38.685927
  0
VERTEX
  8
campo_jogos
 10
-9.349201
 20
38.685926
  0
VERTEX
  8
campo_jogos
 10
-9.349189
 20
38.685923
  0
VERTEX
  8
campo_jogos
 10
-9.349178
 20
38.685919
  0
VERTEX
  8
campo_jogos
 10
-9.349169
 20
38.685913
  0
VERTEX
  8
campo_jogos
 10
-9.349161
 20
38.685905
  0
VERTEX
  8
campo_jogos
 10
-9.349155
 20
38.685897
  0
VERTEX
  8
campo_jogos
 10
-9.349152
 20
38.685887
  0
VERTEX
  8
campo_jogos
 10
-9.349151
 20
38.685878
  0
VERTEX
  8
campo_jogos
 10
-9.349152
 20
38.685868
  0
VERTEX
  8
campo_jogos
 10
-9.349156
 20
38.685859
  0
VERTEX
  8
campo_jogos
 10
-9.349162
 20
38.685851
  0
VERTEX
  8
campo_jogos
 10
-9.349170
 20
38.685843
  0
VERTEX
  8
campo_jogos
 10
-9.349180
 20
38.685838
  0
VERTEX
  8
campo_jogos
 10
-9.349191
 20
38.685833
  0
VERTEX
  8
campo_jogos
 10
-9.349203
 20
38.685831
  0
VERTEX
  8
campo_jogos
 10
-9.349215
 20
38.685830
  0
VERTEX
  8
campo_jogos
 10
-9.349227
 20
38.685832
  0
VERTEX
  8
campo_jogos
 10
-9.349239
 20
38.685835
  0
VERTEX
  8
campo_jogos
 10
-9.349250
 20
38.685840
  0
VERTEX
  8
campo_jogos
 10
-9.349259
 20
38.685847
  0
VERTEX
  8
campo_jogos
 10
-9.349266
 20
38.685854
  0
VERTEX
  8
campo_jogos
 10
-9.349271
 20
38.685863
  0
VERTEX
  8
campo_jogos
 10
-9.349273
 20
38.685873
  0
VERTEX
  8
campo_jogos
 10
-9.349274
 20
38.685882
  0
VERTEX
  8
campo_jogos
 10
-9.349272
 20
38.685892
  0
VERTEX
  8
campo_jogos
 10
-9.349267
 20
38.685901
  0
VERTEX
  8
campo_jogos
 10
-9.349260
 20
38.685909
  0
VERTEX
  8
campo_jogos
 10
-9.349252
 20
38.685916
  0
VERTEX
  8
campo_jogos
 10
-9.349242
 20
38.685921
  0
VERTEX
  8
campo_jogos
 10
-9.349230
 20
38.685925
  0
VERTEX
  8
campo_jogos
 10
-9.349218
 20
38.685926
  0
VERTEX
  8
campo_jogos
 10
-9.349213
 20
38.685927
  0
VERTEX
  8
campo_jogos
 10
-9.349213
 20
38.685927
  0
SEQEND
  0
POLYLINE
  8
campo_jogos
  6
BYLAYER
 66
1
 70
1
 40
0.000000
 41
0.000000
  0
VERTEX
  8
campo_jogos
 10
-9.356171
 20
38.687490
  0
VERTEX
  8
campo_jogos
 10
-9.356193
 20
38.687236
  0
VERTEX
  8
campo_jogos
 10
-9.356372
 20
38.687249
  0
VERTEX
  8
campo_jogos
 10
-9.356351
 20
38.687501
  0
VERTEX
  8
campo_jogos
 10
-9.356312
 20
38.687500
  0
VERTEX
  8
campo_jogos
 10
-9.356255
 20
38.687495
  0
VERTEX
  8
campo_jogos
 10
-9.356171
 20
38.687490
  0
VERTEX
  8
campo_jogos
 10
-9.356171
 20
38.687490
  0
SEQEND
  0
POLYLINE
  8
campo_jogos
  6
BYLAYER
 66
1
 70
1
 40
0.000000
 41
0.000000
  0
VERTEX
  8
campo_jogos
 10
-9.383851
 20
38.715534
  0
VERTEX
  8
campo_jogos
 10
-9.383731
 20
38.715342
  0
VERTEX
  8
campo_jogos
 10
-9.383844
 20
38.715299
  0
VERTEX
  8
campo_jogos
 10
-9.383964
 20
38.715491
  0
VERTEX
  8
campo_jogos
 10
-9.383851
 20
38.715534
  0
VERTEX
  8
campo_jogos
 10
-9.383851
 20
38.715534
  0
SEQEND
  0
POLYLINE
  8
campo_jogos
  6
BYLAYER
 66
1
 70
1
 40
0.000000
 41
0.000000
  0
VERTEX
  8
campo_jogos
 10
-9.375901
 20
38.713174
  0
VERTEX
  8
campo_jogos
 10
-9.375600
 20
38.713299
  0
VERTEX
  8
campo_jogos
 10
-9.375520
 20
38.713181
  0
VERTEX
  8
campo_jogos
 10
-9.375822
 20
38.713056
  0
VERTEX
  8
campo_jogos
 10
-9.375901
 20
38.713174
  0
VERTEX
  8
campo_jogos
 10
-9.375901
 20
38.713174
  0
SEQEND
  0
POLYLINE
  8
campo_jogos
  6
BYLAYER
 66
1
 70
1
 40
0.000000
 41
0.000000
  0
VERTEX
  8
campo_jogos
 10
-9.376323
 20
38.714851
  0
VERTEX
  8
campo_jogos
 10
-9.376224
 20
38.714789
  0
VERTEX
  8
campo_jogos
 10
-9.376393
 20
38.714622
  0
VERTEX
  8
campo_jogos
 10
-9.376492
 20
38.714684
  0
VERTEX
  8
campo_jogos
 10
-9.376323
 20
38.714851
  0
VERTEX
  8
campo_jogos
 10
-9.376323
 20
38.714851
  0
SEQEND
  0
POLYLINE
  8
campo_jogos
  6
BYLAYER
 66
1
 70
1
 40
0.000000
 41
0.000000
  0
VERTEX
  8
campo_jogos
 10
-9.376747
 20
38.714129
  0
VERTEX
  8
campo_jogos
 10
-9.376645
 20
38.714019
  0
VERTEX
  8
campo_jogos
 10
-9.376810
 20
38.713946
  0
VERTEX
  8
campo_jogos
 10
-9.376823
 20
38.713941
  0
VERTEX
  8
campo_jogos
 10
-9.376922
 20
38.714088
  0
VERTEX
  8
campo_jogos
 10
-9.376884
 20
38.714099
  0
VERTEX
  8
campo_jogos
 10
-9.376825
 20
38.714117
  0
VERTEX
  8
campo_jogos
 10
-9.376747
 20
38.714129
  0
VERTEX
  8
campo_jogos
 10
-9.376747
 20
38.714129
  0
SEQEND
  0
POLYLINE
  8
campo_jogos
  6
BYLAYER
 66
1
 70
1
 40
0.000000
 41
0.000000
  0
VERTEX
  8
campo_jogos
 10
-9.367956
 20
38.711582
  0
VERTEX
  8
campo_jogos
 10
-9.367722
 20
38.711694
  0
VERTEX
  8
campo_jogos
 10
-9.367656
 20
38.711610
  0
VERTEX
  8
campo_jogos
 10
-9.367890
 20
38.711498
  0
VERTEX
  8
campo_jogos
 10
-9.367956
 20
38.711582
  0
VERTEX
  8
campo_jogos
 10
-9.367956
 20
38.711582
  0
SEQEND
  0
POLYLINE
  8
campo_jogos
  6
BYLAYER
 66
1
 70
1
 40
0.000000
 41
0.000000
  0
VERTEX
  8
campo_jogos
 10
-9.370007
 20
38.714388
  0
VERTEX
  8
campo_jogos
 10
-9.370085
 20
38.714593
  0
VERTEX
  8
campo_jogos
 10
-9.369964
 20
38.714622
  0
VERTEX
  8
campo_jogos
 10
-9.369886
 20
38.714416
  0
VERTEX
  8
campo_jogos
 10
-9.370007
 20
38.714388
  0
VERTEX
  8
campo_jogos
 10
-9.370007
 20
38.714388
  0
SEQEND
  0
POLYLINE
  8
campo_jogos
  6
BYLAYER
 66
1
 70
1
 40
0.000000
 41
0.000000
  0
VERTEX
  8
campo_jogos
 10
-9.365633
 20
38.715489
  0
VERTEX
  8
campo_jogos
 10
-9.365640
 20
38.715455
  0
VERTEX
  8
campo_jogos
 10
-9.365763
 20
38.715473
  0
VERTEX
  8
campo_jogos
 10
-9.365723
 20
38.715684
  0
VERTEX
  8
campo_jogos
 10
-9.365637
 20
38.715672
  0
VERTEX
  8
campo_jogos
 10
-9.365600
 20
38.715666
  0
VERTEX
  8
campo_jogos
 10
-9.365633
 20
38.715489
  0
VERTEX
  8
campo_jogos
 10
-9.365633
 20
38.715489
  0
SEQEND
  0
POLYLINE
  8
campo_jogos
  6
BYLAYER
 66
1
 70
1
 40
0.000000
 41
0.000000
  0
VERTEX
  8
campo_jogos
 10
-9.373858
 20
38.707870
  0
VERTEX
  8
campo_jogos
 10
-9.373887
 20
38.707723
  0
VERTEX
  8
campo_jogos
 10
-9.373898
 20
38.707651
  0
VERTEX
  8
campo_jogos
 10
-9.374104
 20
38.707678
  0
VERTEX
  8
campo_jogos
 10
-9.374221
 20
38.707693
  0
VERTEX
  8
campo_jogos
 10
-9.374146
 20
38.708076
  0
VERTEX
  8
campo_jogos
 10
-9.373825
 20
38.708035
  0
VERTEX
  8
campo_jogos
 10
-9.373858
 20
38.707870
  0
VERTEX
  8
campo_jogos
 10
-9.373858
 20
38.707870
  0
SEQEND
  0
POLYLINE
  8
campo_jogos
  6
BYLAYER
 66
1
 70
1
 40
0.000000
 41
0.000000
  0
VERTEX
  8
campo_jogos
 10
-9.378618
 20
38.714490
  0
VERTEX
  8
campo_jogos
 10
-9.378618
 20
38.714490
  0
VERTEX
  8
campo_jogos
 10
-9.378510
 20
38.714785
  0
VERTEX
  8
campo_jogos
 10
-9.378340
 20
38.714749
  0
VERTEX
  8
campo_jogos
 10
-9.378449
 20
38.714451
  0
VERTEX
  8
campo_jogos
 10
-9.378618
 20
38.714490
  0
VERTEX
  8
campo_jogos
 10
-9.378618
 20
38.714490
  0
SEQEND
  0
POLYLINE
  8
campo_jogos
  6
BYLAYER
 66
1
 70
1
 40
0.000000
 41
0.000000
  0
VERTEX
  8
campo_jogos
 10
-9.378416
 20
38.707441
  0
VERTEX
  8
campo_jogos
 10
-9.378099
 20
38.707767
  0
VERTEX
  8
campo_jogos
 10
-9.377896
 20
38.707652
  0
VERTEX
  8
campo_jogos
 10
-9.378214
 20
38.707318
  0
VERTEX
  8
campo_jogos
 10
-9.378416
 20
38.707441
  0
VERTEX
  8
campo_jogos
 10
-9.378416
 20
38.707441
  0
VERTEX
  8
campo_jogos
 10
-9.378416
 20
38.707441
  0
SEQEND
  0
POLYLINE
  8
campo_jogos
  6
BYLAYER
 66
1
 70
1
 40
0.000000
 41
0.000000
  0
VERTEX
  8
campo_jogos
 10
-9.323297
 20
38.677746
  0
VERTEX
  8
campo_jogos
 10
-9.323414
 20
38.677404
  0
VERTEX
  8
campo_jogos
 10
-9.323846
 20
38.677496
  0
VERTEX
  8
campo_jogos
 10
-9.323748
 20
38.677802
  0
VERTEX
  8
campo_jogos
 10
-9.323735
 20
38.677839
  0
VERTEX
  8
campo_jogos
 10
-9.323541
 20
38.677798
  0
VERTEX
  8
campo_jogos
 10
-9.323492
 20
38.677787
  0
VERTEX
  8
campo_jogos
 10
-9.323302
 20
38.677746
  0
VERTEX
  8
campo_jogos
 10
-9.323297
 20
38.677746
  0
VERTEX
  8
campo_jogos
 10
-9.323297
 20
38.677746
  0
SEQEND
  0
POLYLINE
  8
campo_jogos
  6
BYLAYER
 66
1
 70
1
 40
0.000000
 41
0.000000
  0
VERTEX
  8
campo_jogos
 10
-9.322883
 20
38.678164
  0
VERTEX
  8
campo_jogos
 10
-9.323037
 20
38.677748
  0
VERTEX
  8
campo_jogos
 10
-9.323964
 20
38.677934
  0
VERTEX
  8
campo_jogos
 10
-9.323823
 20
38.678358
  0
VERTEX
  8
campo_jogos
 10
-9.322883
 20
38.678164
  0
VERTEX
  8
campo_jogos
 10
-9.322883
 20
38.678164
  0
SEQEND
  0
POLYLINE
  8
campo_jogos
  6
BYLAYER
 66
1
 70
1
 40
0.000000
 41
0.000000
  0
VERTEX
  8
campo_jogos
 10
-9.446702
 20
38.759093
  0
VERTEX
  8
campo_jogos
 10
-9.447013
 20
38.758875
  0
VERTEX
  8
campo_jogos
 10
-9.447092
 20
38.758942
  0
VERTEX
  8
campo_jogos
 10
-9.447154
 20
38.758994
  0
VERTEX
  8
campo_jogos
 10
-9.446840
 20
38.759213
  0
VERTEX
  8
campo_jogos
 10
-9.446702
 20
38.759093
  0
VERTEX
  8
campo_jogos
 10
-9.446702
 20
38.759093
  0
SEQEND
  0
POLYLINE
  8
campo_jogos
  6
BYLAYER
 66
1
 70
1
 40
0.000000
 41
0.000000
  0
VERTEX
  8
campo_jogos
 10
-9.452526
 20
38.754728
  0
VERTEX
  8
campo_jogos
 10
-9.452738
 20
38.754865
  0
VERTEX
  8
campo_jogos
 10
-9.452659
 20
38.754943
  0
VERTEX
  8
campo_jogos
 10
-9.452444
 20
38.754806
  0
VERTEX
  8
campo_jogos
 10
-9.452526
 20
38.754728
  0
VERTEX
  8
campo_jogos
 10
-9.452526
 20
38.754728
  0
SEQEND
  0
POLYLINE
  8
campo_jogos
  6
BYLAYER
 66
1
 70
1
 40
0.000000
 41
0.000000
  0
VERTEX
  8
campo_jogos
 10
-9.446668
 20
38.757367
  0
VERTEX
  8
campo_jogos
 10
-9.446684
 20
38.757583
  0
VERTEX
  8
campo_jogos
 10
-9.446557
 20
38.757588
  0
VERTEX
  8
campo_jogos
 10
-9.446541
 20
38.757373
  0
VERTEX
  8
campo_jogos
 10
-9.446668
 20
38.757367
  0
VERTEX
  8
campo_jogos
 10
-9.446668
 20
38.757367
  0
SEQEND
  0
POLYLINE
  8
campo_jogos
  6
BYLAYER
 66
1
 70
1
 40
0.000000
 41
0.000000
  0
VERTEX
  8
campo_jogos
 10
-9.445339
 20
38.752501
  0
VERTEX
  8
campo_jogos
 10
-9.445298
 20
38.752404
  0
VERTEX
  8
campo_jogos
 10
-9.445560
 20
38.752336
  0
VERTEX
  8
campo_jogos
 10
-9.445602
 20
38.752432
  0
VERTEX
  8
campo_jogos
 10
-9.445339
 20
38.752501
  0
VERTEX
  8
campo_jogos
 10
-9.445339
 20
38.752501
  0
SEQEND
  0
POLYLINE
  8
campo_jogos
  6
BYLAYER
 66
1
 70
1
 40
0.000000
 41
0.000000
  0
VERTEX
  8
campo_jogos
 10
-9.441277
 20
38.751866
  0
VERTEX
  8
campo_jogos
 10
-9.441151
 20
38.751873
  0
VERTEX
  8
campo_jogos
 10
-9.441131
 20
38.751659
  0
VERTEX
  8
campo_jogos
 10
-9.441257
 20
38.751651
  0
VERTEX
  8
campo_jogos
 10
-9.441277
 20
38.751866
  0
VERTEX
  8
campo_jogos
 10
-9.441277
 20
38.751866
  0
SEQEND
  0
POLYLINE
  8
campo_jogos
  6
BYLAYER
 66
1
 70
1
 40
0.000000
 41
0.000000
  0
VERTEX
  8
campo_jogos
 10
-9.439094
 20
38.730374
  0
VERTEX
  8
campo_jogos
 10
-9.439124
 20
38.730097
  0
VERTEX
  8
campo_jogos
 10
-9.439305
 20
38.730113
  0
VERTEX
  8
campo_jogos
 10
-9.439275
 20
38.730389
  0
VERTEX
  8
campo_jogos
 10
-9.439094
 20
38.730374
  0
VERTEX
  8
campo_jogos
 10
-9.439094
 20
38.730374
  0
SEQEND
  0
POLYLINE
  8
campo_jogos
  6
BYLAYER
 66
1
 70
1
 40
0.000000
 41
0.000000
  0
VERTEX
  8
campo_jogos
 10
-9.433651
 20
38.724374
  0
VERTEX
  8
campo_jogos
 10
-9.433678
 20
38.724472
  0
VERTEX
  8
campo_jogos
 10
-9.433407
 20
38.724517
  0
VERTEX
  8
campo_jogos
 10
-9.433383
 20
38.724418
  0
VERTEX
  8
campo_jogos
 10
-9.433651
 20
38.724374
  0
VERTEX
  8
campo_jogos
 10
-9.433651
 20
38.724374
  0
SEQEND
  0
POLYLINE
  8
campo_jogos
  6
BYLAYER
 66
1
 70
1
 40
0.000000
 41
0.000000
  0
VERTEX
  8
campo_jogos
 10
-9.432608
 20
38.705618
  0
VERTEX
  8
campo_jogos
 10
-9.432579
 20
38.705569
  0
VERTEX
  8
campo_jogos
 10
-9.432622
 20
38.705552
  0
VERTEX
  8
campo_jogos
 10
-9.432660
 20
38.705609
  0
VERTEX
  8
campo_jogos
 10
-9.432641
 20
38.705617
  0
VERTEX
  8
campo_jogos
 10
-9.432633
 20
38.705605
  0
VERTEX
  8
campo_jogos
 10
-9.432608
 20
38.705618
  0
VERTEX
  8
campo_jogos
 10
-9.432608
 20
38.705618
  0
SEQEND
  0
POLYLINE
  8
campo_jogos
  6
BYLAYER
 66
1
 70
1
 40
0.000000
 41
0.000000
  0
VERTEX
  8
campo_jogos
 10
-9.436238
 20
38.703734
  0
VERTEX
  8
campo_jogos
 10
-9.436239
 20
38.703827
  0
VERTEX
  8
campo_jogos
 10
-9.436019
 20
38.703830
  0
VERTEX
  8
campo_jogos
 10
-9.436017
 20
38.703736
  0
VERTEX
  8
campo_jogos
 10
-9.436238
 20
38.703734
  0
VERTEX
  8
campo_jogos
 10
-9.436238
 20
38.703734
  0
SEQEND
  0
POLYLINE
  8
campo_jogos
  6
BYLAYER
 66
1
 70
1
 40
0.000000
 41
0.000000
  0
VERTEX
  8
campo_jogos
 10
-9.435913
 20
38.703492
  0
VERTEX
  8
campo_jogos
 10
-9.435914
 20
38.703569
  0
VERTEX
  8
campo_jogos
 10
-9.435712
 20
38.703571
  0
VERTEX
  8
campo_jogos
 10
-9.435711
 20
38.703494
  0
VERTEX
  8
campo_jogos
 10
-9.435913
 20
38.703492
  0
VERTEX
  8
campo_jogos
 10
-9.435913
 20
38.703492
  0
SEQEND
  0
POLYLINE
  8
campo_jogos
  6
BYLAYER
 66
1
 70
1
 40
0.000000
 41
0.000000
  0
VERTEX
  8
campo_jogos
 10
-9.435280
 20
38.703837
  0
VERTEX
  8
campo_jogos
 10
-9.435277
 20
38.703475
  0
VERTEX
  8
campo_jogos
 10
-9.435551
 20
38.703473
  0
VERTEX
  8
campo_jogos
 10
-9.435549
 20
38.703780
  0
VERTEX
  8
campo_jogos
 10
-9.435533
 20
38.703780
  0
VERTEX
  8
campo_jogos
 10
-9.435533
 20
38.703835
  0
VERTEX
  8
campo_jogos
 10
-9.435280
 20
38.703837
  0
VERTEX
  8
campo_jogos
 10
-9.435280
 20
38.703837
  0
SEQEND
  0
POLYLINE
  8
campo_jogos
  6
BYLAYER
 66
1
 70
1
 40
0.000000
 41
0.000000
  0
VERTEX
  8
campo_jogos
 10
-9.428109
 20
38.702027
  0
VERTEX
  8
campo_jogos
 10
-9.427692
 20
38.702186
  0
VERTEX
  8
campo_jogos
 10
-9.427590
 20
38.702020
  0
VERTEX
  8
campo_jogos
 10
-9.428006
 20
38.701862
  0
VERTEX
  8
campo_jogos
 10
-9.428109
 20
38.702027
  0
VERTEX
  8
campo_jogos
 10
-9.428109
 20
38.702027
  0
SEQEND
  0
POLYLINE
  8
campo_jogos
  6
BYLAYER
 66
1
 70
1
 40
0.000000
 41
0.000000
  0
VERTEX
  8
campo_jogos
 10
-9.428812
 20
38.704485
  0
VERTEX
  8
campo_jogos
 10
-9.428814
 20
38.704481
  0
VERTEX
  8
campo_jogos
 10
-9.428951
 20
38.704339
  0
VERTEX
  8
campo_jogos
 10
-9.428987
 20
38.704301
  0
VERTEX
  8
campo_jogos
 10
-9.429097
 20
38.704188
  0
VERTEX
  8
campo_jogos
 10
-9.429164
 20
38.704120
  0
VERTEX
  8
campo_jogos
 10
-9.429273
 20
38.704166
  0
VERTEX
  8
campo_jogos
 10
-9.429394
 20
38.704322
  0
VERTEX
  8
campo_jogos
 10
-9.429128
 20
38.704444
  0
VERTEX
  8
campo_jogos
 10
-9.429114
 20
38.704448
  0
VERTEX
  8
campo_jogos
 10
-9.429106
 20
38.704446
  0
VERTEX
  8
campo_jogos
 10
-9.429099
 20
38.704435
  0
VERTEX
  8
campo_jogos
 10
-9.429098
 20
38.704430
  0
VERTEX
  8
campo_jogos
 10
-9.429098
 20
38.704419
  0
VERTEX
  8
campo_jogos
 10
-9.429056
 20
38.704414
  0
VERTEX
  8
campo_jogos
 10
-9.429052
 20
38.704429
  0
VERTEX
  8
campo_jogos
 10
-9.428968
 20
38.704473
  0
VERTEX
  8
campo_jogos
 10
-9.428959
 20
38.704463
  0
VERTEX
  8
campo_jogos
 10
-9.428906
 20
38.704497
  0
VERTEX
  8
campo_jogos
 10
-9.428847
 20
38.704523
  0
VERTEX
  8
campo_jogos
 10
-9.428812
 20
38.704485
  0
VERTEX
  8
campo_jogos
 10
-9.428812
 20
38.704485
  0
SEQEND
  0
POLYLINE
  8
campo_jogos
  6
BYLAYER
 66
1
 70
1
 40
0.000000
 41
0.000000
  0
VERTEX
  8
campo_jogos
 10
-9.438475
 20
38.701631
  0
VERTEX
  8
campo_jogos
 10
-9.438434
 20
38.701444
  0
VERTEX
  8
campo_jogos
 10
-9.438436
 20
38.701443
  0
VERTEX
  8
campo_jogos
 10
-9.438441
 20
38.701441
  0
VERTEX
  8
campo_jogos
 10
-9.438445
 20
38.701439
  0
VERTEX
  8
campo_jogos
 10
-9.438452
 20
38.701437
  0
VERTEX
  8
campo_jogos
 10
-9.438919
 20
38.701373
  0
VERTEX
  8
campo_jogos
 10
-9.438939
 20
38.701464
  0
VERTEX
  8
campo_jogos
 10
-9.438961
 20
38.701563
  0
VERTEX
  8
campo_jogos
 10
-9.438475
 20
38.701631
  0
VERTEX
  8
campo_jogos
 10
-9.438475
 20
38.701631
  0
SEQEND
  0
POLYLINE
  8
campo_jogos
  6
BYLAYER
 66
1
 70
1
 40
0.000000
 41
0.000000
  0
VERTEX
  8
campo_jogos
 10
-9.436406
 20
38.698790
  0
VERTEX
  8
campo_jogos
 10
-9.436383
 20
38.698792
  0
VERTEX
  8
campo_jogos
 10
-9.436272
 20
38.698802
  0
VERTEX
  8
campo_jogos
 10
-9.436246
 20
38.698804
  0
VERTEX
  8
campo_jogos
 10
-9.436160
 20
38.698811
  0
VERTEX
  8
campo_jogos
 10
-9.436156
 20
38.698650
  0
VERTEX
  8
campo_jogos
 10
-9.436368
 20
38.698571
  0
VERTEX
  8
campo_jogos
 10
-9.436372
 20
38.698571
  0
VERTEX
  8
campo_jogos
 10
-9.436373
 20
38.698578
  0
VERTEX
  8
campo_jogos
 10
-9.436403
 20
38.698716
  0
VERTEX
  8
campo_jogos
 10
-9.436404
 20
38.698733
  0
VERTEX
  8
campo_jogos
 10
-9.436406
 20
38.698790
  0
VERTEX
  8
campo_jogos
 10
-9.436406
 20
38.698790
  0
SEQEND
  0
POLYLINE
  8
campo_jogos
  6
BYLAYER
 66
1
 70
1
 40
0.000000
 41
0.000000
  0
VERTEX
  8
campo_jogos
 10
-9.424943
 20
38.698853
  0
VERTEX
  8
campo_jogos
 10
-9.424820
 20
38.698700
  0
VERTEX
  8
campo_jogos
 10
-9.424937
 20
38.698642
  0
VERTEX
  8
campo_jogos
 10
-9.425062
 20
38.698797
  0
VERTEX
  8
campo_jogos
 10
-9.424943
 20
38.698853
  0
VERTEX
  8
campo_jogos
 10
-9.424943
 20
38.698853
  0
SEQEND
  0
POLYLINE
  8
campo_jogos
  6
BYLAYER
 66
1
 70
1
 40
0.000000
 41
0.000000
  0
VERTEX
  8
campo_jogos
 10
-9.431822
 20
38.704309
  0
VERTEX
  8
campo_jogos
 10
-9.431600
 20
38.704239
  0
VERTEX
  8
campo_jogos
 10
-9.431596
 20
38.704232
  0
VERTEX
  8
campo_jogos
 10
-9.431641
 20
38.704140
  0
VERTEX
  8
campo_jogos
 10
-9.431649
 20
38.704137
  0
VERTEX
  8
campo_jogos
 10
-9.431875
 20
38.704206
  0
VERTEX
  8
campo_jogos
 10
-9.431878
 20
38.704212
  0
VERTEX
  8
campo_jogos
 10
-9.431830
 20
38.704305
  0
VERTEX
  8
campo_jogos
 10
-9.431822
 20
38.704309
  0
VERTEX
  8
campo_jogos
 10
-9.431822
 20
38.704309
  0
SEQEND
  0
POLYLINE
  8
campo_jogos
  6
BYLAYER
 66
1
 70
1
 40
0.000000
 41
0.000000
  0
VERTEX
  8
campo_jogos
 10
-9.432921
 20
38.696480
  0
VERTEX
  8
campo_jogos
 10
-9.432787
 20
38.696329
  0
VERTEX
  8
campo_jogos
 10
-9.433174
 20
38.696126
  0
VERTEX
  8
campo_jogos
 10
-9.433305
 20
38.696274
  0
VERTEX
  8
campo_jogos
 10
-9.432921
 20
38.696480
  0
VERTEX
  8
campo_jogos
 10
-9.432921
 20
38.696480
  0
SEQEND
  0
POLYLINE
  8
campo_jogos
  6
BYLAYER
 66
1
 70
1
 40
0.000000
 41
0.000000
  0
VERTEX
  8
campo_jogos
 10
-9.437360
 20
38.696259
  0
VERTEX
  8
campo_jogos
 10
-9.437242
 20
38.696293
  0
VERTEX
  8
campo_jogos
 10
-9.437149
 20
38.696094
  0
VERTEX
  8
campo_jogos
 10
-9.437267
 20
38.696061
  0
VERTEX
  8
campo_jogos
 10
-9.437360
 20
38.696259
  0
VERTEX
  8
campo_jogos
 10
-9.437360
 20
38.696259
  0
SEQEND
  0
POLYLINE
  8
campo_jogos
  6
BYLAYER
 66
1
 70
1
 40
0.000000
 41
0.000000
  0
VERTEX
  8
campo_jogos
 10
-9.437425
 20
38.696377
  0
VERTEX
  8
campo_jogos
 10
-9.437517
 20
38.696573
  0
VERTEX
  8
campo_jogos
 10
-9.437404
 20
38.696606
  0
VERTEX
  8
campo_jogos
 10
-9.437312
 20
38.696409
  0
VERTEX
  8
campo_jogos
 10
-9.437425
 20
38.696377
  0
VERTEX
  8
campo_jogos
 10
-9.437425
 20
38.696377
  0
SEQEND
  0
POLYLINE
  8
campo_jogos
  6
BYLAYER
 66
1
 70
1
 40
0.000000
 41
0.000000
  0
VERTEX
  8
campo_jogos
 10
-9.437794
 20
38.696290
  0
VERTEX
  8
campo_jogos
 10
-9.437687
 20
38.696035
  0
VERTEX
  8
campo_jogos
 10
-9.437896
 20
38.695984
  0
VERTEX
  8
campo_jogos
 10
-9.437993
 20
38.696240
  0
VERTEX
  8
campo_jogos
 10
-9.437794
 20
38.696290
  0
VERTEX
  8
campo_jogos
 10
-9.437794
 20
38.696290
  0
SEQEND
  0
POLYLINE
  8
campo_jogos
  6
BYLAYER
 66
1
 70
1
 40
0.000000
 41
0.000000
  0
VERTEX
  8
campo_jogos
 10
-9.427343
 20
38.693709
  0
VERTEX
  8
campo_jogos
 10
-9.427281
 20
38.693385
  0
VERTEX
  8
campo_jogos
 10
-9.427494
 20
38.693360
  0
VERTEX
  8
campo_jogos
 10
-9.427555
 20
38.693684
  0
VERTEX
  8
campo_jogos
 10
-9.427343
 20
38.693709
  0
VERTEX
  8
campo_jogos
 10
-9.427343
 20
38.693709
  0
SEQEND
  0
POLYLINE
  8
campo_jogos
  6
BYLAYER
 66
1
 70
1
 40
0.000000
 41
0.000000
  0
VERTEX
  8
campo_jogos
 10
-9.428755
 20
38.695401
  0
VERTEX
  8
campo_jogos
 10
-9.428841
 20
38.695440
  0
VERTEX
  8
campo_jogos
 10
-9.428940
 20
38.695485
  0
VERTEX
  8
campo_jogos
 10
-9.428932
 20
38.695498
  0
VERTEX
  8
campo_jogos
 10
-9.428827
 20
38.695666
  0
VERTEX
  8
campo_jogos
 10
-9.428646
 20
38.695564
  0
VERTEX
  8
campo_jogos
 10
-9.428641
 20
38.695561
  0
VERTEX
  8
campo_jogos
 10
-9.428471
 20
38.695470
  0
VERTEX
  8
campo_jogos
 10
-9.428593
 20
38.695311
  0
VERTEX
  8
campo_jogos
 10
-9.428650
 20
38.695342
  0
VERTEX
  8
campo_jogos
 10
-9.428755
 20
38.695401
  0
VERTEX
  8
campo_jogos
 10
-9.428755
 20
38.695401
  0
SEQEND
  0
POLYLINE
  8
campo_jogos
  6
BYLAYER
 66
1
 70
1
 40
0.000000
 41
0.000000
  0
VERTEX
  8
campo_jogos
 10
-9.428213
 20
38.693621
  0
VERTEX
  8
campo_jogos
 10
-9.428188
 20
38.693468
  0
VERTEX
  8
campo_jogos
 10
-9.428576
 20
38.693426
  0
VERTEX
  8
campo_jogos
 10
-9.428601
 20
38.693588
  0
VERTEX
  8
campo_jogos
 10
-9.428498
 20
38.693599
  0
VERTEX
  8
campo_jogos
 10
-9.428497
 20
38.693590
  0
VERTEX
  8
campo_jogos
 10
-9.428315
 20
38.693605
  0
VERTEX
  8
campo_jogos
 10
-9.428316
 20
38.693612
  0
VERTEX
  8
campo_jogos
 10
-9.428213
 20
38.693621
  0
VERTEX
  8
campo_jogos
 10
-9.428213
 20
38.693621
  0
SEQEND
  0
POLYLINE
  8
campo_jogos
  6
BYLAYER
 66
1
 70
1
 40
0.000000
 41
0.000000
  0
VERTEX
  8
campo_jogos
 10
-9.429374
 20
38.693450
  0
VERTEX
  8
campo_jogos
 10
-9.429405
 20
38.693351
  0
VERTEX
  8
campo_jogos
 10
-9.429419
 20
38.693303
  0
VERTEX
  8
campo_jogos
 10
-9.429454
 20
38.693309
  0
VERTEX
  8
campo_jogos
 10
-9.429617
 20
38.693337
  0
VERTEX
  8
campo_jogos
 10
-9.429794
 20
38.693368
  0
VERTEX
  8
campo_jogos
 10
-9.429750
 20
38.693515
  0
VERTEX
  8
campo_jogos
 10
-9.429620
 20
38.693492
  0
VERTEX
  8
campo_jogos
 10
-9.429589
 20
38.693487
  0
VERTEX
  8
campo_jogos
 10
-9.429377
 20
38.693450
  0
VERTEX
  8
campo_jogos
 10
-9.429374
 20
38.693450
  0
VERTEX
  8
campo_jogos
 10
-9.429374
 20
38.693450
  0
SEQEND
  0
POLYLINE
  8
campo_jogos
  6
BYLAYER
 66
1
 70
1
 40
0.000000
 41
0.000000
  0
VERTEX
  8
campo_jogos
 10
-9.427440
 20
38.692411
  0
VERTEX
  8
campo_jogos
 10
-9.427289
 20
38.692527
  0
VERTEX
  8
campo_jogos
 10
-9.426996
 20
38.692293
  0
VERTEX
  8
campo_jogos
 10
-9.427147
 20
38.692177
  0
VERTEX
  8
campo_jogos
 10
-9.427440
 20
38.692411
  0
VERTEX
  8
campo_jogos
 10
-9.427440
 20
38.692411
  0
SEQEND
  0
POLYLINE
  8
campo_jogos
  6
BYLAYER
 66
1
 70
1
 40
0.000000
 41
0.000000
  0
VERTEX
  8
campo_jogos
 10
-9.426133
 20
38.694144
  0
VERTEX
  8
campo_jogos
 10
-9.426123
 20
38.694147
  0
VERTEX
  8
campo_jogos
 10
-9.426112
 20
38.694150
  0
VERTEX
  8
campo_jogos
 10
-9.426099
 20
38.694152
  0
VERTEX
  8
campo_jogos
 10
-9.426090
 20
38.694153
  0
VERTEX
  8
campo_jogos
 10
-9.426087
 20
38.694153
  0
VERTEX
  8
campo_jogos
 10
-9.426075
 20
38.694154
  0
VERTEX
  8
campo_jogos
 10
-9.426062
 20
38.694154
  0
VERTEX
  8
campo_jogos
 10
-9.426050
 20
38.694154
  0
VERTEX
  8
campo_jogos
 10
-9.426037
 20
38.694153
  0
VERTEX
  8
campo_jogos
 10
-9.426025
 20
38.694151
  0
VERTEX
  8
campo_jogos
 10
-9.426013
 20
38.694148
  0
VERTEX
  8
campo_jogos
 10
-9.425990
 20
38.694140
  0
VERTEX
  8
campo_jogos
 10
-9.425681
 20
38.693993
  0
VERTEX
  8
campo_jogos
 10
-9.425671
 20
38.693987
  0
VERTEX
  8
campo_jogos
 10
-9.425662
 20
38.693981
  0
VERTEX
  8
campo_jogos
 10
-9.425653
 20
38.693974
  0
VERTEX
  8
campo_jogos
 10
-9.425645
 20
38.693967
  0
VERTEX
  8
campo_jogos
 10
-9.425637
 20
38.693959
  0
VERTEX
  8
campo_jogos
 10
-9.425630
 20
38.693951
  0
VERTEX
  8
campo_jogos
 10
-9.425624
 20
38.693943
  0
VERTEX
  8
campo_jogos
 10
-9.425619
 20
38.693934
  0
VERTEX
  8
campo_jogos
 10
-9.425615
 20
38.693925
  0
VERTEX
  8
campo_jogos
 10
-9.425611
 20
38.693916
  0
VERTEX
  8
campo_jogos
 10
-9.425608
 20
38.693906
  0
VERTEX
  8
campo_jogos
 10
-9.425606
 20
38.693897
  0
VERTEX
  8
campo_jogos
 10
-9.425605
 20
38.693887
  0
VERTEX
  8
campo_jogos
 10
-9.425605
 20
38.693877
  0
VERTEX
  8
campo_jogos
 10
-9.425606
 20
38.693868
  0
VERTEX
  8
campo_jogos
 10
-9.425608
 20
38.693858
  0
VERTEX
  8
campo_jogos
 10
-9.425610
 20
38.693849
  0
VERTEX
  8
campo_jogos
 10
-9.425614
 20
38.693839
  0
VERTEX
  8
campo_jogos
 10
-9.425618
 20
38.693830
  0
VERTEX
  8
campo_jogos
 10
-9.425623
 20
38.693821
  0
VERTEX
  8
campo_jogos
 10
-9.425628
 20
38.693813
  0
VERTEX
  8
campo_jogos
 10
-9.425635
 20
38.693804
  0
VERTEX
  8
campo_jogos
 10
-9.425642
 20
38.693797
  0
VERTEX
  8
campo_jogos
 10
-9.425650
 20
38.693789
  0
VERTEX
  8
campo_jogos
 10
-9.425659
 20
38.693782
  0
VERTEX
  8
campo_jogos
 10
-9.425668
 20
38.693776
  0
VERTEX
  8
campo_jogos
 10
-9.425678
 20
38.693770
  0
VERTEX
  8
campo_jogos
 10
-9.425688
 20
38.693764
  0
VERTEX
  8
campo_jogos
 10
-9.425699
 20
38.693760
  0
VERTEX
  8
campo_jogos
 10
-9.425710
 20
38.693756
  0
VERTEX
  8
campo_jogos
 10
-9.425722
 20
38.693752
  0
VERTEX
  8
campo_jogos
 10
-9.425733
 20
38.693749
  0
VERTEX
  8
campo_jogos
 10
-9.425745
 20
38.693747
  0
VERTEX
  8
campo_jogos
 10
-9.425758
 20
38.693745
  0
VERTEX
  8
campo_jogos
 10
-9.425770
 20
38.693744
  0
VERTEX
  8
campo_jogos
 10
-9.425782
 20
38.693744
  0
VERTEX
  8
campo_jogos
 10
-9.425795
 20
38.693745
  0
VERTEX
  8
campo_jogos
 10
-9.425807
 20
38.693746
  0
VERTEX
  8
campo_jogos
 10
-9.425830
 20
38.693750
  0
VERTEX
  8
campo_jogos
 10
-9.425838
 20
38.693752
  0
VERTEX
  8
campo_jogos
 10
-9.425843
 20
38.693754
  0
VERTEX
  8
campo_jogos
 10
-9.426172
 20
38.693909
  0
VERTEX
  8
campo_jogos
 10
-9.426182
 20
38.693916
  0
VERTEX
  8
campo_jogos
 10
-9.426191
 20
38.693922
  0
VERTEX
  8
campo_jogos
 10
-9.426199
 20
38.693930
  0
VERTEX
  8
campo_jogos
 10
-9.426207
 20
38.693937
  0
VERTEX
  8
campo_jogos
 10
-9.426214
 20
38.693945
  0
VERTEX
  8
campo_jogos
 10
-9.426220
 20
38.693954
  0
VERTEX
  8
campo_jogos
 10
-9.426226
 20
38.693963
  0
VERTEX
  8
campo_jogos
 10
-9.426230
 20
38.693972
  0
VERTEX
  8
campo_jogos
 10
-9.426234
 20
38.693981
  0
VERTEX
  8
campo_jogos
 10
-9.426237
 20
38.693991
  0
VERTEX
  8
campo_jogos
 10
-9.426239
 20
38.694000
  0
VERTEX
  8
campo_jogos
 10
-9.426240
 20
38.694010
  0
VERTEX
  8
campo_jogos
 10
-9.426240
 20
38.694020
  0
VERTEX
  8
campo_jogos
 10
-9.426239
 20
38.694030
  0
VERTEX
  8
campo_jogos
 10
-9.426238
 20
38.694039
  0
VERTEX
  8
campo_jogos
 10
-9.426235
 20
38.694049
  0
VERTEX
  8
campo_jogos
 10
-9.426232
 20
38.694058
  0
VERTEX
  8
campo_jogos
 10
-9.426228
 20
38.694068
  0
VERTEX
  8
campo_jogos
 10
-9.426223
 20
38.694077
  0
VERTEX
  8
campo_jogos
 10
-9.426217
 20
38.694085
  0
VERTEX
  8
campo_jogos
 10
-9.426211
 20
38.694094
  0
VERTEX
  8
campo_jogos
 10
-9.426203
 20
38.694102
  0
VERTEX
  8
campo_jogos
 10
-9.426195
 20
38.694109
  0
VERTEX
  8
campo_jogos
 10
-9.426187
 20
38.694116
  0
VERTEX
  8
campo_jogos
 10
-9.426177
 20
38.694123
  0
VERTEX
  8
campo_jogos
 10
-9.426168
 20
38.694129
  0
VERTEX
  8
campo_jogos
 10
-9.426157
 20
38.694134
  0
VERTEX
  8
campo_jogos
 10
-9.426146
 20
38.694139
  0
VERTEX
  8
campo_jogos
 10
-9.426135
 20
38.694143
  0
VERTEX
  8
campo_jogos
 10
-9.426133
 20
38.694144
  0
VERTEX
  8
campo_jogos
 10
-9.426133
 20
38.694144
  0
SEQEND
  0
POLYLINE
  8
campo_jogos
  6
BYLAYER
 66
1
 70
1
 40
0.000000
 41
0.000000
  0
VERTEX
  8
campo_jogos
 10
-9.437834
 20
38.695946
  0
VERTEX
  8
campo_jogos
 10
-9.437711
 20
38.695976
  0
VERTEX
  8
campo_jogos
 10
-9.437632
 20
38.695771
  0
VERTEX
  8
campo_jogos
 10
-9.437751
 20
38.695741
  0
VERTEX
  8
campo_jogos
 10
-9.437834
 20
38.695946
  0
VERTEX
  8
campo_jogos
 10
-9.437834
 20
38.695946
  0
SEQEND
  0
POLYLINE
  8
campo_jogos
  6
BYLAYER
 66
1
 70
1
 40
0.000000
 41
0.000000
  0
VERTEX
  8
campo_jogos
 10
-9.430118
 20
38.692131
  0
VERTEX
  8
campo_jogos
 10
-9.429912
 20
38.692103
  0
VERTEX
  8
campo_jogos
 10
-9.429983
 20
38.691781
  0
VERTEX
  8
campo_jogos
 10
-9.430189
 20
38.691809
  0
VERTEX
  8
campo_jogos
 10
-9.430118
 20
38.692131
  0
SEQEND
  0
POLYLINE
  8
campo_jogos
  6
BYLAYER
 66
1
 70
1
 40
0.000000
 41
0.000000
  0
VERTEX
  8
campo_jogos
 10
-9.427770
 20
38.690923
  0
VERTEX
  8
campo_jogos
 10
-9.427770
 20
38.690923
  0
VERTEX
  8
campo_jogos
 10
-9.427685
 20
38.690921
  0
VERTEX
  8
campo_jogos
 10
-9.427689
 20
38.690779
  0
VERTEX
  8
campo_jogos
 10
-9.427775
 20
38.690780
  0
VERTEX
  8
campo_jogos
 10
-9.427770
 20
38.690923
  0
SEQEND
  0
POLYLINE
  8
campo_jogos
  6
BYLAYER
 66
1
 70
1
 40
0.000000
 41
0.000000
  0
VERTEX
  8
campo_jogos
 10
-9.392875
 20
38.715875
  0
VERTEX
  8
campo_jogos
 10
-9.392883
 20
38.716089
  0
VERTEX
  8
campo_jogos
 10
-9.392758
 20
38.716092
  0
VERTEX
  8
campo_jogos
 10
-9.392749
 20
38.715878
  0
VERTEX
  8
campo_jogos
 10
-9.392875
 20
38.715875
  0
VERTEX
  8
campo_jogos
 10
-9.392875
 20
38.715875
  0
SEQEND
  0
POLYLINE
  8
campo_jogos
  6
BYLAYER
 66
1
 70
1
 40
0.000000
 41
0.000000
  0
VERTEX
  8
campo_jogos
 10
-9.392672
 20
38.716095
  0
VERTEX
  8
campo_jogos
 10
-9.392546
 20
38.716098
  0
VERTEX
  8
campo_jogos
 10
-9.392537
 20
38.715884
  0
VERTEX
  8
campo_jogos
 10
-9.392664
 20
38.715881
  0
VERTEX
  8
campo_jogos
 10
-9.392672
 20
38.716095
  0
VERTEX
  8
campo_jogos
 10
-9.392672
 20
38.716095
  0
SEQEND
  0
POLYLINE
  8
campo_jogos
  6
BYLAYER
 66
1
 70
1
 40
0.000000
 41
0.000000
  0
VERTEX
  8
campo_jogos
 10
-9.392308
 20
38.715891
  0
VERTEX
  8
campo_jogos
 10
-9.392315
 20
38.716105
  0
VERTEX
  8
campo_jogos
 10
-9.392190
 20
38.716108
  0
VERTEX
  8
campo_jogos
 10
-9.392183
 20
38.715894
  0
VERTEX
  8
campo_jogos
 10
-9.392308
 20
38.715891
  0
VERTEX
  8
campo_jogos
 10
-9.392308
 20
38.715891
  0
SEQEND
  0
POLYLINE
  8
campo_jogos
  6
BYLAYER
 66
1
 70
1
 40
0.000000
 41
0.000000
  0
VERTEX
  8
campo_jogos
 10
-9.392107
 20
38.716110
  0
VERTEX
  8
campo_jogos
 10
-9.391982
 20
38.716113
  0
VERTEX
  8
campo_jogos
 10
-9.391973
 20
38.715899
  0
VERTEX
  8
campo_jogos
 10
-9.392098
 20
38.715896
  0
VERTEX
  8
campo_jogos
 10
-9.392107
 20
38.716110
  0
VERTEX
  8
campo_jogos
 10
-9.392107
 20
38.716110
  0
SEQEND
  0
POLYLINE
  8
campo_jogos
  6
BYLAYER
 66
1
 70
1
 40
0.000000
 41
0.000000
  0
VERTEX
  8
campo_jogos
 10
-9.391790
 20
38.715904
  0
VERTEX
  8
campo_jogos
 10
-9.391799
 20
38.716117
  0
VERTEX
  8
campo_jogos
 10
-9.391674
 20
38.716120
  0
VERTEX
  8
campo_jogos
 10
-9.391665
 20
38.715907
  0
VERTEX
  8
campo_jogos
 10
-9.391790
 20
38.715904
  0
VERTEX
  8
campo_jogos
 10
-9.391790
 20
38.715904
  0
SEQEND
  0
POLYLINE
  8
campo_jogos
  6
BYLAYER
 66
1
 70
1
 40
0.000000
 41
0.000000
  0
VERTEX
  8
campo_jogos
 10
-9.391592
 20
38.716123
  0
VERTEX
  8
campo_jogos
 10
-9.391465
 20
38.716126
  0
VERTEX
  8
campo_jogos
 10
-9.391457
 20
38.715912
  0
VERTEX
  8
campo_jogos
 10
-9.391584
 20
38.715909
  0
VERTEX
  8
campo_jogos
 10
-9.391592
 20
38.716123
  0
VERTEX
  8
campo_jogos
 10
-9.391592
 20
38.716123
  0
SEQEND
  0
POLYLINE
  8
campo_jogos
  6
BYLAYER
 66
1
 70
1
 40
0.000000
 41
0.000000
  0
VERTEX
  8
campo_jogos
 10
-9.391373
 20
38.715915
  0
VERTEX
  8
campo_jogos
 10
-9.391381
 20
38.716128
  0
VERTEX
  8
campo_jogos
 10
-9.391255
 20
38.716130
  0
VERTEX
  8
campo_jogos
 10
-9.391248
 20
38.715918
  0
VERTEX
  8
campo_jogos
 10
-9.391373
 20
38.715915
  0
VERTEX
  8
campo_jogos
 10
-9.391373
 20
38.715915
  0
SEQEND
  0
POLYLINE
  8
campo_jogos
  6
BYLAYER
 66
1
 70
1
 40
0.000000
 41
0.000000
  0
VERTEX
  8
campo_jogos
 10
-9.386887
 20
38.722525
  0
VERTEX
  8
campo_jogos
 10
-9.386767
 20
38.722447
  0
VERTEX
  8
campo_jogos
 10
-9.386825
 20
38.722393
  0
VERTEX
  8
campo_jogos
 10
-9.386944
 20
38.722471
  0
VERTEX
  8
campo_jogos
 10
-9.386887
 20
38.722525
  0
VERTEX
  8
campo_jogos
 10
-9.386887
 20
38.722525
  0
SEQEND
  0
POLYLINE
  8
campo_jogos
  6
BYLAYER
 66
1
 70
1
 40
0.000000
 41
0.000000
  0
VERTEX
  8
campo_jogos
 10
-9.396103
 20
38.723903
  0
VERTEX
  8
campo_jogos
 10
-9.396271
 20
38.724071
  0
VERTEX
  8
campo_jogos
 10
-9.396168
 20
38.724132
  0
VERTEX
  8
campo_jogos
 10
-9.396003
 20
38.723964
  0
VERTEX
  8
campo_jogos
 10
-9.396103
 20
38.723903
  0
VERTEX
  8
campo_jogos
 10
-9.396103
 20
38.723903
  0
SEQEND
  0
POLYLINE
  8
campo_jogos
  6
BYLAYER
 66
1
 70
1
 40
0.000000
 41
0.000000
  0
VERTEX
  8
campo_jogos
 10
-9.389263
 20
38.721829
  0
VERTEX
  8
campo_jogos
 10
-9.389157
 20
38.721630
  0
VERTEX
  8
campo_jogos
 10
-9.389275
 20
38.721591
  0
VERTEX
  8
campo_jogos
 10
-9.389383
 20
38.721788
  0
VERTEX
  8
campo_jogos
 10
-9.389263
 20
38.721829
  0
VERTEX
  8
campo_jogos
 10
-9.389263
 20
38.721829
  0
SEQEND
  0
POLYLINE
  8
campo_jogos
  6
BYLAYER
 66
1
 70
1
 40
0.000000
 41
0.000000
  0
VERTEX
  8
campo_jogos
 10
-9.450920
 20
38.734638
  0
VERTEX
  8
campo_jogos
 10
-9.451038
 20
38.734310
  0
VERTEX
  8
campo_jogos
 10
-9.451259
 20
38.734360
  0
VERTEX
  8
campo_jogos
 10
-9.451139
 20
38.734688
  0
VERTEX
  8
campo_jogos
 10
-9.450920
 20
38.734638
  0
VERTEX
  8
campo_jogos
 10
-9.450920
 20
38.734638
  0
SEQEND
  0
POLYLINE
  8
campo_jogos
  6
BYLAYER
 66
1
 70
1
 40
0.000000
 41
0.000000
  0
VERTEX
  8
campo_jogos
 10
-9.456296
 20
38.735212
  0
VERTEX
  8
campo_jogos
 10
-9.456216
 20
38.735133
  0
VERTEX
  8
campo_jogos
 10
-9.456431
 20
38.735001
  0
VERTEX
  8
campo_jogos
 10
-9.456510
 20
38.735080
  0
VERTEX
  8
campo_jogos
 10
-9.456296
 20
38.735212
  0
VERTEX
  8
campo_jogos
 10
-9.456296
 20
38.735212
  0
SEQEND
  0
POLYLINE
  8
campo_jogos
  6
BYLAYER
 66
1
 70
1
 40
0.000000
 41
0.000000
  0
VERTEX
  8
campo_jogos
 10
-9.451649
 20
38.734444
  0
VERTEX
  8
campo_jogos
 10
-9.451667
 20
38.734346
  0
VERTEX
  8
campo_jogos
 10
-9.451870
 20
38.734372
  0
VERTEX
  8
campo_jogos
 10
-9.451785
 20
38.734461
  0
VERTEX
  8
campo_jogos
 10
-9.451649
 20
38.734444
  0
VERTEX
  8
campo_jogos
 10
-9.451649
 20
38.734444
  0
SEQEND
  0
POLYLINE
  8
campo_jogos
  6
BYLAYER
 66
1
 70
1
 40
0.000000
 41
0.000000
  0
VERTEX
  8
campo_jogos
 10
-9.441208
 20
38.734067
  0
VERTEX
  8
campo_jogos
 10
-9.441196
 20
38.733970
  0
VERTEX
  8
campo_jogos
 10
-9.441466
 20
38.733949
  0
VERTEX
  8
campo_jogos
 10
-9.441478
 20
38.734046
  0
VERTEX
  8
campo_jogos
 10
-9.441208
 20
38.734067
  0
VERTEX
  8
campo_jogos
 10
-9.441208
 20
38.734067
  0
SEQEND
  0
POLYLINE
  8
campo_jogos
  6
BYLAYER
 66
1
 70
1
 40
0.000000
 41
0.000000
  0
VERTEX
  8
campo_jogos
 10
-9.440234
 20
38.734887
  0
VERTEX
  8
campo_jogos
 10
-9.440326
 20
38.735195
  0
VERTEX
  8
campo_jogos
 10
-9.440135
 20
38.735230
  0
VERTEX
  8
campo_jogos
 10
-9.440043
 20
38.734923
  0
VERTEX
  8
campo_jogos
 10
-9.440234
 20
38.734887
  0
SEQEND
  0
POLYLINE
  8
campo_jogos
  6
BYLAYER
 66
1
 70
1
 40
0.000000
 41
0.000000
  0
VERTEX
  8
campo_jogos
 10
-9.455013
 20
38.743724
  0
VERTEX
  8
campo_jogos
 10
-9.454428
 20
38.743528
  0
VERTEX
  8
campo_jogos
 10
-9.454646
 20
38.743129
  0
VERTEX
  8
campo_jogos
 10
-9.454858
 20
38.742741
  0
VERTEX
  8
campo_jogos
 10
-9.455445
 20
38.742938
  0
VERTEX
  8
campo_jogos
 10
-9.455165
 20
38.743426
  0
VERTEX
  8
campo_jogos
 10
-9.455013
 20
38.743724
  0
VERTEX
  8
campo_jogos
 10
-9.455013
 20
38.743724
  0
SEQEND
  0
POLYLINE
  8
campo_jogos
  6
BYLAYER
 66
1
 70
1
 40
0.000000
 41
0.000000
  0
VERTEX
  8
campo_jogos
 10
-9.446187
 20
38.750612
  0
VERTEX
  8
campo_jogos
 10
-9.445909
 20
38.750604
  0
VERTEX
  8
campo_jogos
 10
-9.445917
 20
38.750502
  0
VERTEX
  8
campo_jogos
 10
-9.446185
 20
38.750514
  0
VERTEX
  8
campo_jogos
 10
-9.446187
 20
38.750612
  0
VERTEX
  8
campo_jogos
 10
-9.446187
 20
38.750612
  0
SEQEND
  0
POLYLINE
  8
campo_jogos
  6
BYLAYER
 66
1
 70
1
 40
0.000000
 41
0.000000
  0
VERTEX
  8
campo_jogos
 10
-9.454240
 20
38.745877
  0
VERTEX
  8
campo_jogos
 10
-9.454114
 20
38.745877
  0
VERTEX
  8
campo_jogos
 10
-9.454110
 20
38.745661
  0
VERTEX
  8
campo_jogos
 10
-9.454234
 20
38.745659
  0
VERTEX
  8
campo_jogos
 10
-9.454240
 20
38.745877
  0
VERTEX
  8
campo_jogos
 10
-9.454240
 20
38.745877
  0
SEQEND
  0
POLYLINE
  8
campo_jogos
  6
BYLAYER
 66
1
 70
1
 40
0.000000
 41
0.000000
  0
VERTEX
  8
campo_jogos
 10
-9.454618
 20
38.747593
  0
VERTEX
  8
campo_jogos
 10
-9.454491
 20
38.747592
  0
VERTEX
  8
campo_jogos
 10
-9.454492
 20
38.747377
  0
VERTEX
  8
campo_jogos
 10
-9.454619
 20
38.747377
  0
VERTEX
  8
campo_jogos
 10
-9.454618
 20
38.747593
  0
SEQEND
  0
POLYLINE
  8
campo_jogos
  6
BYLAYER
 66
1
 70
1
 40
0.000000
 41
0.000000
  0
VERTEX
  8
campo_jogos
 10
-9.401598
 20
38.729097
  0
VERTEX
  8
campo_jogos
 10
-9.401680
 20
38.729341
  0
VERTEX
  8
campo_jogos
 10
-9.401502
 20
38.729377
  0
VERTEX
  8
campo_jogos
 10
-9.401408
 20
38.729099
  0
VERTEX
  8
campo_jogos
 10
-9.401386
 20
38.729034
  0
VERTEX
  8
campo_jogos
 10
-9.401564
 20
38.728997
  0
VERTEX
  8
campo_jogos
 10
-9.401598
 20
38.729097
  0
VERTEX
  8
campo_jogos
 10
-9.401598
 20
38.729097
  0
SEQEND
  0
POLYLINE
  8
campo_jogos
  6
BYLAYER
 66
1
 70
1
 40
0.000000
 41
0.000000
  0
VERTEX
  8
campo_jogos
 10
-9.401524
 20
38.733498
  0
VERTEX
  8
campo_jogos
 10
-9.401516
 20
38.733243
  0
VERTEX
  8
campo_jogos
 10
-9.401701
 20
38.733240
  0
VERTEX
  8
campo_jogos
 10
-9.401710
 20
38.733478
  0
VERTEX
  8
campo_jogos
 10
-9.401711
 20
38.733489
  0
VERTEX
  8
campo_jogos
 10
-9.401711
 20
38.733493
  0
VERTEX
  8
campo_jogos
 10
-9.401524
 20
38.733498
  0
VERTEX
  8
campo_jogos
 10
-9.401524
 20
38.733498
  0
SEQEND
  0
POLYLINE
  8
campo_jogos
  6
BYLAYER
 66
1
 70
1
 40
0.000000
 41
0.000000
  0
VERTEX
  8
campo_jogos
 10
-9.401482
 20
38.724899
  0
VERTEX
  8
campo_jogos
 10
-9.401332
 20
38.724720
  0
VERTEX
  8
campo_jogos
 10
-9.401438
 20
38.724666
  0
VERTEX
  8
campo_jogos
 10
-9.401588
 20
38.724845
  0
VERTEX
  8
campo_jogos
 10
-9.401482
 20
38.724899
  0
VERTEX
  8
campo_jogos
 10
-9.401482
 20
38.724899
  0
SEQEND
  0
POLYLINE
  8
campo_jogos
  6
BYLAYER
 66
1
 70
1
 40
0.000000
 41
0.000000
  0
VERTEX
  8
campo_jogos
 10
-9.401479
 20
38.725006
  0
VERTEX
  8
campo_jogos
 10
-9.401596
 20
38.725126
  0
VERTEX
  8
campo_jogos
 10
-9.401519
 20
38.725172
  0
VERTEX
  8
campo_jogos
 10
-9.401402
 20
38.725053
  0
VERTEX
  8
campo_jogos
 10
-9.401479
 20
38.725006
  0
VERTEX
  8
campo_jogos
 10
-9.401479
 20
38.725006
  0
SEQEND
  0
POLYLINE
  8
campo_jogos
  6
BYLAYER
 66
1
 70
1
 40
0.000000
 41
0.000000
  0
VERTEX
  8
campo_jogos
 10
-9.395513
 20
38.728602
  0
VERTEX
  8
campo_jogos
 10
-9.395644
 20
38.728789
  0
VERTEX
  8
campo_jogos
 10
-9.395533
 20
38.728836
  0
VERTEX
  8
campo_jogos
 10
-9.395402
 20
38.728650
  0
VERTEX
  8
campo_jogos
 10
-9.395513
 20
38.728602
  0
VERTEX
  8
campo_jogos
 10
-9.395513
 20
38.728602
  0
SEQEND
  0
POLYLINE
  8
campo_jogos
  6
BYLAYER
 66
1
 70
1
 40
0.000000
 41
0.000000
  0
VERTEX
  8
campo_jogos
 10
-9.394993
 20
38.728587
  0
VERTEX
  8
campo_jogos
 10
-9.395139
 20
38.728766
  0
VERTEX
  8
campo_jogos
 10
-9.395034
 20
38.728818
  0
VERTEX
  8
campo_jogos
 10
-9.394888
 20
38.728639
  0
VERTEX
  8
campo_jogos
 10
-9.394993
 20
38.728587
  0
VERTEX
  8
campo_jogos
 10
-9.394993
 20
38.728587
  0
SEQEND
  0
POLYLINE
  8
campo_jogos
  6
BYLAYER
 66
1
 70
1
 40
0.000000
 41
0.000000
  0
VERTEX
  8
campo_jogos
 10
-9.395327
 20
38.728892
  0
VERTEX
  8
campo_jogos
 10
-9.395425
 20
38.729089
  0
VERTEX
  8
campo_jogos
 10
-9.395309
 20
38.729125
  0
VERTEX
  8
campo_jogos
 10
-9.395210
 20
38.728928
  0
VERTEX
  8
campo_jogos
 10
-9.395327
 20
38.728892
  0
VERTEX
  8
campo_jogos
 10
-9.395327
 20
38.728892
  0
SEQEND
  0
POLYLINE
  8
campo_jogos
  6
BYLAYER
 66
1
 70
1
 40
0.000000
 41
0.000000
  0
VERTEX
  8
campo_jogos
 10
-9.385269
 20
38.728860
  0
VERTEX
  8
campo_jogos
 10
-9.385272
 20
38.728936
  0
VERTEX
  8
campo_jogos
 10
-9.385185
 20
38.728938
  0
VERTEX
  8
campo_jogos
 10
-9.385182
 20
38.728862
  0
VERTEX
  8
campo_jogos
 10
-9.385269
 20
38.728860
  0
VERTEX
  8
campo_jogos
 10
-9.385269
 20
38.728860
  0
SEQEND
  0
POLYLINE
  8
campo_jogos
  6
BYLAYER
 66
1
 70
1
 40
0.000000
 41
0.000000
  0
VERTEX
  8
campo_jogos
 10
-9.385129
 20
38.728658
  0
VERTEX
  8
campo_jogos
 10
-9.385121
 20
38.728480
  0
VERTEX
  8
campo_jogos
 10
-9.385234
 20
38.728478
  0
VERTEX
  8
campo_jogos
 10
-9.385247
 20
38.728672
  0
VERTEX
  8
campo_jogos
 10
-9.385174
 20
38.728677
  0
VERTEX
  8
campo_jogos
 10
-9.385172
 20
38.728657
  0
VERTEX
  8
campo_jogos
 10
-9.385129
 20
38.728658
  0
VERTEX
  8
campo_jogos
 10
-9.385129
 20
38.728658
  0
SEQEND
  0
POLYLINE
  8
campo_jogos
  6
BYLAYER
 66
1
 70
1
 40
0.000000
 41
0.000000
  0
VERTEX
  8
campo_jogos
 10
-9.384599
 20
38.725810
  0
VERTEX
  8
campo_jogos
 10
-9.384441
 20
38.725748
  0
VERTEX
  8
campo_jogos
 10
-9.384582
 20
38.725527
  0
VERTEX
  8
campo_jogos
 10
-9.384739
 20
38.725592
  0
VERTEX
  8
campo_jogos
 10
-9.384599
 20
38.725810
  0
VERTEX
  8
campo_jogos
 10
-9.384599
 20
38.725810
  0
SEQEND
  0
POLYLINE
  8
campo_jogos
  6
BYLAYER
 66
1
 70
1
 40
0.000000
 41
0.000000
  0
VERTEX
  8
campo_jogos
 10
-9.387845
 20
38.729880
  0
VERTEX
  8
campo_jogos
 10
-9.387534
 20
38.729912
  0
VERTEX
  8
campo_jogos
 10
-9.387509
 20
38.729750
  0
VERTEX
  8
campo_jogos
 10
-9.387822
 20
38.729720
  0
VERTEX
  8
campo_jogos
 10
-9.387845
 20
38.729880
  0
VERTEX
  8
campo_jogos
 10
-9.387845
 20
38.729880
  0
SEQEND
  0
POLYLINE
  8
campo_jogos
  6
BYLAYER
 66
1
 70
1
 40
0.000000
 41
0.000000
  0
VERTEX
  8
campo_jogos
 10
-9.411709
 20
38.705522
  0
VERTEX
  8
campo_jogos
 10
-9.411786
 20
38.705730
  0
VERTEX
  8
campo_jogos
 10
-9.411663
 20
38.705758
  0
VERTEX
  8
campo_jogos
 10
-9.411586
 20
38.705550
  0
VERTEX
  8
campo_jogos
 10
-9.411709
 20
38.705522
  0
VERTEX
  8
campo_jogos
 10
-9.411709
 20
38.705522
  0
SEQEND
  0
POLYLINE
  8
campo_jogos
  6
BYLAYER
 66
1
 70
1
 40
0.000000
 41
0.000000
  0
VERTEX
  8
campo_jogos
 10
-9.414265
 20
38.705856
  0
VERTEX
  8
campo_jogos
 10
-9.414279
 20
38.705561
  0
VERTEX
  8
campo_jogos
 10
-9.414474
 20
38.705566
  0
VERTEX
  8
campo_jogos
 10
-9.414460
 20
38.705862
  0
VERTEX
  8
campo_jogos
 10
-9.414265
 20
38.705856
  0
VERTEX
  8
campo_jogos
 10
-9.414265
 20
38.705856
  0
SEQEND
  0
POLYLINE
  8
campo_jogos
  6
BYLAYER
 66
1
 70
1
 40
0.000000
 41
0.000000
  0
VERTEX
  8
campo_jogos
 10
-9.417697
 20
38.702731
  0
VERTEX
  8
campo_jogos
 10
-9.417678
 20
38.702835
  0
VERTEX
  8
campo_jogos
 10
-9.417270
 20
38.702805
  0
VERTEX
  8
campo_jogos
 10
-9.417262
 20
38.702804
  0
VERTEX
  8
campo_jogos
 10
-9.417285
 20
38.702658
  0
VERTEX
  8
campo_jogos
 10
-9.417702
 20
38.702704
  0
VERTEX
  8
campo_jogos
 10
-9.417697
 20
38.702731
  0
VERTEX
  8
campo_jogos
 10
-9.417697
 20
38.702731
  0
SEQEND
  0
POLYLINE
  8
campo_jogos
  6
BYLAYER
 66
1
 70
1
 40
0.000000
 41
0.000000
  0
VERTEX
  8
campo_jogos
 10
-9.406378
 20
38.705999
  0
VERTEX
  8
campo_jogos
 10
-9.406198
 20
38.706159
  0
VERTEX
  8
campo_jogos
 10
-9.406082
 20
38.706079
  0
VERTEX
  8
campo_jogos
 10
-9.406261
 20
38.705919
  0
VERTEX
  8
campo_jogos
 10
-9.406378
 20
38.705999
  0
VERTEX
  8
campo_jogos
 10
-9.406378
 20
38.705999
  0
SEQEND
  0
POLYLINE
  8
campo_jogos
  6
BYLAYER
 66
1
 70
1
 40
0.000000
 41
0.000000
  0
VERTEX
  8
campo_jogos
 10
-9.409353
 20
38.702879
  0
VERTEX
  8
campo_jogos
 10
-9.409246
 20
38.702933
  0
VERTEX
  8
campo_jogos
 10
-9.409097
 20
38.702754
  0
VERTEX
  8
campo_jogos
 10
-9.409204
 20
38.702699
  0
VERTEX
  8
campo_jogos
 10
-9.409353
 20
38.702879
  0
VERTEX
  8
campo_jogos
 10
-9.409353
 20
38.702879
  0
SEQEND
  0
POLYLINE
  8
campo_jogos
  6
BYLAYER
 66
1
 70
1
 40
0.000000
 41
0.000000
  0
VERTEX
  8
campo_jogos
 10
-9.410148
 20
38.706484
  0
VERTEX
  8
campo_jogos
 10
-9.410168
 20
38.706417
  0
VERTEX
  8
campo_jogos
 10
-9.410285
 20
38.706444
  0
VERTEX
  8
campo_jogos
 10
-9.410271
 20
38.706483
  0
VERTEX
  8
campo_jogos
 10
-9.410246
 20
38.706554
  0
VERTEX
  8
campo_jogos
 10
-9.410135
 20
38.706525
  0
VERTEX
  8
campo_jogos
 10
-9.410148
 20
38.706484
  0
VERTEX
  8
campo_jogos
 10
-9.410148
 20
38.706484
  0
SEQEND
  0
POLYLINE
  8
campo_jogos
  6
BYLAYER
 66
1
 70
1
 40
0.000000
 41
0.000000
  0
VERTEX
  8
campo_jogos
 10
-9.401229
 20
38.706327
  0
VERTEX
  8
campo_jogos
 10
-9.401268
 20
38.705911
  0
VERTEX
  8
campo_jogos
 10
-9.402256
 20
38.705969
  0
VERTEX
  8
campo_jogos
 10
-9.402307
 20
38.705972
  0
VERTEX
  8
campo_jogos
 10
-9.402267
 20
38.706388
  0
VERTEX
  8
campo_jogos
 10
-9.402263
 20
38.706387
  0
VERTEX
  8
campo_jogos
 10
-9.401229
 20
38.706327
  0
VERTEX
  8
campo_jogos
 10
-9.401229
 20
38.706327
  0
SEQEND
  0
POLYLINE
  8
campo_jogos
  6
BYLAYER
 66
1
 70
1
 40
0.000000
 41
0.000000
  0
VERTEX
  8
campo_jogos
 10
-9.402158
 20
38.705892
  0
VERTEX
  8
campo_jogos
 10
-9.402174
 20
38.705684
  0
VERTEX
  8
campo_jogos
 10
-9.402251
 20
38.705687
  0
VERTEX
  8
campo_jogos
 10
-9.402318
 20
38.705691
  0
VERTEX
  8
campo_jogos
 10
-9.402302
 20
38.705899
  0
VERTEX
  8
campo_jogos
 10
-9.402255
 20
38.705897
  0
VERTEX
  8
campo_jogos
 10
-9.402158
 20
38.705892
  0
VERTEX
  8
campo_jogos
 10
-9.402158
 20
38.705892
  0
SEQEND
  0
POLYLINE
  8
campo_jogos
  6
BYLAYER
 66
1
 70
1
 40
0.000000
 41
0.000000
  0
VERTEX
  8
campo_jogos
 10
-9.401895
 20
38.705402
  0
VERTEX
  8
campo_jogos
 10
-9.401928
 20
38.704981
  0
VERTEX
  8
campo_jogos
 10
-9.401957
 20
38.704983
  0
VERTEX
  8
campo_jogos
 10
-9.401977
 20
38.704775
  0
VERTEX
  8
campo_jogos
 10
-9.402103
 20
38.704782
  0
VERTEX
  8
campo_jogos
 10
-9.402102
 20
38.704790
  0
VERTEX
  8
campo_jogos
 10
-9.402165
 20
38.704795
  0
VERTEX
  8
campo_jogos
 10
-9.402166
 20
38.704787
  0
VERTEX
  8
campo_jogos
 10
-9.402235
 20
38.704791
  0
VERTEX
  8
campo_jogos
 10
-9.402293
 20
38.704795
  0
VERTEX
  8
campo_jogos
 10
-9.402291
 20
38.704847
  0
VERTEX
  8
campo_jogos
 10
-9.402401
 20
38.704856
  0
VERTEX
  8
campo_jogos
 10
-9.402364
 20
38.705426
  0
VERTEX
  8
campo_jogos
 10
-9.402246
 20
38.705420
  0
VERTEX
  8
campo_jogos
 10
-9.401895
 20
38.705402
  0
VERTEX
  8
campo_jogos
 10
-9.401895
 20
38.705402
  0
SEQEND
  0
POLYLINE
  8
campo_jogos
  6
BYLAYER
 66
1
 70
1
 40
0.000000
 41
0.000000
  0
VERTEX
  8
campo_jogos
 10
-9.387746
 20
38.705626
  0
VERTEX
  8
campo_jogos
 10
-9.387499
 20
38.705716
  0
VERTEX
  8
campo_jogos
 10
-9.387442
 20
38.705627
  0
VERTEX
  8
campo_jogos
 10
-9.387690
 20
38.705534
  0
VERTEX
  8
campo_jogos
 10
-9.387746
 20
38.705626
  0
VERTEX
  8
campo_jogos
 10
-9.387746
 20
38.705626
  0
SEQEND
  0
POLYLINE
  8
campo_jogos
  6
BYLAYER
 66
1
 70
1
 40
0.000000
 41
0.000000
  0
VERTEX
  8
campo_jogos
 10
-9.400584
 20
38.704634
  0
VERTEX
  8
campo_jogos
 10
-9.400741
 20
38.704592
  0
VERTEX
  8
campo_jogos
 10
-9.400817
 20
38.704825
  0
VERTEX
  8
campo_jogos
 10
-9.400672
 20
38.704857
  0
VERTEX
  8
campo_jogos
 10
-9.400584
 20
38.704634
  0
VERTEX
  8
campo_jogos
 10
-9.400584
 20
38.704634
  0
SEQEND
  0
POLYLINE
  8
campo_jogos
  6
BYLAYER
 66
1
 70
1
 40
0.000000
 41
0.000000
  0
VERTEX
  8
campo_jogos
 10
-9.383855
 20
38.705505
  0
VERTEX
  8
campo_jogos
 10
-9.383760
 20
38.705514
  0
VERTEX
  8
campo_jogos
 10
-9.383745
 20
38.705418
  0
VERTEX
  8
campo_jogos
 10
-9.383853
 20
38.705408
  0
VERTEX
  8
campo_jogos
 10
-9.383978
 20
38.705396
  0
VERTEX
  8
campo_jogos
 10
-9.383992
 20
38.705492
  0
VERTEX
  8
campo_jogos
 10
-9.383855
 20
38.705505
  0
VERTEX
  8
campo_jogos
 10
-9.383855
 20
38.705505
  0
SEQEND
  0
POLYLINE
  8
campo_jogos
  6
BYLAYER
 66
1
 70
1
 40
0.000000
 41
0.000000
  0
VERTEX
  8
campo_jogos
 10
-9.383811
 20
38.702987
  0
VERTEX
  8
campo_jogos
 10
-9.383490
 20
38.702969
  0
VERTEX
  8
campo_jogos
 10
-9.383495
 20
38.702913
  0
VERTEX
  8
campo_jogos
 10
-9.383810
 20
38.702929
  0
VERTEX
  8
campo_jogos
 10
-9.384516
 20
38.702964
  0
VERTEX
  8
campo_jogos
 10
-9.384511
 20
38.703026
  0
VERTEX
  8
campo_jogos
 10
-9.383811
 20
38.702987
  0
VERTEX
  8
campo_jogos
 10
-9.383811
 20
38.702987
  0
SEQEND
  0
POLYLINE
  8
campo_jogos
  6
BYLAYER
 66
1
 70
1
 40
0.000000
 41
0.000000
  0
VERTEX
  8
campo_jogos
 10
-9.388964
 20
38.702688
  0
VERTEX
  8
campo_jogos
 10
-9.388677
 20
38.702723
  0
VERTEX
  8
campo_jogos
 10
-9.388652
 20
38.702591
  0
VERTEX
  8
campo_jogos
 10
-9.388940
 20
38.702555
  0
VERTEX
  8
campo_jogos
 10
-9.388964
 20
38.702688
  0
VERTEX
  8
campo_jogos
 10
-9.388964
 20
38.702688
  0
SEQEND
  0
POLYLINE
  8
campo_jogos
  6
BYLAYER
 66
1
 70
1
 40
0.000000
 41
0.000000
  0
VERTEX
  8
campo_jogos
 10
-9.384393
 20
38.702762
  0
VERTEX
  8
campo_jogos
 10
-9.384406
 20
38.702555
  0
VERTEX
  8
campo_jogos
 10
-9.384557
 20
38.702561
  0
VERTEX
  8
campo_jogos
 10
-9.384544
 20
38.702768
  0
VERTEX
  8
campo_jogos
 10
-9.384393
 20
38.702762
  0
VERTEX
  8
campo_jogos
 10
-9.384393
 20
38.702762
  0
SEQEND
  0
POLYLINE
  8
campo_jogos
  6
BYLAYER
 66
1
 70
1
 40
0.000000
 41
0.000000
  0
VERTEX
  8
campo_jogos
 10
-9.384488
 20
38.703052
  0
VERTEX
  8
campo_jogos
 10
-9.384471
 20
38.703231
  0
VERTEX
  8
campo_jogos
 10
-9.384010
 20
38.703204
  0
VERTEX
  8
campo_jogos
 10
-9.384027
 20
38.703025
  0
VERTEX
  8
campo_jogos
 10
-9.384488
 20
38.703052
  0
VERTEX
  8
campo_jogos
 10
-9.384488
 20
38.703052
  0
SEQEND
  0
POLYLINE
  8
campo_jogos
  6
BYLAYER
 66
1
 70
1
 40
0.000000
 41
0.000000
  0
VERTEX
  8
campo_jogos
 10
-9.391432
 20
38.704343
  0
VERTEX
  8
campo_jogos
 10
-9.391254
 20
38.705031
  0
VERTEX
  8
campo_jogos
 10
-9.390784
 20
38.704955
  0
VERTEX
  8
campo_jogos
 10
-9.390942
 20
38.704338
  0
VERTEX
  8
campo_jogos
 10
-9.390979
 20
38.704343
  0
VERTEX
  8
campo_jogos
 10
-9.390999
 20
38.704273
  0
VERTEX
  8
campo_jogos
 10
-9.391432
 20
38.704343
  0
VERTEX
  8
campo_jogos
 10
-9.391432
 20
38.704343
  0
SEQEND
  0
POLYLINE
  8
campo_jogos
  6
BYLAYER
 66
1
 70
1
 40
0.000000
 41
0.000000
  0
VERTEX
  8
campo_jogos
 10
-9.392241
 20
38.702517
  0
VERTEX
  8
campo_jogos
 10
-9.392348
 20
38.702505
  0
VERTEX
  8
campo_jogos
 10
-9.392366
 20
38.702620
  0
VERTEX
  8
campo_jogos
 10
-9.392203
 20
38.702631
  0
VERTEX
  8
campo_jogos
 10
-9.392194
 20
38.702630
  0
VERTEX
  8
campo_jogos
 10
-9.392229
 20
38.702518
  0
VERTEX
  8
campo_jogos
 10
-9.392241
 20
38.702517
  0
VERTEX
  8
campo_jogos
 10
-9.392241
 20
38.702517
  0
SEQEND
  0
POLYLINE
  8
campo_jogos
  6
BYLAYER
 66
1
 70
1
 40
0.000000
 41
0.000000
  0
VERTEX
  8
campo_jogos
 10
-9.392805
 20
38.702499
  0
VERTEX
  8
campo_jogos
 10
-9.392817
 20
38.702573
  0
VERTEX
  8
campo_jogos
 10
-9.392652
 20
38.702589
  0
VERTEX
  8
campo_jogos
 10
-9.392640
 20
38.702515
  0
VERTEX
  8
campo_jogos
 10
-9.392805
 20
38.702499
  0
VERTEX
  8
campo_jogos
 10
-9.392805
 20
38.702499
  0
SEQEND
  0
POLYLINE
  8
campo_jogos
  6
BYLAYER
 66
1
 70
1
 40
0.000000
 41
0.000000
  0
VERTEX
  8
campo_jogos
 10
-9.401561
 20
38.704492
  0
VERTEX
  8
campo_jogos
 10
-9.401532
 20
38.704856
  0
VERTEX
  8
campo_jogos
 10
-9.401537
 20
38.704857
  0
VERTEX
  8
campo_jogos
 10
-9.401535
 20
38.704887
  0
VERTEX
  8
campo_jogos
 10
-9.401411
 20
38.704877
  0
VERTEX
  8
campo_jogos
 10
-9.401494
 20
38.704483
  0
VERTEX
  8
campo_jogos
 10
-9.401561
 20
38.704492
  0
VERTEX
  8
campo_jogos
 10
-9.401561
 20
38.704492
  0
SEQEND
  0
POLYLINE
  8
campo_jogos
  6
BYLAYER
 66
1
 70
1
 40
0.000000
 41
0.000000
  0
VERTEX
  8
campo_jogos
 10
-9.400344
 20
38.704525
  0
VERTEX
  8
campo_jogos
 10
-9.400482
 20
38.704870
  0
VERTEX
  8
campo_jogos
 10
-9.400256
 20
38.704926
  0
VERTEX
  8
campo_jogos
 10
-9.400117
 20
38.704580
  0
VERTEX
  8
campo_jogos
 10
-9.400344
 20
38.704525
  0
VERTEX
  8
campo_jogos
 10
-9.400344
 20
38.704525
  0
SEQEND
  0
POLYLINE
  8
campo_jogos
  6
BYLAYER
 66
1
 70
1
 40
0.000000
 41
0.000000
  0
VERTEX
  8
campo_jogos
 10
-9.401169
 20
38.705632
  0
VERTEX
  8
campo_jogos
 10
-9.401319
 20
38.705640
  0
VERTEX
  8
campo_jogos
 10
-9.401305
 20
38.705821
  0
VERTEX
  8
campo_jogos
 10
-9.401155
 20
38.705813
  0
VERTEX
  8
campo_jogos
 10
-9.401169
 20
38.705632
  0
VERTEX
  8
campo_jogos
 10
-9.401169
 20
38.705632
  0
SEQEND
  0
POLYLINE
  8
campo_jogos
  6
BYLAYER
 66
1
 70
1
 40
0.000000
 41
0.000000
  0
VERTEX
  8
campo_jogos
 10
-9.402138
 20
38.705873
  0
VERTEX
  8
campo_jogos
 10
-9.401817
 20
38.705854
  0
VERTEX
  8
campo_jogos
 10
-9.401834
 20
38.705677
  0
VERTEX
  8
campo_jogos
 10
-9.402155
 20
38.705696
  0
VERTEX
  8
campo_jogos
 10
-9.402138
 20
38.705873
  0
VERTEX
  8
campo_jogos
 10
-9.402138
 20
38.705873
  0
SEQEND
  0
POLYLINE
  8
campo_jogos
  6
BYLAYER
 66
1
 70
1
 40
0.000000
 41
0.000000
  0
VERTEX
  8
campo_jogos
 10
-9.401127
 20
38.704391
  0
VERTEX
  8
campo_jogos
 10
-9.401188
 20
38.704319
  0
VERTEX
  8
campo_jogos
 10
-9.401377
 20
38.704418
  0
VERTEX
  8
campo_jogos
 10
-9.401316
 20
38.704489
  0
VERTEX
  8
campo_jogos
 10
-9.401127
 20
38.704391
  0
VERTEX
  8
campo_jogos
 10
-9.401127
 20
38.704391
  0
SEQEND
  0
POLYLINE
  8
campo_jogos
  6
BYLAYER
 66
1
 70
1
 40
0.000000
 41
0.000000
  0
VERTEX
  8
campo_jogos
 10
-9.401429
 20
38.704539
  0
VERTEX
  8
campo_jogos
 10
-9.401317
 20
38.705188
  0
VERTEX
  8
campo_jogos
 10
-9.400943
 20
38.705152
  0
VERTEX
  8
campo_jogos
 10
-9.401051
 20
38.704500
  0
VERTEX
  8
campo_jogos
 10
-9.401429
 20
38.704539
  0
VERTEX
  8
campo_jogos
 10
-9.401429
 20
38.704539
  0
SEQEND
  0
POLYLINE
  8
campo_jogos
  6
BYLAYER
 66
1
 70
1
 40
0.000000
 41
0.000000
  0
VERTEX
  8
campo_jogos
 10
-9.401890
 20
38.704713
  0
VERTEX
  8
campo_jogos
 10
-9.401795
 20
38.704709
  0
VERTEX
  8
campo_jogos
 10
-9.401807
 20
38.704546
  0
VERTEX
  8
campo_jogos
 10
-9.401902
 20
38.704550
  0
VERTEX
  8
campo_jogos
 10
-9.401890
 20
38.704713
  0
VERTEX
  8
campo_jogos
 10
-9.401890
 20
38.704713
  0
SEQEND
  0
POLYLINE
  8
campo_jogos
  6
BYLAYER
 66
1
 70
1
 40
0.000000
 41
0.000000
  0
VERTEX
  8
campo_jogos
 10
-9.401775
 20
38.704954
  0
VERTEX
  8
campo_jogos
 10
-9.401792
 20
38.704723
  0
VERTEX
  8
campo_jogos
 10
-9.401888
 20
38.704728
  0
VERTEX
  8
campo_jogos
 10
-9.401871
 20
38.704958
  0
VERTEX
  8
campo_jogos
 10
-9.401775
 20
38.704954
  0
VERTEX
  8
campo_jogos
 10
-9.401775
 20
38.704954
  0
SEQEND
  0
POLYLINE
  8
campo_jogos
  6
BYLAYER
 66
1
 70
1
 40
0.000000
 41
0.000000
  0
VERTEX
  8
campo_jogos
 10
-9.397892
 20
38.714583
  0
VERTEX
  8
campo_jogos
 10
-9.397651
 20
38.714484
  0
VERTEX
  8
campo_jogos
 10
-9.397710
 20
38.714397
  0
VERTEX
  8
campo_jogos
 10
-9.397950
 20
38.714496
  0
VERTEX
  8
campo_jogos
 10
-9.397892
 20
38.714583
  0
VERTEX
  8
campo_jogos
 10
-9.397892
 20
38.714583
  0
SEQEND
  0
POLYLINE
  8
campo_jogos
  6
BYLAYER
 66
1
 70
1
 40
0.000000
 41
0.000000
  0
VERTEX
  8
campo_jogos
 10
-9.391629
 20
38.715021
  0
VERTEX
  8
campo_jogos
 10
-9.391621
 20
38.714806
  0
VERTEX
  8
campo_jogos
 10
-9.391747
 20
38.714803
  0
VERTEX
  8
campo_jogos
 10
-9.391755
 20
38.715018
  0
VERTEX
  8
campo_jogos
 10
-9.391629
 20
38.715021
  0
VERTEX
  8
campo_jogos
 10
-9.391629
 20
38.715021
  0
SEQEND
  0
POLYLINE
  8
campo_jogos
  6
BYLAYER
 66
1
 70
1
 40
0.000000
 41
0.000000
  0
VERTEX
  8
campo_jogos
 10
-9.391937
 20
38.715014
  0
VERTEX
  8
campo_jogos
 10
-9.391928
 20
38.714800
  0
VERTEX
  8
campo_jogos
 10
-9.392054
 20
38.714797
  0
VERTEX
  8
campo_jogos
 10
-9.392062
 20
38.715011
  0
VERTEX
  8
campo_jogos
 10
-9.391937
 20
38.715014
  0
VERTEX
  8
campo_jogos
 10
-9.391937
 20
38.715014
  0
SEQEND
  0
POLYLINE
  8
campo_jogos
  6
BYLAYER
 66
1
 70
1
 40
0.000000
 41
0.000000
  0
VERTEX
  8
campo_jogos
 10
-9.392138
 20
38.714795
  0
VERTEX
  8
campo_jogos
 10
-9.392266
 20
38.714792
  0
VERTEX
  8
campo_jogos
 10
-9.392274
 20
38.715007
  0
VERTEX
  8
campo_jogos
 10
-9.392146
 20
38.715010
  0
VERTEX
  8
campo_jogos
 10
-9.392138
 20
38.714795
  0
VERTEX
  8
campo_jogos
 10
-9.392138
 20
38.714795
  0
SEQEND
  0
POLYLINE
  8
campo_jogos
  6
BYLAYER
 66
1
 70
1
 40
0.000000
 41
0.000000
  0
VERTEX
  8
campo_jogos
 10
-9.392279
 20
38.715177
  0
VERTEX
  8
campo_jogos
 10
-9.392288
 20
38.715390
  0
VERTEX
  8
campo_jogos
 10
-9.392162
 20
38.715393
  0
VERTEX
  8
campo_jogos
 10
-9.392153
 20
38.715180
  0
VERTEX
  8
campo_jogos
 10
-9.392279
 20
38.715177
  0
VERTEX
  8
campo_jogos
 10
-9.392279
 20
38.715177
  0
SEQEND
  0
POLYLINE
  8
campo_jogos
  6
BYLAYER
 66
1
 70
1
 40
0.000000
 41
0.000000
  0
VERTEX
  8
campo_jogos
 10
-9.392078
 20
38.715396
  0
VERTEX
  8
campo_jogos
 10
-9.391952
 20
38.715400
  0
VERTEX
  8
campo_jogos
 10
-9.391943
 20
38.715185
  0
VERTEX
  8
campo_jogos
 10
-9.392069
 20
38.715182
  0
VERTEX
  8
campo_jogos
 10
-9.392078
 20
38.715396
  0
VERTEX
  8
campo_jogos
 10
-9.392078
 20
38.715396
  0
SEQEND
  0
POLYLINE
  8
campo_jogos
  6
BYLAYER
 66
1
 70
1
 40
0.000000
 41
0.000000
  0
VERTEX
  8
campo_jogos
 10
-9.392580
 20
38.715464
  0
VERTEX
  8
campo_jogos
 10
-9.392571
 20
38.715250
  0
VERTEX
  8
campo_jogos
 10
-9.392697
 20
38.715247
  0
VERTEX
  8
campo_jogos
 10
-9.392706
 20
38.715461
  0
VERTEX
  8
campo_jogos
 10
-9.392580
 20
38.715464
  0
VERTEX
  8
campo_jogos
 10
-9.392580
 20
38.715464
  0
SEQEND
  0
POLYLINE
  8
campo_jogos
  6
BYLAYER
 66
1
 70
1
 40
0.000000
 41
0.000000
  0
VERTEX
  8
campo_jogos
 10
-9.391962
 20
38.715689
  0
VERTEX
  8
campo_jogos
 10
-9.391956
 20
38.715516
  0
VERTEX
  8
campo_jogos
 10
-9.392083
 20
38.715513
  0
VERTEX
  8
campo_jogos
 10
-9.392089
 20
38.715688
  0
VERTEX
  8
campo_jogos
 10
-9.392091
 20
38.715727
  0
VERTEX
  8
campo_jogos
 10
-9.391964
 20
38.715730
  0
VERTEX
  8
campo_jogos
 10
-9.391962
 20
38.715689
  0
VERTEX
  8
campo_jogos
 10
-9.391962
 20
38.715689
  0
SEQEND
  0
POLYLINE
  8
campo_jogos
  6
BYLAYER
 66
1
 70
1
 40
0.000000
 41
0.000000
  0
VERTEX
  8
campo_jogos
 10
-9.392174
 20
38.715687
  0
VERTEX
  8
campo_jogos
 10
-9.392166
 20
38.715511
  0
VERTEX
  8
campo_jogos
 10
-9.392291
 20
38.715508
  0
VERTEX
  8
campo_jogos
 10
-9.392299
 20
38.715686
  0
VERTEX
  8
campo_jogos
 10
-9.392300
 20
38.715722
  0
VERTEX
  8
campo_jogos
 10
-9.392176
 20
38.715726
  0
VERTEX
  8
campo_jogos
 10
-9.392174
 20
38.715687
  0
VERTEX
  8
campo_jogos
 10
-9.392174
 20
38.715687
  0
SEQEND
  0
POLYLINE
  8
campo_jogos
  6
BYLAYER
 66
1
 70
1
 40
0.000000
 41
0.000000
  0
VERTEX
  8
campo_jogos
 10
-9.394855
 20
38.709311
  0
VERTEX
  8
campo_jogos
 10
-9.394733
 20
38.709336
  0
VERTEX
  8
campo_jogos
 10
-9.394663
 20
38.709129
  0
VERTEX
  8
campo_jogos
 10
-9.394785
 20
38.709104
  0
VERTEX
  8
campo_jogos
 10
-9.394855
 20
38.709311
  0
VERTEX
  8
campo_jogos
 10
-9.394855
 20
38.709311
  0
SEQEND
  0
POLYLINE
  8
campo_jogos
  6
BYLAYER
 66
1
 70
1
 40
0.000000
 41
0.000000
  0
VERTEX
  8
campo_jogos
 10
-9.387835
 20
38.707802
  0
VERTEX
  8
campo_jogos
 10
-9.387745
 20
38.708024
  0
VERTEX
  8
campo_jogos
 10
-9.387554
 20
38.707976
  0
VERTEX
  8
campo_jogos
 10
-9.387644
 20
38.707755
  0
VERTEX
  8
campo_jogos
 10
-9.387835
 20
38.707802
  0
VERTEX
  8
campo_jogos
 10
-9.387835
 20
38.707802
  0
SEQEND
  0
POLYLINE
  8
campo_jogos
  6
BYLAYER
 66
1
 70
1
 40
0.000000
 41
0.000000
  0
VERTEX
  8
campo_jogos
 10
-9.385435
 20
38.707379
  0
VERTEX
  8
campo_jogos
 10
-9.385531
 20
38.707200
  0
VERTEX
  8
campo_jogos
 10
-9.385609
 20
38.707225
  0
VERTEX
  8
campo_jogos
 10
-9.385871
 20
38.707312
  0
VERTEX
  8
campo_jogos
 10
-9.385774
 20
38.707491
  0
VERTEX
  8
campo_jogos
 10
-9.385435
 20
38.707379
  0
VERTEX
  8
campo_jogos
 10
-9.385435
 20
38.707379
  0
SEQEND
  0
POLYLINE
  8
campo_jogos
  6
BYLAYER
 66
1
 70
1
 40
0.000000
 41
0.000000
  0
VERTEX
  8
campo_jogos
 10
-9.394376
 20
38.713592
  0
VERTEX
  8
campo_jogos
 10
-9.394449
 20
38.713797
  0
VERTEX
  8
campo_jogos
 10
-9.394328
 20
38.713823
  0
VERTEX
  8
campo_jogos
 10
-9.394255
 20
38.713618
  0
VERTEX
  8
campo_jogos
 10
-9.394376
 20
38.713592
  0
VERTEX
  8
campo_jogos
 10
-9.394376
 20
38.713592
  0
SEQEND
  0
POLYLINE
  8
campo_jogos
  6
BYLAYER
 66
1
 70
1
 40
0.000000
 41
0.000000
  0
VERTEX
  8
campo_jogos
 10
-9.401352
 20
38.715405
  0
VERTEX
  8
campo_jogos
 10
-9.401248
 20
38.715602
  0
VERTEX
  8
campo_jogos
 10
-9.401134
 20
38.715561
  0
VERTEX
  8
campo_jogos
 10
-9.401238
 20
38.715363
  0
VERTEX
  8
campo_jogos
 10
-9.401352
 20
38.715405
  0
VERTEX
  8
campo_jogos
 10
-9.401352
 20
38.715405
  0
SEQEND
  0
POLYLINE
  8
campo_jogos
  6
BYLAYER
 66
1
 70
1
 40
0.000000
 41
0.000000
  0
VERTEX
  8
campo_jogos
 10
-9.402324
 20
38.712924
  0
VERTEX
  8
campo_jogos
 10
-9.402309
 20
38.713140
  0
VERTEX
  8
campo_jogos
 10
-9.402179
 20
38.713133
  0
VERTEX
  8
campo_jogos
 10
-9.402197
 20
38.712917
  0
VERTEX
  8
campo_jogos
 10
-9.402324
 20
38.712924
  0
VERTEX
  8
campo_jogos
 10
-9.402324
 20
38.712924
  0
SEQEND
  0
POLYLINE
  8
campo_jogos
  6
BYLAYER
 66
1
 70
1
 40
0.000000
 41
0.000000
  0
VERTEX
  8
campo_jogos
 10
-9.392279
 20
38.714708
  0
VERTEX
  8
campo_jogos
 10
-9.392165
 20
38.714710
  0
VERTEX
  8
campo_jogos
 10
-9.392160
 20
38.714531
  0
VERTEX
  8
campo_jogos
 10
-9.392272
 20
38.714528
  0
VERTEX
  8
campo_jogos
 10
-9.392279
 20
38.714708
  0
VERTEX
  8
campo_jogos
 10
-9.392279
 20
38.714708
  0
SEQEND
  0
POLYLINE
  8
campo_jogos
  6
BYLAYER
 66
1
 70
1
 40
0.000000
 41
0.000000
  0
VERTEX
  8
campo_jogos
 10
-9.392145
 20
38.714711
  0
VERTEX
  8
campo_jogos
 10
-9.392031
 20
38.714714
  0
VERTEX
  8
campo_jogos
 10
-9.392026
 20
38.714534
  0
VERTEX
  8
campo_jogos
 10
-9.392138
 20
38.714531
  0
VERTEX
  8
campo_jogos
 10
-9.392145
 20
38.714711
  0
VERTEX
  8
campo_jogos
 10
-9.392145
 20
38.714711
  0
SEQEND
  0
POLYLINE
  8
campo_jogos
  6
BYLAYER
 66
1
 70
1
 40
0.000000
 41
0.000000
  0
VERTEX
  8
campo_jogos
 10
-9.391997
 20
38.714728
  0
VERTEX
  8
campo_jogos
 10
-9.391884
 20
38.714730
  0
VERTEX
  8
campo_jogos
 10
-9.391879
 20
38.714551
  0
VERTEX
  8
campo_jogos
 10
-9.391991
 20
38.714548
  0
VERTEX
  8
campo_jogos
 10
-9.391997
 20
38.714728
  0
VERTEX
  8
campo_jogos
 10
-9.391997
 20
38.714728
  0
SEQEND
  0
POLYLINE
  8
campo_jogos
  6
BYLAYER
 66
1
 70
1
 40
0.000000
 41
0.000000
  0
VERTEX
  8
campo_jogos
 10
-9.384295
 20
38.715705
  0
VERTEX
  8
campo_jogos
 10
-9.384184
 20
38.715748
  0
VERTEX
  8
campo_jogos
 10
-9.384066
 20
38.715567
  0
VERTEX
  8
campo_jogos
 10
-9.384175
 20
38.715516
  0
VERTEX
  8
campo_jogos
 10
-9.384295
 20
38.715705
  0
VERTEX
  8
campo_jogos
 10
-9.384295
 20
38.715705
  0
SEQEND
  0
POLYLINE
  8
campo_jogos
  6
BYLAYER
 66
1
 70
1
 40
0.000000
 41
0.000000
  0
VERTEX
  8
campo_jogos
 10
-9.389503
 20
38.711140
  0
VERTEX
  8
campo_jogos
 10
-9.389503
 20
38.711140
  0
VERTEX
  8
campo_jogos
 10
-9.389546
 20
38.710926
  0
VERTEX
  8
campo_jogos
 10
-9.389678
 20
38.710943
  0
VERTEX
  8
campo_jogos
 10
-9.389631
 20
38.711155
  0
VERTEX
  8
campo_jogos
 10
-9.389503
 20
38.711140
  0
VERTEX
  8
campo_jogos
 10
-9.389503
 20
38.711140
  0
SEQEND
  0
POLYLINE
  8
campo_jogos
  6
BYLAYER
 66
1
 70
1
 40
0.000000
 41
0.000000
  0
VERTEX
  8
campo_jogos
 10
-9.384488
 20
38.706697
  0
VERTEX
  8
campo_jogos
 10
-9.384767
 20
38.706788
  0
VERTEX
  8
campo_jogos
 10
-9.384577
 20
38.707141
  0
VERTEX
  8
campo_jogos
 10
-9.384300
 20
38.707046
  0
VERTEX
  8
campo_jogos
 10
-9.384488
 20
38.706697
  0
SEQEND
  0
POLYLINE
  8
campo_jogos
  6
BYLAYER
 66
1
 70
1
 40
0.000000
 41
0.000000
  0
VERTEX
  8
campo_jogos
 10
-9.391377
 20
38.714926
  0
VERTEX
  8
campo_jogos
 10
-9.391377
 20
38.714926
  0
VERTEX
  8
campo_jogos
 10
-9.391574
 20
38.714921
  0
VERTEX
  8
campo_jogos
 10
-9.391582
 20
38.715078
  0
VERTEX
  8
campo_jogos
 10
-9.391386
 20
38.715084
  0
VERTEX
  8
campo_jogos
 10
-9.391377
 20
38.714926
  0
SEQEND
  0
POLYLINE
  8
campo_jogos
  6
BYLAYER
 66
1
 70
1
 40
0.000000
 41
0.000000
  0
VERTEX
  8
campo_jogos
 10
-9.338908
 20
38.693966
  0
VERTEX
  8
campo_jogos
 10
-9.338958
 20
38.693754
  0
VERTEX
  8
campo_jogos
 10
-9.339083
 20
38.693772
  0
VERTEX
  8
campo_jogos
 10
-9.339034
 20
38.693984
  0
VERTEX
  8
campo_jogos
 10
-9.338908
 20
38.693966
  0
VERTEX
  8
campo_jogos
 10
-9.338908
 20
38.693966
  0
SEQEND
  0
POLYLINE
  8
campo_jogos
  6
BYLAYER
 66
1
 70
1
 40
0.000000
 41
0.000000
  0
VERTEX
  8
campo_jogos
 10
-9.343051
 20
38.694120
  0
VERTEX
  8
campo_jogos
 10
-9.343060
 20
38.694034
  0
VERTEX
  8
campo_jogos
 10
-9.343056
 20
38.693913
  0
VERTEX
  8
campo_jogos
 10
-9.343106
 20
38.693934
  0
VERTEX
  8
campo_jogos
 10
-9.343407
 20
38.694074
  0
VERTEX
  8
campo_jogos
 10
-9.343292
 20
38.694228
  0
VERTEX
  8
campo_jogos
 10
-9.343051
 20
38.694120
  0
VERTEX
  8
campo_jogos
 10
-9.343051
 20
38.694120
  0
SEQEND
  0
POLYLINE
  8
campo_jogos
  6
BYLAYER
 66
1
 70
1
 40
0.000000
 41
0.000000
  0
VERTEX
  8
campo_jogos
 10
-9.338794
 20
38.693731
  0
VERTEX
  8
campo_jogos
 10
-9.338879
 20
38.693744
  0
VERTEX
  8
campo_jogos
 10
-9.338828
 20
38.693955
  0
VERTEX
  8
campo_jogos
 10
-9.338703
 20
38.693936
  0
VERTEX
  8
campo_jogos
 10
-9.338753
 20
38.693732
  0
VERTEX
  8
campo_jogos
 10
-9.338754
 20
38.693725
  0
VERTEX
  8
campo_jogos
 10
-9.338794
 20
38.693731
  0
VERTEX
  8
campo_jogos
 10
-9.338794
 20
38.693731
  0
SEQEND
  0
POLYLINE
  8
campo_jogos
  6
BYLAYER
 66
1
 70
1
 40
0.000000
 41
0.000000
  0
VERTEX
  8
campo_jogos
 10
-9.336262
 20
38.698064
  0
VERTEX
  8
campo_jogos
 10
-9.336342
 20
38.697743
  0
VERTEX
  8
campo_jogos
 10
-9.337187
 20
38.697874
  0
VERTEX
  8
campo_jogos
 10
-9.337107
 20
38.698194
  0
VERTEX
  8
campo_jogos
 10
-9.336262
 20
38.698064
  0
VERTEX
  8
campo_jogos
 10
-9.336262
 20
38.698064
  0
SEQEND
  0
POLYLINE
  8
campo_jogos
  6
BYLAYER
 66
1
 70
1
 40
0.000000
 41
0.000000
  0
VERTEX
  8
campo_jogos
 10
-9.333674
 20
38.694657
  0
VERTEX
  8
campo_jogos
 10
-9.333730
 20
38.694362
  0
VERTEX
  8
campo_jogos
 10
-9.333914
 20
38.694384
  0
VERTEX
  8
campo_jogos
 10
-9.333858
 20
38.694678
  0
VERTEX
  8
campo_jogos
 10
-9.333674
 20
38.694657
  0
VERTEX
  8
campo_jogos
 10
-9.333674
 20
38.694657
  0
SEQEND
  0
POLYLINE
  8
campo_jogos
  6
BYLAYER
 66
1
 70
1
 40
0.000000
 41
0.000000
  0
VERTEX
  8
campo_jogos
 10
-9.333842
 20
38.694706
  0
VERTEX
  8
campo_jogos
 10
-9.333797
 20
38.694935
  0
VERTEX
  8
campo_jogos
 10
-9.333620
 20
38.694914
  0
VERTEX
  8
campo_jogos
 10
-9.333664
 20
38.694685
  0
VERTEX
  8
campo_jogos
 10
-9.333842
 20
38.694706
  0
VERTEX
  8
campo_jogos
 10
-9.333842
 20
38.694706
  0
SEQEND
  0
POLYLINE
  8
campo_jogos
  6
BYLAYER
 66
1
 70
1
 40
0.000000
 41
0.000000
  0
VERTEX
  8
campo_jogos
 10
-9.329183
 20
38.696861
  0
VERTEX
  8
campo_jogos
 10
-9.328977
 20
38.696856
  0
VERTEX
  8
campo_jogos
 10
-9.328984
 20
38.696528
  0
VERTEX
  8
campo_jogos
 10
-9.329190
 20
38.696529
  0
VERTEX
  8
campo_jogos
 10
-9.329183
 20
38.696861
  0
VERTEX
  8
campo_jogos
 10
-9.329183
 20
38.696861
  0
SEQEND
  0
POLYLINE
  8
campo_jogos
  6
BYLAYER
 66
1
 70
1
 40
0.000000
 41
0.000000
  0
VERTEX
  8
campo_jogos
 10
-9.328853
 20
38.696879
  0
VERTEX
  8
campo_jogos
 10
-9.329078
 20
38.696888
  0
VERTEX
  8
campo_jogos
 10
-9.329076
 20
38.696947
  0
VERTEX
  8
campo_jogos
 10
-9.329076
 20
38.696948
  0
VERTEX
  8
campo_jogos
 10
-9.329076
 20
38.696967
  0
VERTEX
  8
campo_jogos
 10
-9.329076
 20
38.696968
  0
VERTEX
  8
campo_jogos
 10
-9.329073
 20
38.696997
  0
VERTEX
  8
campo_jogos
 10
-9.328844
 20
38.696988
  0
VERTEX
  8
campo_jogos
 10
-9.328853
 20
38.696879
  0
VERTEX
  8
campo_jogos
 10
-9.328853
 20
38.696879
  0
SEQEND
  0
POLYLINE
  8
campo_jogos
  6
BYLAYER
 66
1
 70
1
 40
0.000000
 41
0.000000
  0
VERTEX
  8
campo_jogos
 10
-9.334820
 20
38.694493
  0
VERTEX
  8
campo_jogos
 10
-9.334983
 20
38.694513
  0
VERTEX
  8
campo_jogos
 10
-9.334915
 20
38.694848
  0
VERTEX
  8
campo_jogos
 10
-9.334752
 20
38.694828
  0
VERTEX
  8
campo_jogos
 10
-9.334820
 20
38.694493
  0
VERTEX
  8
campo_jogos
 10
-9.334820
 20
38.694493
  0
SEQEND
  0
POLYLINE
  8
campo_jogos
  6
BYLAYER
 66
1
 70
1
 40
0.000000
 41
0.000000
  0
VERTEX
  8
campo_jogos
 10
-9.345695
 20
38.692066
  0
VERTEX
  8
campo_jogos
 10
-9.345692
 20
38.692103
  0
VERTEX
  8
campo_jogos
 10
-9.345660
 20
38.692102
  0
VERTEX
  8
campo_jogos
 10
-9.345663
 20
38.692064
  0
VERTEX
  8
campo_jogos
 10
-9.345695
 20
38.692066
  0
VERTEX
  8
campo_jogos
 10
-9.345695
 20
38.692066
  0
SEQEND
  0
POLYLINE
  8
campo_jogos
  6
BYLAYER
 66
1
 70
1
 40
0.000000
 41
0.000000
  0
VERTEX
  8
campo_jogos
 10
-9.345648
 20
38.691673
  0
VERTEX
  8
campo_jogos
 10
-9.345635
 20
38.691909
  0
VERTEX
  8
campo_jogos
 10
-9.345474
 20
38.691903
  0
VERTEX
  8
campo_jogos
 10
-9.345487
 20
38.691668
  0
VERTEX
  8
campo_jogos
 10
-9.345648
 20
38.691673
  0
VERTEX
  8
campo_jogos
 10
-9.345648
 20
38.691673
  0
SEQEND
  0
POLYLINE
  8
campo_jogos
  6
BYLAYER
 66
1
 70
1
 40
0.000000
 41
0.000000
  0
VERTEX
  8
campo_jogos
 10
-9.345439
 20
38.691906
  0
VERTEX
  8
campo_jogos
 10
-9.345185
 20
38.691899
  0
VERTEX
  8
campo_jogos
 10
-9.345202
 20
38.691502
  0
VERTEX
  8
campo_jogos
 10
-9.345455
 20
38.691509
  0
VERTEX
  8
campo_jogos
 10
-9.345439
 20
38.691906
  0
VERTEX
  8
campo_jogos
 10
-9.345439
 20
38.691906
  0
SEQEND
  0
POLYLINE
  8
campo_jogos
  6
BYLAYER
 66
1
 70
1
 40
0.000000
 41
0.000000
  0
VERTEX
  8
campo_jogos
 10
-9.345301
 20
38.691016
  0
VERTEX
  8
campo_jogos
 10
-9.345469
 20
38.691332
  0
VERTEX
  8
campo_jogos
 10
-9.345277
 20
38.691395
  0
VERTEX
  8
campo_jogos
 10
-9.345109
 20
38.691078
  0
VERTEX
  8
campo_jogos
 10
-9.345301
 20
38.691016
  0
VERTEX
  8
campo_jogos
 10
-9.345301
 20
38.691016
  0
SEQEND
  0
POLYLINE
  8
campo_jogos
  6
BYLAYER
 66
1
 70
1
 40
0.000000
 41
0.000000
  0
VERTEX
  8
campo_jogos
 10
-9.344734
 20
38.691768
  0
VERTEX
  8
campo_jogos
 10
-9.344728
 20
38.691927
  0
VERTEX
  8
campo_jogos
 10
-9.344624
 20
38.691924
  0
VERTEX
  8
campo_jogos
 10
-9.344630
 20
38.691765
  0
VERTEX
  8
campo_jogos
 10
-9.344734
 20
38.691768
  0
VERTEX
  8
campo_jogos
 10
-9.344734
 20
38.691768
  0
SEQEND
  0
POLYLINE
  8
campo_jogos
  6
BYLAYER
 66
1
 70
1
 40
0.000000
 41
0.000000
  0
VERTEX
  8
campo_jogos
 10
-9.344602
 20
38.691926
  0
VERTEX
  8
campo_jogos
 10
-9.344500
 20
38.691924
  0
VERTEX
  8
campo_jogos
 10
-9.344505
 20
38.691763
  0
VERTEX
  8
campo_jogos
 10
-9.344606
 20
38.691765
  0
VERTEX
  8
campo_jogos
 10
-9.344602
 20
38.691926
  0
VERTEX
  8
campo_jogos
 10
-9.344602
 20
38.691926
  0
SEQEND
  0
POLYLINE
  8
campo_jogos
  6
BYLAYER
 66
1
 70
1
 40
0.000000
 41
0.000000
  0
VERTEX
  8
campo_jogos
 10
-9.344471
 20
38.691782
  0
VERTEX
  8
campo_jogos
 10
-9.344467
 20
38.691905
  0
VERTEX
  8
campo_jogos
 10
-9.344154
 20
38.691897
  0
VERTEX
  8
campo_jogos
 10
-9.344159
 20
38.691774
  0
VERTEX
  8
campo_jogos
 10
-9.344471
 20
38.691782
  0
VERTEX
  8
campo_jogos
 10
-9.344471
 20
38.691782
  0
SEQEND
  0
POLYLINE
  8
campo_jogos
  6
BYLAYER
 66
1
 70
1
 40
0.000000
 41
0.000000
  0
VERTEX
  8
campo_jogos
 10
-9.344274
 20
38.691737
  0
VERTEX
  8
campo_jogos
 10
-9.344280
 20
38.691559
  0
VERTEX
  8
campo_jogos
 10
-9.344740
 20
38.691569
  0
VERTEX
  8
campo_jogos
 10
-9.344734
 20
38.691747
  0
VERTEX
  8
campo_jogos
 10
-9.344274
 20
38.691737
  0
VERTEX
  8
campo_jogos
 10
-9.344274
 20
38.691737
  0
SEQEND
  0
POLYLINE
  8
campo_jogos
  6
BYLAYER
 66
1
 70
1
 40
0.000000
 41
0.000000
  0
VERTEX
  8
campo_jogos
 10
-9.344740
 20
38.691550
  0
VERTEX
  8
campo_jogos
 10
-9.344281
 20
38.691539
  0
VERTEX
  8
campo_jogos
 10
-9.344288
 20
38.691363
  0
VERTEX
  8
campo_jogos
 10
-9.344747
 20
38.691374
  0
VERTEX
  8
campo_jogos
 10
-9.344740
 20
38.691550
  0
VERTEX
  8
campo_jogos
 10
-9.344740
 20
38.691550
  0
SEQEND
  0
POLYLINE
  8
campo_jogos
  6
BYLAYER
 66
1
 70
1
 40
0.000000
 41
0.000000
  0
VERTEX
  8
campo_jogos
 10
-9.343652
 20
38.691723
  0
VERTEX
  8
campo_jogos
 10
-9.343421
 20
38.691717
  0
VERTEX
  8
campo_jogos
 10
-9.343436
 20
38.691359
  0
VERTEX
  8
campo_jogos
 10
-9.343667
 20
38.691364
  0
VERTEX
  8
campo_jogos
 10
-9.343652
 20
38.691723
  0
VERTEX
  8
campo_jogos
 10
-9.343652
 20
38.691723
  0
SEQEND
  0
POLYLINE
  8
campo_jogos
  6
BYLAYER
 66
1
 70
1
 40
0.000000
 41
0.000000
  0
VERTEX
  8
campo_jogos
 10
-9.345582
 20
38.690820
  0
VERTEX
  8
campo_jogos
 10
-9.345760
 20
38.691154
  0
VERTEX
  8
campo_jogos
 10
-9.345547
 20
38.691224
  0
VERTEX
  8
campo_jogos
 10
-9.345369
 20
38.690890
  0
VERTEX
  8
campo_jogos
 10
-9.345582
 20
38.690820
  0
VERTEX
  8
campo_jogos
 10
-9.345582
 20
38.690820
  0
SEQEND
  0
POLYLINE
  8
campo_jogos
  6
BYLAYER
 66
1
 70
1
 40
0.000000
 41
0.000000
  0
VERTEX
  8
campo_jogos
 10
-9.346192
 20
38.690598
  0
VERTEX
  8
campo_jogos
 10
-9.346320
 20
38.690829
  0
VERTEX
  8
campo_jogos
 10
-9.345771
 20
38.691015
  0
VERTEX
  8
campo_jogos
 10
-9.345644
 20
38.690783
  0
VERTEX
  8
campo_jogos
 10
-9.346192
 20
38.690598
  0
VERTEX
  8
campo_jogos
 10
-9.346192
 20
38.690598
  0
SEQEND
  0
POLYLINE
  8
campo_jogos
  6
BYLAYER
 66
1
 70
1
 40
0.000000
 41
0.000000
  0
VERTEX
  8
campo_jogos
 10
-9.345760
 20
38.692041
  0
VERTEX
  8
campo_jogos
 10
-9.345759
 20
38.692085
  0
VERTEX
  8
campo_jogos
 10
-9.345812
 20
38.692085
  0
VERTEX
  8
campo_jogos
 10
-9.345811
 20
38.692123
  0
VERTEX
  8
campo_jogos
 10
-9.345734
 20
38.692122
  0
VERTEX
  8
campo_jogos
 10
-9.345735
 20
38.692085
  0
VERTEX
  8
campo_jogos
 10
-9.345715
 20
38.692085
  0
VERTEX
  8
campo_jogos
 10
-9.345715
 20
38.692051
  0
VERTEX
  8
campo_jogos
 10
-9.345696
 20
38.692051
  0
VERTEX
  8
campo_jogos
 10
-9.345696
 20
38.692015
  0
VERTEX
  8
campo_jogos
 10
-9.345664
 20
38.692015
  0
VERTEX
  8
campo_jogos
 10
-9.345664
 20
38.691974
  0
VERTEX
  8
campo_jogos
 10
-9.345707
 20
38.691974
  0
VERTEX
  8
campo_jogos
 10
-9.345706
 20
38.691968
  0
VERTEX
  8
campo_jogos
 10
-9.345784
 20
38.691968
  0
VERTEX
  8
campo_jogos
 10
-9.345785
 20
38.692018
  0
VERTEX
  8
campo_jogos
 10
-9.345774
 20
38.692018
  0
VERTEX
  8
campo_jogos
 10
-9.345774
 20
38.692038
  0
VERTEX
  8
campo_jogos
 10
-9.345760
 20
38.692041
  0
VERTEX
  8
campo_jogos
 10
-9.345760
 20
38.692041
  0
SEQEND
  0
POLYLINE
  8
campo_jogos
  6
BYLAYER
 66
1
 70
1
 40
0.000000
 41
0.000000
  0
VERTEX
  8
campo_jogos
 10
-9.345662
 20
38.692132
  0
VERTEX
  8
campo_jogos
 10
-9.345745
 20
38.692168
  0
VERTEX
  8
campo_jogos
 10
-9.345662
 20
38.692202
  0
VERTEX
  8
campo_jogos
 10
-9.345662
 20
38.692132
  0
VERTEX
  8
campo_jogos
 10
-9.345662
 20
38.692132
  0
SEQEND
  0
POLYLINE
  8
campo_jogos
  6
BYLAYER
 66
1
 70
1
 40
0.000000
 41
0.000000
  0
VERTEX
  8
campo_jogos
 10
-9.345578
 20
38.691483
  0
VERTEX
  8
campo_jogos
 10
-9.345646
 20
38.691637
  0
VERTEX
  8
campo_jogos
 10
-9.345548
 20
38.691664
  0
VERTEX
  8
campo_jogos
 10
-9.345479
 20
38.691510
  0
VERTEX
  8
campo_jogos
 10
-9.345578
 20
38.691483
  0
VERTEX
  8
campo_jogos
 10
-9.345578
 20
38.691483
  0
SEQEND
  0
POLYLINE
  8
campo_jogos
  6
BYLAYER
 66
1
 70
1
 40
0.000000
 41
0.000000
  0
VERTEX
  8
campo_jogos
 10
-9.343089
 20
38.691869
  0
VERTEX
  8
campo_jogos
 10
-9.343093
 20
38.691736
  0
VERTEX
  8
campo_jogos
 10
-9.343414
 20
38.691741
  0
VERTEX
  8
campo_jogos
 10
-9.343410
 20
38.691875
  0
VERTEX
  8
campo_jogos
 10
-9.343089
 20
38.691869
  0
VERTEX
  8
campo_jogos
 10
-9.343089
 20
38.691869
  0
SEQEND
  0
POLYLINE
  8
campo_jogos
  6
BYLAYER
 66
1
 70
1
 40
0.000000
 41
0.000000
  0
VERTEX
  8
campo_jogos
 10
-9.343467
 20
38.691746
  0
VERTEX
  8
campo_jogos
 10
-9.343604
 20
38.691750
  0
VERTEX
  8
campo_jogos
 10
-9.343601
 20
38.691806
  0
VERTEX
  8
campo_jogos
 10
-9.343464
 20
38.691802
  0
VERTEX
  8
campo_jogos
 10
-9.343467
 20
38.691746
  0
VERTEX
  8
campo_jogos
 10
-9.343467
 20
38.691746
  0
SEQEND
  0
POLYLINE
  8
campo_jogos
  6
BYLAYER
 66
1
 70
1
 40
0.000000
 41
0.000000
  0
VERTEX
  8
campo_jogos
 10
-9.343602
 20
38.691823
  0
VERTEX
  8
campo_jogos
 10
-9.343601
 20
38.691877
  0
VERTEX
  8
campo_jogos
 10
-9.343463
 20
38.691874
  0
VERTEX
  8
campo_jogos
 10
-9.343464
 20
38.691820
  0
VERTEX
  8
campo_jogos
 10
-9.343602
 20
38.691823
  0
VERTEX
  8
campo_jogos
 10
-9.343602
 20
38.691823
  0
SEQEND
  0
POLYLINE
  8
campo_jogos
  6
BYLAYER
 66
1
 70
1
 40
0.000000
 41
0.000000
  0
VERTEX
  8
campo_jogos
 10
-9.343293
 20
38.691354
  0
VERTEX
  8
campo_jogos
 10
-9.343279
 20
38.691715
  0
VERTEX
  8
campo_jogos
 10
-9.343048
 20
38.691710
  0
VERTEX
  8
campo_jogos
 10
-9.343061
 20
38.691349
  0
VERTEX
  8
campo_jogos
 10
-9.343293
 20
38.691354
  0
VERTEX
  8
campo_jogos
 10
-9.343293
 20
38.691354
  0
SEQEND
  0
POLYLINE
  8
campo_jogos
  6
BYLAYER
 66
1
 70
1
 40
0.000000
 41
0.000000
  0
VERTEX
  8
campo_jogos
 10
-9.345822
 20
38.691168
  0
VERTEX
  8
campo_jogos
 10
-9.345753
 20
38.691038
  0
VERTEX
  8
campo_jogos
 10
-9.345752
 20
38.691036
  0
VERTEX
  8
campo_jogos
 10
-9.345755
 20
38.691035
  0
VERTEX
  8
campo_jogos
 10
-9.346203
 20
38.690886
  0
VERTEX
  8
campo_jogos
 10
-9.346235
 20
38.690951
  0
VERTEX
  8
campo_jogos
 10
-9.346259
 20
38.690997
  0
VERTEX
  8
campo_jogos
 10
-9.346228
 20
38.691009
  0
VERTEX
  8
campo_jogos
 10
-9.346239
 20
38.691036
  0
VERTEX
  8
campo_jogos
 10
-9.345934
 20
38.691136
  0
VERTEX
  8
campo_jogos
 10
-9.345909
 20
38.691145
  0
VERTEX
  8
campo_jogos
 10
-9.345822
 20
38.691168
  0
VERTEX
  8
campo_jogos
 10
-9.345822
 20
38.691168
  0
SEQEND
  0
POLYLINE
  8
campo_jogos
  6
BYLAYER
 66
1
 70
1
 40
0.000000
 41
0.000000
  0
VERTEX
  8
campo_jogos
 10
-9.342847
 20
38.693689
  0
VERTEX
  8
campo_jogos
 10
-9.342848
 20
38.693649
  0
VERTEX
  8
campo_jogos
 10
-9.343051
 20
38.693654
  0
VERTEX
  8
campo_jogos
 10
-9.343049
 20
38.693687
  0
VERTEX
  8
campo_jogos
 10
-9.343039
 20
38.693921
  0
VERTEX
  8
campo_jogos
 10
-9.342837
 20
38.693915
  0
VERTEX
  8
campo_jogos
 10
-9.342847
 20
38.693689
  0
VERTEX
  8
campo_jogos
 10
-9.342847
 20
38.693689
  0
SEQEND
  0
POLYLINE
  8
campo_jogos
  6
BYLAYER
 66
1
 70
1
 40
0.000000
 41
0.000000
  0
VERTEX
  8
campo_jogos
 10
-9.335385
 20
38.693612
  0
VERTEX
  8
campo_jogos
 10
-9.335157
 20
38.693635
  0
VERTEX
  8
campo_jogos
 10
-9.335154
 20
38.693632
  0
VERTEX
  8
campo_jogos
 10
-9.335152
 20
38.693628
  0
VERTEX
  8
campo_jogos
 10
-9.335149
 20
38.693624
  0
VERTEX
  8
campo_jogos
 10
-9.335145
 20
38.693621
  0
VERTEX
  8
campo_jogos
 10
-9.335141
 20
38.693618
  0
VERTEX
  8
campo_jogos
 10
-9.335137
 20
38.693615
  0
VERTEX
  8
campo_jogos
 10
-9.335133
 20
38.693613
  0
VERTEX
  8
campo_jogos
 10
-9.335128
 20
38.693611
  0
VERTEX
  8
campo_jogos
 10
-9.335124
 20
38.693609
  0
VERTEX
  8
campo_jogos
 10
-9.335119
 20
38.693607
  0
VERTEX
  8
campo_jogos
 10
-9.335114
 20
38.693606
  0
VERTEX
  8
campo_jogos
 10
-9.335108
 20
38.693513
  0
VERTEX
  8
campo_jogos
 10
-9.335364
 20
38.693486
  0
VERTEX
  8
campo_jogos
 10
-9.335385
 20
38.693612
  0
VERTEX
  8
campo_jogos
 10
-9.335385
 20
38.693612
  0
SEQEND
  0
POLYLINE
  8
campo_jogos
  6
BYLAYER
 66
1
 70
1
 40
0.000000
 41
0.000000
  0
VERTEX
  8
campo_jogos
 10
-9.328693
 20
38.690395
  0
VERTEX
  8
campo_jogos
 10
-9.328714
 20
38.690409
  0
VERTEX
  8
campo_jogos
 10
-9.328733
 20
38.690424
  0
VERTEX
  8
campo_jogos
 10
-9.328749
 20
38.690441
  0
VERTEX
  8
campo_jogos
 10
-9.328762
 20
38.690459
  0
VERTEX
  8
campo_jogos
 10
-9.328772
 20
38.690479
  0
VERTEX
  8
campo_jogos
 10
-9.328779
 20
38.690499
  0
VERTEX
  8
campo_jogos
 10
-9.328782
 20
38.690520
  0
VERTEX
  8
campo_jogos
 10
-9.328782
 20
38.690541
  0
VERTEX
  8
campo_jogos
 10
-9.328778
 20
38.690562
  0
VERTEX
  8
campo_jogos
 10
-9.328771
 20
38.690583
  0
VERTEX
  8
campo_jogos
 10
-9.328760
 20
38.690602
  0
VERTEX
  8
campo_jogos
 10
-9.328752
 20
38.690610
  0
VERTEX
  8
campo_jogos
 10
-9.328743
 20
38.690617
  0
VERTEX
  8
campo_jogos
 10
-9.328733
 20
38.690622
  0
VERTEX
  8
campo_jogos
 10
-9.328722
 20
38.690627
  0
VERTEX
  8
campo_jogos
 10
-9.328710
 20
38.690631
  0
VERTEX
  8
campo_jogos
 10
-9.328698
 20
38.690633
  0
VERTEX
  8
campo_jogos
 10
-9.328686
 20
38.690634
  0
VERTEX
  8
campo_jogos
 10
-9.328673
 20
38.690634
  0
VERTEX
  8
campo_jogos
 10
-9.328661
 20
38.690633
  0
VERTEX
  8
campo_jogos
 10
-9.328649
 20
38.690630
  0
VERTEX
  8
campo_jogos
 10
-9.328637
 20
38.690626
  0
VERTEX
  8
campo_jogos
 10
-9.328619
 20
38.690615
  0
VERTEX
  8
campo_jogos
 10
-9.328602
 20
38.690603
  0
VERTEX
  8
campo_jogos
 10
-9.328586
 20
38.690590
  0
VERTEX
  8
campo_jogos
 10
-9.328573
 20
38.690575
  0
VERTEX
  8
campo_jogos
 10
-9.328561
 20
38.690559
  0
VERTEX
  8
campo_jogos
 10
-9.328552
 20
38.690543
  0
VERTEX
  8
campo_jogos
 10
-9.328544
 20
38.690526
  0
VERTEX
  8
campo_jogos
 10
-9.328539
 20
38.690508
  0
VERTEX
  8
campo_jogos
 10
-9.328536
 20
38.690490
  0
VERTEX
  8
campo_jogos
 10
-9.328536
 20
38.690472
  0
VERTEX
  8
campo_jogos
 10
-9.328538
 20
38.690454
  0
VERTEX
  8
campo_jogos
 10
-9.328541
 20
38.690446
  0
VERTEX
  8
campo_jogos
 10
-9.328544
 20
38.690438
  0
VERTEX
  8
campo_jogos
 10
-9.328548
 20
38.690431
  0
VERTEX
  8
campo_jogos
 10
-9.328553
 20
38.690423
  0
VERTEX
  8
campo_jogos
 10
-9.328559
 20
38.690416
  0
VERTEX
  8
campo_jogos
 10
-9.328565
 20
38.690410
  0
VERTEX
  8
campo_jogos
 10
-9.328572
 20
38.690403
  0
VERTEX
  8
campo_jogos
 10
-9.328579
 20
38.690397
  0
VERTEX
  8
campo_jogos
 10
-9.328587
 20
38.690392
  0
VERTEX
  8
campo_jogos
 10
-9.328595
 20
38.690387
  0
VERTEX
  8
campo_jogos
 10
-9.328604
 20
38.690382
  0
VERTEX
  8
campo_jogos
 10
-9.328611
 20
38.690381
  0
VERTEX
  8
campo_jogos
 10
-9.328618
 20
38.690381
  0
VERTEX
  8
campo_jogos
 10
-9.328625
 20
38.690380
  0
VERTEX
  8
campo_jogos
 10
-9.328632
 20
38.690381
  0
VERTEX
  8
campo_jogos
 10
-9.328639
 20
38.690381
  0
VERTEX
  8
campo_jogos
 10
-9.328645
 20
38.690382
  0
VERTEX
  8
campo_jogos
 10
-9.328652
 20
38.690382
  0
VERTEX
  8
campo_jogos
 10
-9.328659
 20
38.690384
  0
VERTEX
  8
campo_jogos
 10
-9.328666
 20
38.690385
  0
VERTEX
  8
campo_jogos
 10
-9.328672
 20
38.690387
  0
VERTEX
  8
campo_jogos
 10
-9.328679
 20
38.690389
  0
VERTEX
  8
campo_jogos
 10
-9.328693
 20
38.690395
  0
VERTEX
  8
campo_jogos
 10
-9.328693
 20
38.690395
  0
SEQEND
  0
POLYLINE
  8
campo_jogos
  6
BYLAYER
 66
1
 70
1
 40
0.000000
 41
0.000000
  0
VERTEX
  8
campo_jogos
 10
-9.333187
 20
38.689429
  0
VERTEX
  8
campo_jogos
 10
-9.333196
 20
38.689429
  0
VERTEX
  8
campo_jogos
 10
-9.333363
 20
38.689416
  0
VERTEX
  8
campo_jogos
 10
-9.333380
 20
38.689601
  0
VERTEX
  8
campo_jogos
 10
-9.333208
 20
38.689610
  0
VERTEX
  8
campo_jogos
 10
-9.333204
 20
38.689554
  0
VERTEX
  8
campo_jogos
 10
-9.333200
 20
38.689524
  0
VERTEX
  8
campo_jogos
 10
-9.333187
 20
38.689429
  0
VERTEX
  8
campo_jogos
 10
-9.333187
 20
38.689429
  0
SEQEND
  0
POLYLINE
  8
campo_jogos
  6
BYLAYER
 66
1
 70
1
 40
0.000000
 41
0.000000
  0
VERTEX
  8
campo_jogos
 10
-9.329397
 20
38.689787
  0
VERTEX
  8
campo_jogos
 10
-9.329577
 20
38.689785
  0
VERTEX
  8
campo_jogos
 10
-9.329769
 20
38.689782
  0
VERTEX
  8
campo_jogos
 10
-9.329767
 20
38.689916
  0
VERTEX
  8
campo_jogos
 10
-9.329740
 20
38.689917
  0
VERTEX
  8
campo_jogos
 10
-9.329740
 20
38.689941
  0
VERTEX
  8
campo_jogos
 10
-9.329461
 20
38.689943
  0
VERTEX
  8
campo_jogos
 10
-9.329460
 20
38.689922
  0
VERTEX
  8
campo_jogos
 10
-9.329399
 20
38.689921
  0
VERTEX
  8
campo_jogos
 10
-9.329397
 20
38.689787
  0
VERTEX
  8
campo_jogos
 10
-9.329397
 20
38.689787
  0
SEQEND
  0
POLYLINE
  8
campo_jogos
  6
BYLAYER
 66
1
 70
1
 40
0.000000
 41
0.000000
  0
VERTEX
  8
campo_jogos
 10
-9.332920
 20
38.689288
  0
VERTEX
  8
campo_jogos
 10
-9.332996
 20
38.689282
  0
VERTEX
  8
campo_jogos
 10
-9.332996
 20
38.689287
  0
VERTEX
  8
campo_jogos
 10
-9.333006
 20
38.689371
  0
VERTEX
  8
campo_jogos
 10
-9.332831
 20
38.689383
  0
VERTEX
  8
campo_jogos
 10
-9.332821
 20
38.689295
  0
VERTEX
  8
campo_jogos
 10
-9.332920
 20
38.689288
  0
VERTEX
  8
campo_jogos
 10
-9.332920
 20
38.689288
  0
SEQEND
  0
POLYLINE
  8
campo_jogos
  6
BYLAYER
 66
1
 70
1
 40
0.000000
 41
0.000000
  0
VERTEX
  8
campo_jogos
 10
-9.344870
 20
38.690813
  0
VERTEX
  8
campo_jogos
 10
-9.343780
 20
38.691099
  0
VERTEX
  8
campo_jogos
 10
-9.343565
 20
38.690586
  0
VERTEX
  8
campo_jogos
 10
-9.344653
 20
38.690300
  0
VERTEX
  8
campo_jogos
 10
-9.344870
 20
38.690813
  0
VERTEX
  8
campo_jogos
 10
-9.344870
 20
38.690813
  0
SEQEND
  0
POLYLINE
  8
campo_jogos
  6
BYLAYER
 66
1
 70
1
 40
0.000000
 41
0.000000
  0
VERTEX
  8
campo_jogos
 10
-9.332376
 20
38.690257
  0
VERTEX
  8
campo_jogos
 10
-9.332215
 20
38.690214
  0
VERTEX
  8
campo_jogos
 10
-9.332289
 20
38.690065
  0
VERTEX
  8
campo_jogos
 10
-9.332444
 20
38.690112
  0
VERTEX
  8
campo_jogos
 10
-9.332376
 20
38.690257
  0
VERTEX
  8
campo_jogos
 10
-9.332376
 20
38.690257
  0
SEQEND
  0
POLYLINE
  8
campo_jogos
  6
BYLAYER
 66
1
 70
1
 40
0.000000
 41
0.000000
  0
VERTEX
  8
campo_jogos
 10
-9.339951
 20
38.696673
  0
VERTEX
  8
campo_jogos
 10
-9.339922
 20
38.696892
  0
VERTEX
  8
campo_jogos
 10
-9.339784
 20
38.696880
  0
VERTEX
  8
campo_jogos
 10
-9.339813
 20
38.696662
  0
VERTEX
  8
campo_jogos
 10
-9.339951
 20
38.696673
  0
SEQEND
  0
POLYLINE
  8
campo_jogos
  6
BYLAYER
 66
1
 70
1
 40
0.000000
 41
0.000000
  0
VERTEX
  8
campo_jogos
 10
-9.341492
 20
38.685498
  0
VERTEX
  8
campo_jogos
 10
-9.341622
 20
38.685497
  0
VERTEX
  8
campo_jogos
 10
-9.341625
 20
38.685711
  0
VERTEX
  8
campo_jogos
 10
-9.341496
 20
38.685713
  0
VERTEX
  8
campo_jogos
 10
-9.341492
 20
38.685498
  0
VERTEX
  8
campo_jogos
 10
-9.341492
 20
38.685498
  0
SEQEND
  0
POLYLINE
  8
campo_jogos
  6
BYLAYER
 66
1
 70
1
 40
0.000000
 41
0.000000
  0
VERTEX
  8
campo_jogos
 10
-9.341895
 20
38.685494
  0
VERTEX
  8
campo_jogos
 10
-9.341898
 20
38.685709
  0
VERTEX
  8
campo_jogos
 10
-9.341771
 20
38.685711
  0
VERTEX
  8
campo_jogos
 10
-9.341768
 20
38.685496
  0
VERTEX
  8
campo_jogos
 10
-9.341895
 20
38.685494
  0
VERTEX
  8
campo_jogos
 10
-9.341895
 20
38.685494
  0
SEQEND
  0
POLYLINE
  8
campo_jogos
  6
BYLAYER
 66
1
 70
1
 40
0.000000
 41
0.000000
  0
VERTEX
  8
campo_jogos
 10
-9.341915
 20
38.686114
  0
VERTEX
  8
campo_jogos
 10
-9.341789
 20
38.686115
  0
VERTEX
  8
campo_jogos
 10
-9.341787
 20
38.685901
  0
VERTEX
  8
campo_jogos
 10
-9.341913
 20
38.685901
  0
VERTEX
  8
campo_jogos
 10
-9.341915
 20
38.686114
  0
VERTEX
  8
campo_jogos
 10
-9.341915
 20
38.686114
  0
SEQEND
  0
POLYLINE
  8
campo_jogos
  6
BYLAYER
 66
1
 70
1
 40
0.000000
 41
0.000000
  0
VERTEX
  8
campo_jogos
 10
-9.340280
 20
38.685966
  0
VERTEX
  8
campo_jogos
 10
-9.340239
 20
38.686157
  0
VERTEX
  8
campo_jogos
 10
-9.340164
 20
38.686148
  0
VERTEX
  8
campo_jogos
 10
-9.340182
 20
38.686059
  0
VERTEX
  8
campo_jogos
 10
-9.340219
 20
38.686037
  0
VERTEX
  8
campo_jogos
 10
-9.340225
 20
38.685987
  0
VERTEX
  8
campo_jogos
 10
-9.340280
 20
38.685966
  0
VERTEX
  8
campo_jogos
 10
-9.340280
 20
38.685966
  0
SEQEND
  0
POLYLINE
  8
campo_jogos
  6
BYLAYER
 66
1
 70
1
 40
0.000000
 41
0.000000
  0
VERTEX
  8
campo_jogos
 10
-9.339925
 20
38.687087
  0
VERTEX
  8
campo_jogos
 10
-9.340091
 20
38.687108
  0
VERTEX
  8
campo_jogos
 10
-9.340078
 20
38.687174
  0
VERTEX
  8
campo_jogos
 10
-9.339912
 20
38.687154
  0
VERTEX
  8
campo_jogos
 10
-9.339925
 20
38.687087
  0
VERTEX
  8
campo_jogos
 10
-9.339925
 20
38.687087
  0
SEQEND
  0
POLYLINE
  8
campo_jogos
  6
BYLAYER
 66
1
 70
1
 40
0.000000
 41
0.000000
  0
VERTEX
  8
campo_jogos
 10
-9.343904
 20
38.685622
  0
VERTEX
  8
campo_jogos
 10
-9.343712
 20
38.685772
  0
VERTEX
  8
campo_jogos
 10
-9.343622
 20
38.685701
  0
VERTEX
  8
campo_jogos
 10
-9.343815
 20
38.685551
  0
VERTEX
  8
campo_jogos
 10
-9.343904
 20
38.685622
  0
VERTEX
  8
campo_jogos
 10
-9.343904
 20
38.685622
  0
SEQEND
  0
POLYLINE
  8
campo_jogos
  6
BYLAYER
 66
1
 70
1
 40
0.000000
 41
0.000000
  0
VERTEX
  8
campo_jogos
 10
-9.341708
 20
38.684898
  0
VERTEX
  8
campo_jogos
 10
-9.341707
 20
38.685142
  0
VERTEX
  8
campo_jogos
 10
-9.341579
 20
38.685141
  0
VERTEX
  8
campo_jogos
 10
-9.341580
 20
38.684898
  0
VERTEX
  8
campo_jogos
 10
-9.341708
 20
38.684898
  0
VERTEX
  8
campo_jogos
 10
-9.341708
 20
38.684898
  0
SEQEND
  0
POLYLINE
  8
campo_jogos
  6
BYLAYER
 66
1
 70
1
 40
0.000000
 41
0.000000
  0
VERTEX
  8
campo_jogos
 10
-9.341418
 20
38.685714
  0
VERTEX
  8
campo_jogos
 10
-9.341294
 20
38.685716
  0
VERTEX
  8
campo_jogos
 10
-9.341288
 20
38.685501
  0
VERTEX
  8
campo_jogos
 10
-9.341412
 20
38.685499
  0
VERTEX
  8
campo_jogos
 10
-9.341418
 20
38.685714
  0
VERTEX
  8
campo_jogos
 10
-9.341418
 20
38.685714
  0
SEQEND
  0
POLYLINE
  8
campo_jogos
  6
BYLAYER
 66
1
 70
1
 40
0.000000
 41
0.000000
  0
VERTEX
  8
campo_jogos
 10
-9.341976
 20
38.685709
  0
VERTEX
  8
campo_jogos
 10
-9.341971
 20
38.685495
  0
VERTEX
  8
campo_jogos
 10
-9.342101
 20
38.685493
  0
VERTEX
  8
campo_jogos
 10
-9.342107
 20
38.685707
  0
VERTEX
  8
campo_jogos
 10
-9.341976
 20
38.685709
  0
VERTEX
  8
campo_jogos
 10
-9.341976
 20
38.685709
  0
SEQEND
  0
POLYLINE
  8
campo_jogos
  6
BYLAYER
 66
1
 70
1
 40
0.000000
 41
0.000000
  0
VERTEX
  8
campo_jogos
 10
-9.341619
 20
38.685857
  0
VERTEX
  8
campo_jogos
 10
-9.341619
 20
38.686074
  0
VERTEX
  8
campo_jogos
 10
-9.341491
 20
38.686074
  0
VERTEX
  8
campo_jogos
 10
-9.341491
 20
38.685857
  0
VERTEX
  8
campo_jogos
 10
-9.341619
 20
38.685857
  0
VERTEX
  8
campo_jogos
 10
-9.341619
 20
38.685857
  0
SEQEND
  0
POLYLINE
  8
campo_jogos
  6
BYLAYER
 66
1
 70
1
 40
0.000000
 41
0.000000
  0
VERTEX
  8
campo_jogos
 10
-9.341411
 20
38.686073
  0
VERTEX
  8
campo_jogos
 10
-9.341285
 20
38.686073
  0
VERTEX
  8
campo_jogos
 10
-9.341284
 20
38.685860
  0
VERTEX
  8
campo_jogos
 10
-9.341411
 20
38.685859
  0
VERTEX
  8
campo_jogos
 10
-9.341411
 20
38.686073
  0
VERTEX
  8
campo_jogos
 10
-9.341411
 20
38.686073
  0
SEQEND
  0
POLYLINE
  8
campo_jogos
  6
BYLAYER
 66
1
 70
1
 40
0.000000
 41
0.000000
  0
VERTEX
  8
campo_jogos
 10
-9.335315
 20
38.684759
  0
VERTEX
  8
campo_jogos
 10
-9.335316
 20
38.684739
  0
VERTEX
  8
campo_jogos
 10
-9.335467
 20
38.684741
  0
VERTEX
  8
campo_jogos
 10
-9.335467
 20
38.684758
  0
VERTEX
  8
campo_jogos
 10
-9.335463
 20
38.684974
  0
VERTEX
  8
campo_jogos
 10
-9.335312
 20
38.684972
  0
VERTEX
  8
campo_jogos
 10
-9.335315
 20
38.684759
  0
VERTEX
  8
campo_jogos
 10
-9.335315
 20
38.684759
  0
SEQEND
  0
POLYLINE
  8
campo_jogos
  6
BYLAYER
 66
1
 70
1
 40
0.000000
 41
0.000000
  0
VERTEX
  8
campo_jogos
 10
-9.331897
 20
38.688770
  0
VERTEX
  8
campo_jogos
 10
-9.331954
 20
38.688415
  0
VERTEX
  8
campo_jogos
 10
-9.332184
 20
38.688438
  0
VERTEX
  8
campo_jogos
 10
-9.332127
 20
38.688793
  0
VERTEX
  8
campo_jogos
 10
-9.331897
 20
38.688770
  0
VERTEX
  8
campo_jogos
 10
-9.331897
 20
38.688770
  0
SEQEND
  0
POLYLINE
  8
campo_jogos
  6
BYLAYER
 66
1
 70
1
 40
0.000000
 41
0.000000
  0
VERTEX
  8
campo_jogos
 10
-9.339410
 20
38.683269
  0
VERTEX
  8
campo_jogos
 10
-9.339024
 20
38.683223
  0
VERTEX
  8
campo_jogos
 10
-9.339048
 20
38.683098
  0
VERTEX
  8
campo_jogos
 10
-9.339435
 20
38.683144
  0
VERTEX
  8
campo_jogos
 10
-9.339410
 20
38.683269
  0
VERTEX
  8
campo_jogos
 10
-9.339410
 20
38.683269
  0
SEQEND
  0
POLYLINE
  8
campo_jogos
  6
BYLAYER
 66
1
 70
1
 40
0.000000
 41
0.000000
  0
VERTEX
  8
campo_jogos
 10
-9.345183
 20
38.683107
  0
VERTEX
  8
campo_jogos
 10
-9.345228
 20
38.683171
  0
VERTEX
  8
campo_jogos
 10
-9.345110
 20
38.683222
  0
VERTEX
  8
campo_jogos
 10
-9.345049
 20
38.683133
  0
VERTEX
  8
campo_jogos
 10
-9.345084
 20
38.683118
  0
VERTEX
  8
campo_jogos
 10
-9.345075
 20
38.683099
  0
VERTEX
  8
campo_jogos
 10
-9.345073
 20
38.683094
  0
VERTEX
  8
campo_jogos
 10
-9.345073
 20
38.683089
  0
VERTEX
  8
campo_jogos
 10
-9.345074
 20
38.683084
  0
VERTEX
  8
campo_jogos
 10
-9.345077
 20
38.683080
  0
VERTEX
  8
campo_jogos
 10
-9.345081
 20
38.683076
  0
VERTEX
  8
campo_jogos
 10
-9.345086
 20
38.683072
  0
VERTEX
  8
campo_jogos
 10
-9.345091
 20
38.683070
  0
VERTEX
  8
campo_jogos
 10
-9.345098
 20
38.683068
  0
VERTEX
  8
campo_jogos
 10
-9.345104
 20
38.683068
  0
VERTEX
  8
campo_jogos
 10
-9.345110
 20
38.683069
  0
VERTEX
  8
campo_jogos
 10
-9.345116
 20
38.683070
  0
VERTEX
  8
campo_jogos
 10
-9.345122
 20
38.683073
  0
VERTEX
  8
campo_jogos
 10
-9.345127
 20
38.683077
  0
VERTEX
  8
campo_jogos
 10
-9.345130
 20
38.683081
  0
VERTEX
  8
campo_jogos
 10
-9.345133
 20
38.683086
  0
VERTEX
  8
campo_jogos
 10
-9.345134
 20
38.683090
  0
VERTEX
  8
campo_jogos
 10
-9.345133
 20
38.683095
  0
VERTEX
  8
campo_jogos
 10
-9.345183
 20
38.683107
  0
VERTEX
  8
campo_jogos
 10
-9.345183
 20
38.683107
  0
SEQEND
  0
POLYLINE
  8
campo_jogos
  6
BYLAYER
 66
1
 70
1
 40
0.000000
 41
0.000000
  0
VERTEX
  8
campo_jogos
 10
-9.334687
 20
38.683572
  0
VERTEX
  8
campo_jogos
 10
-9.334899
 20
38.682785
  0
VERTEX
  8
campo_jogos
 10
-9.335408
 20
38.682869
  0
VERTEX
  8
campo_jogos
 10
-9.335196
 20
38.683657
  0
VERTEX
  8
campo_jogos
 10
-9.334687
 20
38.683572
  0
VERTEX
  8
campo_jogos
 10
-9.334687
 20
38.683572
  0
SEQEND
  0
POLYLINE
  8
campo_jogos
  6
BYLAYER
 66
1
 70
1
 40
0.000000
 41
0.000000
  0
VERTEX
  8
campo_jogos
 10
-9.335303
 20
38.683538
  0
VERTEX
  8
campo_jogos
 10
-9.335446
 20
38.683008
  0
VERTEX
  8
campo_jogos
 10
-9.335781
 20
38.683063
  0
VERTEX
  8
campo_jogos
 10
-9.335638
 20
38.683594
  0
VERTEX
  8
campo_jogos
 10
-9.335303
 20
38.683538
  0
VERTEX
  8
campo_jogos
 10
-9.335303
 20
38.683538
  0
SEQEND
  0
POLYLINE
  8
campo_jogos
  6
BYLAYER
 66
1
 70
1
 40
0.000000
 41
0.000000
  0
VERTEX
  8
campo_jogos
 10
-9.328860
 20
38.684107
  0
VERTEX
  8
campo_jogos
 10
-9.328926
 20
38.683769
  0
VERTEX
  8
campo_jogos
 10
-9.329142
 20
38.683795
  0
VERTEX
  8
campo_jogos
 10
-9.329079
 20
38.684134
  0
VERTEX
  8
campo_jogos
 10
-9.328860
 20
38.684107
  0
VERTEX
  8
campo_jogos
 10
-9.328860
 20
38.684107
  0
SEQEND
  0
POLYLINE
  8
campo_jogos
  6
BYLAYER
 66
1
 70
1
 40
0.000000
 41
0.000000
  0
VERTEX
  8
campo_jogos
 10
-9.328559
 20
38.684146
  0
VERTEX
  8
campo_jogos
 10
-9.328569
 20
38.683945
  0
VERTEX
  8
campo_jogos
 10
-9.328709
 20
38.683950
  0
VERTEX
  8
campo_jogos
 10
-9.328699
 20
38.684151
  0
VERTEX
  8
campo_jogos
 10
-9.328559
 20
38.684146
  0
VERTEX
  8
campo_jogos
 10
-9.328559
 20
38.684146
  0
SEQEND
  0
POLYLINE
  8
campo_jogos
  6
BYLAYER
 66
1
 70
1
 40
0.000000
 41
0.000000
  0
VERTEX
  8
campo_jogos
 10
-9.336208
 20
38.683019
  0
VERTEX
  8
campo_jogos
 10
-9.336215
 20
38.682946
  0
VERTEX
  8
campo_jogos
 10
-9.336317
 20
38.682953
  0
VERTEX
  8
campo_jogos
 10
-9.336314
 20
38.682983
  0
VERTEX
  8
campo_jogos
 10
-9.336333
 20
38.682985
  0
VERTEX
  8
campo_jogos
 10
-9.336328
 20
38.683026
  0
VERTEX
  8
campo_jogos
 10
-9.336208
 20
38.683019
  0
VERTEX
  8
campo_jogos
 10
-9.336208
 20
38.683019
  0
SEQEND
  0
POLYLINE
  8
campo_jogos
  6
BYLAYER
 66
1
 70
1
 40
0.000000
 41
0.000000
  0
VERTEX
  8
campo_jogos
 10
-9.329018
 20
38.683608
  0
VERTEX
  8
campo_jogos
 10
-9.329148
 20
38.683574
  0
VERTEX
  8
campo_jogos
 10
-9.329210
 20
38.683605
  0
VERTEX
  8
campo_jogos
 10
-9.329148
 20
38.683737
  0
VERTEX
  8
campo_jogos
 10
-9.329012
 20
38.683731
  0
VERTEX
  8
campo_jogos
 10
-9.329018
 20
38.683608
  0
VERTEX
  8
campo_jogos
 10
-9.329018
 20
38.683608
  0
SEQEND
  0
POLYLINE
  8
campo_jogos
  6
BYLAYER
 66
1
 70
1
 40
0.000000
 41
0.000000
  0
VERTEX
  8
campo_jogos
 10
-9.332887
 20
38.684798
  0
VERTEX
  8
campo_jogos
 10
-9.332848
 20
38.684782
  0
VERTEX
  8
campo_jogos
 10
-9.333087
 20
38.684443
  0
VERTEX
  8
campo_jogos
 10
-9.333793
 20
38.684758
  0
VERTEX
  8
campo_jogos
 10
-9.333747
 20
38.684820
  0
VERTEX
  8
campo_jogos
 10
-9.333555
 20
38.685088
  0
VERTEX
  8
campo_jogos
 10
-9.332887
 20
38.684798
  0
VERTEX
  8
campo_jogos
 10
-9.332887
 20
38.684798
  0
SEQEND
  0
POLYLINE
  8
campo_jogos
  6
BYLAYER
 66
1
 70
1
 40
0.000000
 41
0.000000
  0
VERTEX
  8
campo_jogos
 10
-9.333028
 20
38.683598
  0
VERTEX
  8
campo_jogos
 10
-9.333146
 20
38.683420
  0
VERTEX
  8
campo_jogos
 10
-9.333293
 20
38.683183
  0
VERTEX
  8
campo_jogos
 10
-9.333450
 20
38.682948
  0
VERTEX
  8
campo_jogos
 10
-9.333654
 20
38.682628
  0
VERTEX
  8
campo_jogos
 10
-9.333729
 20
38.682518
  0
VERTEX
  8
campo_jogos
 10
-9.334458
 20
38.682779
  0
VERTEX
  8
campo_jogos
 10
-9.334313
 20
38.682997
  0
VERTEX
  8
campo_jogos
 10
-9.334030
 20
38.683474
  0
VERTEX
  8
campo_jogos
 10
-9.334068
 20
38.683591
  0
VERTEX
  8
campo_jogos
 10
-9.334082
 20
38.683654
  0
VERTEX
  8
campo_jogos
 10
-9.334082
 20
38.683663
  0
VERTEX
  8
campo_jogos
 10
-9.334082
 20
38.683673
  0
VERTEX
  8
campo_jogos
 10
-9.334082
 20
38.683682
  0
VERTEX
  8
campo_jogos
 10
-9.334081
 20
38.683694
  0
VERTEX
  8
campo_jogos
 10
-9.334081
 20
38.683706
  0
VERTEX
  8
campo_jogos
 10
-9.334080
 20
38.683716
  0
VERTEX
  8
campo_jogos
 10
-9.334078
 20
38.683726
  0
VERTEX
  8
campo_jogos
 10
-9.334076
 20
38.683735
  0
VERTEX
  8
campo_jogos
 10
-9.334074
 20
38.683745
  0
VERTEX
  8
campo_jogos
 10
-9.334070
 20
38.683755
  0
VERTEX
  8
campo_jogos
 10
-9.334066
 20
38.683764
  0
VERTEX
  8
campo_jogos
 10
-9.334060
 20
38.683773
  0
VERTEX
  8
campo_jogos
 10
-9.334054
 20
38.683784
  0
VERTEX
  8
campo_jogos
 10
-9.334050
 20
38.683793
  0
VERTEX
  8
campo_jogos
 10
-9.334046
 20
38.683801
  0
VERTEX
  8
campo_jogos
 10
-9.334040
 20
38.683812
  0
VERTEX
  8
campo_jogos
 10
-9.334032
 20
38.683824
  0
VERTEX
  8
campo_jogos
 10
-9.334026
 20
38.683832
  0
VERTEX
  8
campo_jogos
 10
-9.334022
 20
38.683841
  0
VERTEX
  8
campo_jogos
 10
-9.334014
 20
38.683852
  0
VERTEX
  8
campo_jogos
 10
-9.334007
 20
38.683865
  0
VERTEX
  8
campo_jogos
 10
-9.334000
 20
38.683877
  0
VERTEX
  8
campo_jogos
 10
-9.333994
 20
38.683889
  0
VERTEX
  8
campo_jogos
 10
-9.333989
 20
38.683899
  0
VERTEX
  8
campo_jogos
 10
-9.333915
 20
38.684034
  0
VERTEX
  8
campo_jogos
 10
-9.333783
 20
38.683992
  0
VERTEX
  8
campo_jogos
 10
-9.333748
 20
38.684060
  0
VERTEX
  8
campo_jogos
 10
-9.333373
 20
38.683941
  0
VERTEX
  8
campo_jogos
 10
-9.332916
 20
38.683767
  0
VERTEX
  8
campo_jogos
 10
-9.333003
 20
38.683636
  0
VERTEX
  8
campo_jogos
 10
-9.333022
 20
38.683607
  0
VERTEX
  8
campo_jogos
 10
-9.333028
 20
38.683598
  0
VERTEX
  8
campo_jogos
 10
-9.333028
 20
38.683598
  0
SEQEND
  0
POLYLINE
  8
campo_jogos
  6
BYLAYER
 66
1
 70
1
 40
0.000000
 41
0.000000
  0
VERTEX
  8
campo_jogos
 10
-9.335078
 20
38.684823
  0
VERTEX
  8
campo_jogos
 10
-9.334744
 20
38.684817
  0
VERTEX
  8
campo_jogos
 10
-9.334744
 20
38.684698
  0
VERTEX
  8
campo_jogos
 10
-9.334913
 20
38.684700
  0
VERTEX
  8
campo_jogos
 10
-9.335079
 20
38.684702
  0
VERTEX
  8
campo_jogos
 10
-9.335078
 20
38.684823
  0
VERTEX
  8
campo_jogos
 10
-9.335078
 20
38.684823
  0
SEQEND
  0
POLYLINE
  8
campo_jogos
  6
BYLAYER
 66
1
 70
1
 40
0.000000
 41
0.000000
  0
VERTEX
  8
campo_jogos
 10
-9.335081
 20
38.684677
  0
VERTEX
  8
campo_jogos
 10
-9.334747
 20
38.684673
  0
VERTEX
  8
campo_jogos
 10
-9.334749
 20
38.684554
  0
VERTEX
  8
campo_jogos
 10
-9.335083
 20
38.684559
  0
VERTEX
  8
campo_jogos
 10
-9.335081
 20
38.684677
  0
VERTEX
  8
campo_jogos
 10
-9.335081
 20
38.684677
  0
SEQEND
  0
POLYLINE
  8
campo_jogos
  6
BYLAYER
 66
1
 70
1
 40
0.000000
 41
0.000000
  0
VERTEX
  8
campo_jogos
 10
-9.335088
 20
38.684540
  0
VERTEX
  8
campo_jogos
 10
-9.334749
 20
38.684537
  0
VERTEX
  8
campo_jogos
 10
-9.334752
 20
38.684438
  0
VERTEX
  8
campo_jogos
 10
-9.335091
 20
38.684443
  0
VERTEX
  8
campo_jogos
 10
-9.335088
 20
38.684540
  0
VERTEX
  8
campo_jogos
 10
-9.335088
 20
38.684540
  0
SEQEND
  0
POLYLINE
  8
campo_jogos
  6
BYLAYER
 66
1
 70
1
 40
0.000000
 41
0.000000
  0
VERTEX
  8
campo_jogos
 10
-9.335057
 20
38.684416
  0
VERTEX
  8
campo_jogos
 10
-9.334782
 20
38.684412
  0
VERTEX
  8
campo_jogos
 10
-9.334785
 20
38.684311
  0
VERTEX
  8
campo_jogos
 10
-9.335058
 20
38.684315
  0
VERTEX
  8
campo_jogos
 10
-9.335057
 20
38.684416
  0
VERTEX
  8
campo_jogos
 10
-9.335057
 20
38.684416
  0
SEQEND
  0
POLYLINE
  8
campo_jogos
  6
BYLAYER
 66
1
 70
1
 40
0.000000
 41
0.000000
  0
VERTEX
  8
campo_jogos
 10
-9.333224
 20
38.685988
  0
VERTEX
  8
campo_jogos
 10
-9.333553
 20
38.685117
  0
VERTEX
  8
campo_jogos
 10
-9.334230
 20
38.685272
  0
VERTEX
  8
campo_jogos
 10
-9.334248
 20
38.685305
  0
VERTEX
  8
campo_jogos
 10
-9.333922
 20
38.686148
  0
VERTEX
  8
campo_jogos
 10
-9.333224
 20
38.685988
  0
VERTEX
  8
campo_jogos
 10
-9.333224
 20
38.685988
  0
SEQEND
  0
POLYLINE
  8
campo_jogos
  6
BYLAYER
 66
1
 70
1
 40
0.000000
 41
0.000000
  0
VERTEX
  8
campo_jogos
 10
-9.335676
 20
38.683616
  0
VERTEX
  8
campo_jogos
 10
-9.335637
 20
38.683756
  0
VERTEX
  8
campo_jogos
 10
-9.335253
 20
38.683691
  0
VERTEX
  8
campo_jogos
 10
-9.335292
 20
38.683550
  0
VERTEX
  8
campo_jogos
 10
-9.335676
 20
38.683616
  0
VERTEX
  8
campo_jogos
 10
-9.335676
 20
38.683616
  0
SEQEND
  0
POLYLINE
  8
campo_jogos
  6
BYLAYER
 66
1
 70
1
 40
0.000000
 41
0.000000
  0
VERTEX
  8
campo_jogos
 10
-9.328950
 20
38.684200
  0
VERTEX
  8
campo_jogos
 10
-9.328883
 20
38.684414
  0
VERTEX
  8
campo_jogos
 10
-9.328756
 20
38.684389
  0
VERTEX
  8
campo_jogos
 10
-9.328825
 20
38.684177
  0
VERTEX
  8
campo_jogos
 10
-9.328950
 20
38.684200
  0
VERTEX
  8
campo_jogos
 10
-9.328950
 20
38.684200
  0
SEQEND
  0
POLYLINE
  8
campo_jogos
  6
BYLAYER
 66
1
 70
1
 40
0.000000
 41
0.000000
  0
VERTEX
  8
campo_jogos
 10
-9.343226
 20
38.686724
  0
VERTEX
  8
campo_jogos
 10
-9.343241
 20
38.686960
  0
VERTEX
  8
campo_jogos
 10
-9.343073
 20
38.686967
  0
VERTEX
  8
campo_jogos
 10
-9.343063
 20
38.686729
  0
VERTEX
  8
campo_jogos
 10
-9.343226
 20
38.686724
  0
VERTEX
  8
campo_jogos
 10
-9.343226
 20
38.686724
  0
SEQEND
  0
POLYLINE
  8
campo_jogos
  6
BYLAYER
 66
1
 70
1
 40
0.000000
 41
0.000000
  0
VERTEX
  8
campo_jogos
 10
-9.343533
 20
38.686651
  0
VERTEX
  8
campo_jogos
 10
-9.343530
 20
38.686565
  0
VERTEX
  8
campo_jogos
 10
-9.343524
 20
38.686457
  0
VERTEX
  8
campo_jogos
 10
-9.343742
 20
38.686459
  0
VERTEX
  8
campo_jogos
 10
-9.343743
 20
38.686531
  0
VERTEX
  8
campo_jogos
 10
-9.343745
 20
38.686636
  0
VERTEX
  8
campo_jogos
 10
-9.343742
 20
38.686651
  0
VERTEX
  8
campo_jogos
 10
-9.343533
 20
38.686651
  0
VERTEX
  8
campo_jogos
 10
-9.343533
 20
38.686651
  0
SEQEND
  0
POLYLINE
  8
campo_jogos
  6
BYLAYER
 66
1
 70
1
 40
0.000000
 41
0.000000
  0
VERTEX
  8
campo_jogos
 10
-9.336333
 20
38.683669
  0
VERTEX
  8
campo_jogos
 10
-9.336077
 20
38.683653
  0
VERTEX
  8
campo_jogos
 10
-9.336103
 20
38.683449
  0
VERTEX
  8
campo_jogos
 10
-9.336403
 20
38.683471
  0
VERTEX
  8
campo_jogos
 10
-9.336398
 20
38.683669
  0
VERTEX
  8
campo_jogos
 10
-9.336333
 20
38.683669
  0
VERTEX
  8
campo_jogos
 10
-9.336333
 20
38.683669
  0
SEQEND
  0
POLYLINE
  8
campo_jogos
  6
BYLAYER
 66
1
 70
1
 40
0.000000
 41
0.000000
  0
VERTEX
  8
campo_jogos
 10
-9.322248
 20
38.699939
  0
VERTEX
  8
campo_jogos
 10
-9.322134
 20
38.699618
  0
VERTEX
  8
campo_jogos
 10
-9.322343
 20
38.699574
  0
VERTEX
  8
campo_jogos
 10
-9.322463
 20
38.699549
  0
VERTEX
  8
campo_jogos
 10
-9.322509
 20
38.699540
  0
VERTEX
  8
campo_jogos
 10
-9.322621
 20
38.699858
  0
VERTEX
  8
campo_jogos
 10
-9.322248
 20
38.699939
  0
VERTEX
  8
campo_jogos
 10
-9.322248
 20
38.699939
  0
SEQEND
  0
POLYLINE
  8
campo_jogos
  6
BYLAYER
 66
1
 70
1
 40
0.000000
 41
0.000000
  0
VERTEX
  8
campo_jogos
 10
-9.322122
 20
38.699584
  0
VERTEX
  8
campo_jogos
 10
-9.322013
 20
38.699274
  0
VERTEX
  8
campo_jogos
 10
-9.322385
 20
38.699191
  0
VERTEX
  8
campo_jogos
 10
-9.322497
 20
38.699506
  0
VERTEX
  8
campo_jogos
 10
-9.322452
 20
38.699515
  0
VERTEX
  8
campo_jogos
 10
-9.322331
 20
38.699540
  0
VERTEX
  8
campo_jogos
 10
-9.322122
 20
38.699584
  0
VERTEX
  8
campo_jogos
 10
-9.322122
 20
38.699584
  0
SEQEND
  0
POLYLINE
  8
campo_jogos
  6
BYLAYER
 66
1
 70
1
 40
0.000000
 41
0.000000
  0
VERTEX
  8
campo_jogos
 10
-9.326249
 20
38.702189
  0
VERTEX
  8
campo_jogos
 10
-9.326270
 20
38.702081
  0
VERTEX
  8
campo_jogos
 10
-9.326491
 20
38.702107
  0
VERTEX
  8
campo_jogos
 10
-9.326471
 20
38.702215
  0
VERTEX
  8
campo_jogos
 10
-9.326249
 20
38.702189
  0
VERTEX
  8
campo_jogos
 10
-9.326249
 20
38.702189
  0
SEQEND
  0
POLYLINE
  8
campo_jogos
  6
BYLAYER
 66
1
 70
1
 40
0.000000
 41
0.000000
  0
VERTEX
  8
campo_jogos
 10
-9.324155
 20
38.705298
  0
VERTEX
  8
campo_jogos
 10
-9.324089
 20
38.705291
  0
VERTEX
  8
campo_jogos
 10
-9.324095
 20
38.705243
  0
VERTEX
  8
campo_jogos
 10
-9.324118
 20
38.705218
  0
VERTEX
  8
campo_jogos
 10
-9.324167
 20
38.705197
  0
VERTEX
  8
campo_jogos
 10
-9.324246
 20
38.705307
  0
VERTEX
  8
campo_jogos
 10
-9.324155
 20
38.705298
  0
VERTEX
  8
campo_jogos
 10
-9.324155
 20
38.705298
  0
SEQEND
  0
POLYLINE
  8
campo_jogos
  6
BYLAYER
 66
1
 70
1
 40
0.000000
 41
0.000000
  0
VERTEX
  8
campo_jogos
 10
-9.357535
 20
38.695258
  0
VERTEX
  8
campo_jogos
 10
-9.357601
 20
38.695592
  0
VERTEX
  8
campo_jogos
 10
-9.357348
 20
38.695623
  0
VERTEX
  8
campo_jogos
 10
-9.357271
 20
38.695228
  0
VERTEX
  8
campo_jogos
 10
-9.357434
 20
38.695209
  0
VERTEX
  8
campo_jogos
 10
-9.357535
 20
38.695258
  0
SEQEND
  0
POLYLINE
  8
campo_jogos
  6
BYLAYER
 66
1
 70
1
 40
0.000000
 41
0.000000
  0
VERTEX
  8
campo_jogos
 10
-9.360930
 20
38.694015
  0
VERTEX
  8
campo_jogos
 10
-9.360895
 20
38.693918
  0
VERTEX
  8
campo_jogos
 10
-9.360927
 20
38.693910
  0
VERTEX
  8
campo_jogos
 10
-9.360926
 20
38.693905
  0
VERTEX
  8
campo_jogos
 10
-9.360962
 20
38.693897
  0
VERTEX
  8
campo_jogos
 10
-9.360999
 20
38.693994
  0
VERTEX
  8
campo_jogos
 10
-9.360990
 20
38.693997
  0
VERTEX
  8
campo_jogos
 10
-9.360992
 20
38.694007
  0
VERTEX
  8
campo_jogos
 10
-9.360979
 20
38.694009
  0
VERTEX
  8
campo_jogos
 10
-9.360930
 20
38.694015
  0
VERTEX
  8
campo_jogos
 10
-9.360930
 20
38.694015
  0
SEQEND
  0
POLYLINE
  8
campo_jogos
  6
BYLAYER
 66
1
 70
1
 40
0.000000
 41
0.000000
  0
VERTEX
  8
campo_jogos
 10
-9.351041
 20
38.696696
  0
VERTEX
  8
campo_jogos
 10
-9.351005
 20
38.696616
  0
VERTEX
  8
campo_jogos
 10
-9.351429
 20
38.696490
  0
VERTEX
  8
campo_jogos
 10
-9.351470
 20
38.696572
  0
VERTEX
  8
campo_jogos
 10
-9.351041
 20
38.696696
  0
VERTEX
  8
campo_jogos
 10
-9.351041
 20
38.696696
  0
SEQEND
  0
POLYLINE
  8
campo_jogos
  6
BYLAYER
 66
1
 70
1
 40
0.000000
 41
0.000000
  0
VERTEX
  8
campo_jogos
 10
-9.356077
 20
38.694448
  0
VERTEX
  8
campo_jogos
 10
-9.356140
 20
38.694575
  0
VERTEX
  8
campo_jogos
 10
-9.356079
 20
38.694593
  0
VERTEX
  8
campo_jogos
 10
-9.355991
 20
38.694621
  0
VERTEX
  8
campo_jogos
 10
-9.355891
 20
38.694420
  0
VERTEX
  8
campo_jogos
 10
-9.356040
 20
38.694375
  0
VERTEX
  8
campo_jogos
 10
-9.356077
 20
38.694448
  0
VERTEX
  8
campo_jogos
 10
-9.356077
 20
38.694448
  0
SEQEND
  0
POLYLINE
  8
campo_jogos
  6
BYLAYER
 66
1
 70
1
 40
0.000000
 41
0.000000
  0
VERTEX
  8
campo_jogos
 10
-9.361733
 20
38.693211
  0
VERTEX
  8
campo_jogos
 10
-9.361766
 20
38.693259
  0
VERTEX
  8
campo_jogos
 10
-9.361631
 20
38.693317
  0
VERTEX
  8
campo_jogos
 10
-9.361597
 20
38.693269
  0
VERTEX
  8
campo_jogos
 10
-9.361733
 20
38.693211
  0
VERTEX
  8
campo_jogos
 10
-9.361733
 20
38.693211
  0
SEQEND
  0
POLYLINE
  8
campo_jogos
  6
BYLAYER
 66
1
 70
1
 40
0.000000
 41
0.000000
  0
VERTEX
  8
campo_jogos
 10
-9.361741
 20
38.689661
  0
VERTEX
  8
campo_jogos
 10
-9.361613
 20
38.689639
  0
VERTEX
  8
campo_jogos
 10
-9.361671
 20
38.689435
  0
VERTEX
  8
campo_jogos
 10
-9.361799
 20
38.689457
  0
VERTEX
  8
campo_jogos
 10
-9.361741
 20
38.689661
  0
VERTEX
  8
campo_jogos
 10
-9.361741
 20
38.689661
  0
SEQEND
  0
POLYLINE
  8
campo_jogos
  6
BYLAYER
 66
1
 70
1
 40
0.000000
 41
0.000000
  0
VERTEX
  8
campo_jogos
 10
-9.356500
 20
38.689159
  0
VERTEX
  8
campo_jogos
 10
-9.356494
 20
38.689371
  0
VERTEX
  8
campo_jogos
 10
-9.356368
 20
38.689369
  0
VERTEX
  8
campo_jogos
 10
-9.356375
 20
38.689157
  0
VERTEX
  8
campo_jogos
 10
-9.356500
 20
38.689159
  0
VERTEX
  8
campo_jogos
 10
-9.356500
 20
38.689159
  0
SEQEND
  0
POLYLINE
  8
campo_jogos
  6
BYLAYER
 66
1
 70
1
 40
0.000000
 41
0.000000
  0
VERTEX
  8
campo_jogos
 10
-9.352985
 20
38.692348
  0
VERTEX
  8
campo_jogos
 10
-9.353031
 20
38.692419
  0
VERTEX
  8
campo_jogos
 10
-9.352889
 20
38.692476
  0
VERTEX
  8
campo_jogos
 10
-9.352843
 20
38.692405
  0
VERTEX
  8
campo_jogos
 10
-9.352985
 20
38.692348
  0
VERTEX
  8
campo_jogos
 10
-9.352985
 20
38.692348
  0
SEQEND
  0
POLYLINE
  8
campo_jogos
  6
BYLAYER
 66
1
 70
1
 40
0.000000
 41
0.000000
  0
VERTEX
  8
campo_jogos
 10
-9.353209
 20
38.692201
  0
VERTEX
  8
campo_jogos
 10
-9.353184
 20
38.692162
  0
VERTEX
  8
campo_jogos
 10
-9.353269
 20
38.692129
  0
VERTEX
  8
campo_jogos
 10
-9.353294
 20
38.692168
  0
VERTEX
  8
campo_jogos
 10
-9.353209
 20
38.692201
  0
VERTEX
  8
campo_jogos
 10
-9.353209
 20
38.692201
  0
SEQEND
  0
POLYLINE
  8
campo_jogos
  6
BYLAYER
 66
1
 70
1
 40
0.000000
 41
0.000000
  0
VERTEX
  8
campo_jogos
 10
-9.353993
 20
38.689425
  0
VERTEX
  8
campo_jogos
 10
-9.353965
 20
38.689501
  0
VERTEX
  8
campo_jogos
 10
-9.353755
 20
38.689453
  0
VERTEX
  8
campo_jogos
 10
-9.353784
 20
38.689377
  0
VERTEX
  8
campo_jogos
 10
-9.353993
 20
38.689425
  0
VERTEX
  8
campo_jogos
 10
-9.353993
 20
38.689425
  0
SEQEND
  0
POLYLINE
  8
campo_jogos
  6
BYLAYER
 66
1
 70
1
 40
0.000000
 41
0.000000
  0
VERTEX
  8
campo_jogos
 10
-9.347945
 20
38.691043
  0
VERTEX
  8
campo_jogos
 10
-9.347833
 20
38.691080
  0
VERTEX
  8
campo_jogos
 10
-9.347728
 20
38.690884
  0
VERTEX
  8
campo_jogos
 10
-9.347840
 20
38.690847
  0
VERTEX
  8
campo_jogos
 10
-9.347945
 20
38.691043
  0
VERTEX
  8
campo_jogos
 10
-9.347945
 20
38.691043
  0
SEQEND
  0
POLYLINE
  8
campo_jogos
  6
BYLAYER
 66
1
 70
1
 40
0.000000
 41
0.000000
  0
VERTEX
  8
campo_jogos
 10
-9.347660
 20
38.690905
  0
VERTEX
  8
campo_jogos
 10
-9.347765
 20
38.691101
  0
VERTEX
  8
campo_jogos
 10
-9.347651
 20
38.691138
  0
VERTEX
  8
campo_jogos
 10
-9.347546
 20
38.690942
  0
VERTEX
  8
campo_jogos
 10
-9.347660
 20
38.690905
  0
VERTEX
  8
campo_jogos
 10
-9.347660
 20
38.690905
  0
SEQEND
  0
POLYLINE
  8
campo_jogos
  6
BYLAYER
 66
1
 70
1
 40
0.000000
 41
0.000000
  0
VERTEX
  8
campo_jogos
 10
-9.347607
 20
38.690780
  0
VERTEX
  8
campo_jogos
 10
-9.347485
 20
38.690819
  0
VERTEX
  8
campo_jogos
 10
-9.347381
 20
38.690620
  0
VERTEX
  8
campo_jogos
 10
-9.347502
 20
38.690581
  0
VERTEX
  8
campo_jogos
 10
-9.347607
 20
38.690780
  0
VERTEX
  8
campo_jogos
 10
-9.347607
 20
38.690780
  0
SEQEND
  0
POLYLINE
  8
campo_jogos
  6
BYLAYER
 66
1
 70
1
 40
0.000000
 41
0.000000
  0
VERTEX
  8
campo_jogos
 10
-9.347796
 20
38.690402
  0
VERTEX
  8
campo_jogos
 10
-9.347686
 20
38.690454
  0
VERTEX
  8
campo_jogos
 10
-9.347544
 20
38.690269
  0
VERTEX
  8
campo_jogos
 10
-9.347654
 20
38.690218
  0
VERTEX
  8
campo_jogos
 10
-9.347796
 20
38.690402
  0
VERTEX
  8
campo_jogos
 10
-9.347796
 20
38.690402
  0
SEQEND
  0
POLYLINE
  8
campo_jogos
  6
BYLAYER
 66
1
 70
1
 40
0.000000
 41
0.000000
  0
VERTEX
  8
campo_jogos
 10
-9.347690
 20
38.690200
  0
VERTEX
  8
campo_jogos
 10
-9.347798
 20
38.690149
  0
VERTEX
  8
campo_jogos
 10
-9.347941
 20
38.690333
  0
VERTEX
  8
campo_jogos
 10
-9.347833
 20
38.690384
  0
VERTEX
  8
campo_jogos
 10
-9.347690
 20
38.690200
  0
VERTEX
  8
campo_jogos
 10
-9.347690
 20
38.690200
  0
SEQEND
  0
POLYLINE
  8
campo_jogos
  6
BYLAYER
 66
1
 70
1
 40
0.000000
 41
0.000000
  0
VERTEX
  8
campo_jogos
 10
-9.347855
 20
38.690626
  0
VERTEX
  8
campo_jogos
 10
-9.348074
 20
38.690521
  0
VERTEX
  8
campo_jogos
 10
-9.348316
 20
38.690831
  0
VERTEX
  8
campo_jogos
 10
-9.348098
 20
38.690936
  0
VERTEX
  8
campo_jogos
 10
-9.347855
 20
38.690626
  0
VERTEX
  8
campo_jogos
 10
-9.347855
 20
38.690626
  0
SEQEND
  0
POLYLINE
  8
campo_jogos
  6
BYLAYER
 66
1
 70
1
 40
0.000000
 41
0.000000
  0
VERTEX
  8
campo_jogos
 10
-9.347407
 20
38.690408
  0
VERTEX
  8
campo_jogos
 10
-9.347443
 20
38.690473
  0
VERTEX
  8
campo_jogos
 10
-9.347395
 20
38.690489
  0
VERTEX
  8
campo_jogos
 10
-9.347327
 20
38.690512
  0
VERTEX
  8
campo_jogos
 10
-9.347219
 20
38.690314
  0
VERTEX
  8
campo_jogos
 10
-9.347335
 20
38.690275
  0
VERTEX
  8
campo_jogos
 10
-9.347407
 20
38.690408
  0
VERTEX
  8
campo_jogos
 10
-9.347407
 20
38.690408
  0
SEQEND
  0
POLYLINE
  8
campo_jogos
  6
BYLAYER
 66
1
 70
1
 40
0.000000
 41
0.000000
  0
VERTEX
  8
campo_jogos
 10
-9.350174
 20
38.689501
  0
VERTEX
  8
campo_jogos
 10
-9.350178
 20
38.689491
  0
VERTEX
  8
campo_jogos
 10
-9.350205
 20
38.689491
  0
VERTEX
  8
campo_jogos
 10
-9.350186
 20
38.689555
  0
VERTEX
  8
campo_jogos
 10
-9.350317
 20
38.689551
  0
VERTEX
  8
campo_jogos
 10
-9.350325
 20
38.689652
  0
VERTEX
  8
campo_jogos
 10
-9.350324
 20
38.689671
  0
VERTEX
  8
campo_jogos
 10
-9.350321
 20
38.689728
  0
VERTEX
  8
campo_jogos
 10
-9.350184
 20
38.689720
  0
VERTEX
  8
campo_jogos
 10
-9.350194
 20
38.689671
  0
VERTEX
  8
campo_jogos
 10
-9.350195
 20
38.689666
  0
VERTEX
  8
campo_jogos
 10
-9.350116
 20
38.689658
  0
VERTEX
  8
campo_jogos
 10
-9.350174
 20
38.689501
  0
VERTEX
  8
campo_jogos
 10
-9.350174
 20
38.689501
  0
SEQEND
  0
POLYLINE
  8
campo_jogos
  6
BYLAYER
 66
1
 70
1
 40
0.000000
 41
0.000000
  0
VERTEX
  8
campo_jogos
 10
-9.355736
 20
38.690812
  0
VERTEX
  8
campo_jogos
 10
-9.355849
 20
38.690785
  0
VERTEX
  8
campo_jogos
 10
-9.355928
 20
38.690765
  0
VERTEX
  8
campo_jogos
 10
-9.355951
 20
38.690843
  0
VERTEX
  8
campo_jogos
 10
-9.355769
 20
38.690889
  0
VERTEX
  8
campo_jogos
 10
-9.355736
 20
38.690812
  0
VERTEX
  8
campo_jogos
 10
-9.355736
 20
38.690812
  0
SEQEND
  0
POLYLINE
  8
campo_jogos
  6
BYLAYER
 66
1
 70
1
 40
0.000000
 41
0.000000
  0
VERTEX
  8
campo_jogos
 10
-9.347544
 20
38.689910
  0
VERTEX
  8
campo_jogos
 10
-9.347808
 20
38.689786
  0
VERTEX
  8
campo_jogos
 10
-9.347918
 20
38.689935
  0
VERTEX
  8
campo_jogos
 10
-9.347663
 20
38.690056
  0
VERTEX
  8
campo_jogos
 10
-9.347544
 20
38.689910
  0
VERTEX
  8
campo_jogos
 10
-9.347544
 20
38.689910
  0
SEQEND
  0
POLYLINE
  8
campo_jogos
  6
BYLAYER
 66
1
 70
1
 40
0.000000
 41
0.000000
  0
VERTEX
  8
campo_jogos
 10
-9.355680
 20
38.689052
  0
VERTEX
  8
campo_jogos
 10
-9.355675
 20
38.689122
  0
VERTEX
  8
campo_jogos
 10
-9.355560
 20
38.689114
  0
VERTEX
  8
campo_jogos
 10
-9.355570
 20
38.689053
  0
VERTEX
  8
campo_jogos
 10
-9.355576
 20
38.689013
  0
VERTEX
  8
campo_jogos
 10
-9.355682
 20
38.689023
  0
VERTEX
  8
campo_jogos
 10
-9.355680
 20
38.689052
  0
VERTEX
  8
campo_jogos
 10
-9.355680
 20
38.689052
  0
SEQEND
  0
POLYLINE
  8
campo_jogos
  6
BYLAYER
 66
1
 70
1
 40
0.000000
 41
0.000000
  0
VERTEX
  8
campo_jogos
 10
-9.351237
 20
38.696269
  0
VERTEX
  8
campo_jogos
 10
-9.351278
 20
38.696341
  0
VERTEX
  8
campo_jogos
 10
-9.351284
 20
38.696367
  0
VERTEX
  8
campo_jogos
 10
-9.351284
 20
38.696388
  0
VERTEX
  8
campo_jogos
 10
-9.351277
 20
38.696417
  0
VERTEX
  8
campo_jogos
 10
-9.351259
 20
38.696443
  0
VERTEX
  8
campo_jogos
 10
-9.351231
 20
38.696473
  0
VERTEX
  8
campo_jogos
 10
-9.351195
 20
38.696492
  0
VERTEX
  8
campo_jogos
 10
-9.351154
 20
38.696506
  0
VERTEX
  8
campo_jogos
 10
-9.351109
 20
38.696508
  0
VERTEX
  8
campo_jogos
 10
-9.351067
 20
38.696501
  0
VERTEX
  8
campo_jogos
 10
-9.351032
 20
38.696481
  0
VERTEX
  8
campo_jogos
 10
-9.351002
 20
38.696461
  0
VERTEX
  8
campo_jogos
 10
-9.350987
 20
38.696445
  0
VERTEX
  8
campo_jogos
 10
-9.350843
 20
38.696162
  0
VERTEX
  8
campo_jogos
 10
-9.350820
 20
38.696114
  0
VERTEX
  8
campo_jogos
 10
-9.350818
 20
38.696084
  0
VERTEX
  8
campo_jogos
 10
-9.350823
 20
38.696058
  0
VERTEX
  8
campo_jogos
 10
-9.350837
 20
38.696026
  0
VERTEX
  8
campo_jogos
 10
-9.350865
 20
38.696000
  0
VERTEX
  8
campo_jogos
 10
-9.350898
 20
38.695976
  0
VERTEX
  8
campo_jogos
 10
-9.350931
 20
38.695965
  0
VERTEX
  8
campo_jogos
 10
-9.350965
 20
38.695960
  0
VERTEX
  8
campo_jogos
 10
-9.351008
 20
38.695963
  0
VERTEX
  8
campo_jogos
 10
-9.351046
 20
38.695973
  0
VERTEX
  8
campo_jogos
 10
-9.351081
 20
38.695989
  0
VERTEX
  8
campo_jogos
 10
-9.351103
 20
38.696005
  0
VERTEX
  8
campo_jogos
 10
-9.351237
 20
38.696269
  0
VERTEX
  8
campo_jogos
 10
-9.351237
 20
38.696269
  0
SEQEND
  0
POLYLINE
  8
campo_jogos
  6
BYLAYER
 66
1
 70
1
 40
0.000000
 41
0.000000
  0
VERTEX
  8
campo_jogos
 10
-9.376033
 20
38.697130
  0
VERTEX
  8
campo_jogos
 10
-9.376126
 20
38.697181
  0
VERTEX
  8
campo_jogos
 10
-9.376014
 20
38.697307
  0
VERTEX
  8
campo_jogos
 10
-9.375921
 20
38.697256
  0
VERTEX
  8
campo_jogos
 10
-9.376033
 20
38.697130
  0
VERTEX
  8
campo_jogos
 10
-9.376033
 20
38.697130
  0
SEQEND
  0
POLYLINE
  8
campo_jogos
  6
BYLAYER
 66
1
 70
1
 40
0.000000
 41
0.000000
  0
VERTEX
  8
campo_jogos
 10
-9.376866
 20
38.696158
  0
VERTEX
  8
campo_jogos
 10
-9.376915
 20
38.696177
  0
VERTEX
  8
campo_jogos
 10
-9.376911
 20
38.696182
  0
VERTEX
  8
campo_jogos
 10
-9.376844
 20
38.696279
  0
VERTEX
  8
campo_jogos
 10
-9.376669
 20
38.696235
  0
VERTEX
  8
campo_jogos
 10
-9.376736
 20
38.696104
  0
VERTEX
  8
campo_jogos
 10
-9.376866
 20
38.696158
  0
VERTEX
  8
campo_jogos
 10
-9.376866
 20
38.696158
  0
SEQEND
  0
POLYLINE
  8
campo_jogos
  6
BYLAYER
 66
1
 70
1
 40
0.000000
 41
0.000000
  0
VERTEX
  8
campo_jogos
 10
-9.367798
 20
38.694717
  0
VERTEX
  8
campo_jogos
 10
-9.367674
 20
38.694907
  0
VERTEX
  8
campo_jogos
 10
-9.367559
 20
38.694861
  0
VERTEX
  8
campo_jogos
 10
-9.367682
 20
38.694671
  0
VERTEX
  8
campo_jogos
 10
-9.367798
 20
38.694717
  0
VERTEX
  8
campo_jogos
 10
-9.367798
 20
38.694717
  0
SEQEND
  0
POLYLINE
  8
campo_jogos
  6
BYLAYER
 66
1
 70
1
 40
0.000000
 41
0.000000
  0
VERTEX
  8
campo_jogos
 10
-9.367388
 20
38.695445
  0
VERTEX
  8
campo_jogos
 10
-9.367501
 20
38.695490
  0
VERTEX
  8
campo_jogos
 10
-9.367378
 20
38.695679
  0
VERTEX
  8
campo_jogos
 10
-9.367265
 20
38.695634
  0
VERTEX
  8
campo_jogos
 10
-9.367388
 20
38.695445
  0
VERTEX
  8
campo_jogos
 10
-9.367388
 20
38.695445
  0
SEQEND
  0
POLYLINE
  8
campo_jogos
  6
BYLAYER
 66
1
 70
1
 40
0.000000
 41
0.000000
  0
VERTEX
  8
campo_jogos
 10
-9.367212
 20
38.695503
  0
VERTEX
  8
campo_jogos
 10
-9.367261
 20
38.695524
  0
VERTEX
  8
campo_jogos
 10
-9.367221
 20
38.695588
  0
VERTEX
  8
campo_jogos
 10
-9.367172
 20
38.695568
  0
VERTEX
  8
campo_jogos
 10
-9.367212
 20
38.695503
  0
VERTEX
  8
campo_jogos
 10
-9.367212
 20
38.695503
  0
SEQEND
  0
POLYLINE
  8
campo_jogos
  6
BYLAYER
 66
1
 70
1
 40
0.000000
 41
0.000000
  0
VERTEX
  8
campo_jogos
 10
-9.366465
 20
38.695184
  0
VERTEX
  8
campo_jogos
 10
-9.366453
 20
38.695416
  0
VERTEX
  8
campo_jogos
 10
-9.366295
 20
38.695411
  0
VERTEX
  8
campo_jogos
 10
-9.366307
 20
38.695179
  0
VERTEX
  8
campo_jogos
 10
-9.366465
 20
38.695184
  0
VERTEX
  8
campo_jogos
 10
-9.366465
 20
38.695184
  0
SEQEND
  0
ENDSEC
  0
EOF
