  0
SECTION
  2
HEADER
  9
$LTSCALE
 40
1.000000
  9
$LUNITS
 70
2
  9
$LUPREC
 70
4
  9
$AUNITS
 70
1
  9
$AUPREC
 70
4
  9
$FILLMODE
 70
1
  0
ENDSEC
  0
SECTION
  2
TABLES
  0
TABLE
  2
VPORT
 70
0
  0
ENDTAB
  0
TABLE
  2
LTYPE
 70
1
  0
LTYPE
  2
CONTINUOUS
 70
64
  3
Solid line
 72
65
 73
0
 40
0.000000
  0
ENDTAB
  0
TABLE
  2
LAYER
 70
1
  0
LAYER
  2
0
 62
1
  6
CONTINUOUS
 70
64
  0
ENDTAB
  0
TABLE
  2
STYLE
 70
1
  0
STYLE
  2
STANDARD
 70
64
 40
0.000000
 41
1.000000
 50
0.000000
 71
0
 42
2.000000
  3
txt
  4

  0
ENDTAB
  0
TABLE
  2
VIEW
 70
0
  0
ENDTAB
  0
TABLE
  2
UCS
 70
0
  0
ENDTAB
  0
TABLE
  2
APPID
 70
0
  0
ENDTAB
  0
TABLE
  2
DIMSTYLE
 70
1
  0
DIMSTYLE
  2
STANDARD
 70
0
  3

  4

  5

  6

  7

 40
1.000000
 41
3.000000
 42
2.500000
 43
10.000000
 44
2.500000
 45
0.000000
 46
1.250000
 47
0.000000
 48
0.000000
140
3.000000
141
-3.000000
142
0.000000
143
0.039000
144
1.000000
145
1.500000
146
0.750000
147
1.500000
 71
0
 72
0
 73
0
 74
0
 75
0
 76
0
 77
0
 78
0
170
0
171
0
172
0
173
0
174
0
175
0
176
0
177
0
178
0
  0
ENDTAB
  0
ENDSEC
  0
SECTION
  2
ENTITIES
  0
POLYLINE
  8
ordenamento_aeronautico
  6
BYLAYER
 66
1
 70
1
 40
0.000000
 41
0.000000
  0
VERTEX
  8
ordenamento_aeronautico
 10
-9.351579
 20
38.717777
  0
VERTEX
  8
ordenamento_aeronautico
 10
-9.351593
 20
38.717692
  0
VERTEX
  8
ordenamento_aeronautico
 10
-9.351918
 20
38.717663
  0
VERTEX
  8
ordenamento_aeronautico
 10
-9.352107
 20
38.717662
  0
VERTEX
  8
ordenamento_aeronautico
 10
-9.352319
 20
38.717631
  0
VERTEX
  8
ordenamento_aeronautico
 10
-9.352506
 20
38.717589
  0
VERTEX
  8
ordenamento_aeronautico
 10
-9.352675
 20
38.717529
  0
VERTEX
  8
ordenamento_aeronautico
 10
-9.352906
 20
38.717443
  0
VERTEX
  8
ordenamento_aeronautico
 10
-9.352912
 20
38.717516
  0
VERTEX
  8
ordenamento_aeronautico
 10
-9.353191
 20
38.718117
  0
VERTEX
  8
ordenamento_aeronautico
 10
-9.353289
 20
38.718451
  0
VERTEX
  8
ordenamento_aeronautico
 10
-9.353389
 20
38.718696
  0
VERTEX
  8
ordenamento_aeronautico
 10
-9.353523
 20
38.718926
  0
VERTEX
  8
ordenamento_aeronautico
 10
-9.353570
 20
38.718990
  0
VERTEX
  8
ordenamento_aeronautico
 10
-9.353835
 20
38.719282
  0
VERTEX
  8
ordenamento_aeronautico
 10
-9.353816
 20
38.719489
  0
VERTEX
  8
ordenamento_aeronautico
 10
-9.353730
 20
38.719729
  0
VERTEX
  8
ordenamento_aeronautico
 10
-9.353870
 20
38.720100
  0
VERTEX
  8
ordenamento_aeronautico
 10
-9.353909
 20
38.720150
  0
VERTEX
  8
ordenamento_aeronautico
 10
-9.354357
 20
38.721377
  0
VERTEX
  8
ordenamento_aeronautico
 10
-9.354505
 20
38.721844
  0
VERTEX
  8
ordenamento_aeronautico
 10
-9.354520
 20
38.721840
  0
VERTEX
  8
ordenamento_aeronautico
 10
-9.354542
 20
38.721795
  0
VERTEX
  8
ordenamento_aeronautico
 10
-9.356302
 20
38.721397
  0
VERTEX
  8
ordenamento_aeronautico
 10
-9.356477
 20
38.721255
  0
VERTEX
  8
ordenamento_aeronautico
 10
-9.356558
 20
38.721218
  0
VERTEX
  8
ordenamento_aeronautico
 10
-9.356557
 20
38.721018
  0
VERTEX
  8
ordenamento_aeronautico
 10
-9.358630
 20
38.720991
  0
VERTEX
  8
ordenamento_aeronautico
 10
-9.358640
 20
38.721328
  0
VERTEX
  8
ordenamento_aeronautico
 10
-9.358480
 20
38.721774
  0
VERTEX
  8
ordenamento_aeronautico
 10
-9.358487
 20
38.722108
  0
VERTEX
  8
ordenamento_aeronautico
 10
-9.358504
 20
38.723026
  0
VERTEX
  8
ordenamento_aeronautico
 10
-9.358716
 20
38.723289
  0
VERTEX
  8
ordenamento_aeronautico
 10
-9.358944
 20
38.723263
  0
VERTEX
  8
ordenamento_aeronautico
 10
-9.359229
 20
38.723795
  0
VERTEX
  8
ordenamento_aeronautico
 10
-9.359386
 20
38.724162
  0
VERTEX
  8
ordenamento_aeronautico
 10
-9.359330
 20
38.724199
  0
VERTEX
  8
ordenamento_aeronautico
 10
-9.359302
 20
38.724213
  0
VERTEX
  8
ordenamento_aeronautico
 10
-9.359629
 20
38.724772
  0
VERTEX
  8
ordenamento_aeronautico
 10
-9.358973
 20
38.724945
  0
VERTEX
  8
ordenamento_aeronautico
 10
-9.359051
 20
38.725096
  0
VERTEX
  8
ordenamento_aeronautico
 10
-9.358811
 20
38.725144
  0
VERTEX
  8
ordenamento_aeronautico
 10
-9.359062
 20
38.725620
  0
VERTEX
  8
ordenamento_aeronautico
 10
-9.358503
 20
38.725753
  0
VERTEX
  8
ordenamento_aeronautico
 10
-9.358630
 20
38.726183
  0
VERTEX
  8
ordenamento_aeronautico
 10
-9.357446
 20
38.726437
  0
VERTEX
  8
ordenamento_aeronautico
 10
-9.357235
 20
38.726473
  0
VERTEX
  8
ordenamento_aeronautico
 10
-9.357056
 20
38.726498
  0
VERTEX
  8
ordenamento_aeronautico
 10
-9.356924
 20
38.726930
  0
VERTEX
  8
ordenamento_aeronautico
 10
-9.356856
 20
38.727361
  0
VERTEX
  8
ordenamento_aeronautico
 10
-9.356856
 20
38.727386
  0
VERTEX
  8
ordenamento_aeronautico
 10
-9.356863
 20
38.727408
  0
VERTEX
  8
ordenamento_aeronautico
 10
-9.356875
 20
38.727420
  0
VERTEX
  8
ordenamento_aeronautico
 10
-9.356992
 20
38.727464
  0
VERTEX
  8
ordenamento_aeronautico
 10
-9.357094
 20
38.727717
  0
VERTEX
  8
ordenamento_aeronautico
 10
-9.357043
 20
38.727847
  0
VERTEX
  8
ordenamento_aeronautico
 10
-9.357031
 20
38.727899
  0
VERTEX
  8
ordenamento_aeronautico
 10
-9.357030
 20
38.727917
  0
VERTEX
  8
ordenamento_aeronautico
 10
-9.357157
 20
38.728215
  0
VERTEX
  8
ordenamento_aeronautico
 10
-9.357588
 20
38.728472
  0
VERTEX
  8
ordenamento_aeronautico
 10
-9.357873
 20
38.729682
  0
VERTEX
  8
ordenamento_aeronautico
 10
-9.358221
 20
38.731211
  0
VERTEX
  8
ordenamento_aeronautico
 10
-9.358204
 20
38.731214
  0
VERTEX
  8
ordenamento_aeronautico
 10
-9.358453
 20
38.731881
  0
VERTEX
  8
ordenamento_aeronautico
 10
-9.358503
 20
38.731873
  0
VERTEX
  8
ordenamento_aeronautico
 10
-9.358701
 20
38.732227
  0
VERTEX
  8
ordenamento_aeronautico
 10
-9.359171
 20
38.732185
  0
VERTEX
  8
ordenamento_aeronautico
 10
-9.359264
 20
38.732254
  0
VERTEX
  8
ordenamento_aeronautico
 10
-9.359109
 20
38.732383
  0
VERTEX
  8
ordenamento_aeronautico
 10
-9.358924
 20
38.732503
  0
VERTEX
  8
ordenamento_aeronautico
 10
-9.358877
 20
38.732508
  0
VERTEX
  8
ordenamento_aeronautico
 10
-9.358822
 20
38.732536
  0
VERTEX
  8
ordenamento_aeronautico
 10
-9.358788
 20
38.732573
  0
VERTEX
  8
ordenamento_aeronautico
 10
-9.358643
 20
38.732634
  0
VERTEX
  8
ordenamento_aeronautico
 10
-9.358491
 20
38.732685
  0
VERTEX
  8
ordenamento_aeronautico
 10
-9.358334
 20
38.732725
  0
VERTEX
  8
ordenamento_aeronautico
 10
-9.358173
 20
38.732755
  0
VERTEX
  8
ordenamento_aeronautico
 10
-9.358010
 20
38.732774
  0
VERTEX
  8
ordenamento_aeronautico
 10
-9.357845
 20
38.732781
  0
VERTEX
  8
ordenamento_aeronautico
 10
-9.357680
 20
38.732778
  0
VERTEX
  8
ordenamento_aeronautico
 10
-9.357516
 20
38.732763
  0
VERTEX
  8
ordenamento_aeronautico
 10
-9.357354
 20
38.732737
  0
VERTEX
  8
ordenamento_aeronautico
 10
-9.357196
 20
38.732700
  0
VERTEX
  8
ordenamento_aeronautico
 10
-9.357043
 20
38.732653
  0
VERTEX
  8
ordenamento_aeronautico
 10
-9.356895
 20
38.732595
  0
VERTEX
  8
ordenamento_aeronautico
 10
-9.356754
 20
38.732528
  0
VERTEX
  8
ordenamento_aeronautico
 10
-9.356621
 20
38.732451
  0
VERTEX
  8
ordenamento_aeronautico
 10
-9.356497
 20
38.732365
  0
VERTEX
  8
ordenamento_aeronautico
 10
-9.356383
 20
38.732272
  0
VERTEX
  8
ordenamento_aeronautico
 10
-9.356280
 20
38.732171
  0
VERTEX
  8
ordenamento_aeronautico
 10
-9.356188
 20
38.732064
  0
VERTEX
  8
ordenamento_aeronautico
 10
-9.356109
 20
38.731950
  0
VERTEX
  8
ordenamento_aeronautico
 10
-9.356042
 20
38.731832
  0
VERTEX
  8
ordenamento_aeronautico
 10
-9.355989
 20
38.731709
  0
VERTEX
  8
ordenamento_aeronautico
 10
-9.355949
 20
38.731584
  0
VERTEX
  8
ordenamento_aeronautico
 10
-9.355924
 20
38.731456
  0
VERTEX
  8
ordenamento_aeronautico
 10
-9.355567
 20
38.729002
  0
VERTEX
  8
ordenamento_aeronautico
 10
-9.355525
 20
38.728637
  0
VERTEX
  8
ordenamento_aeronautico
 10
-9.355489
 20
38.728420
  0
VERTEX
  8
ordenamento_aeronautico
 10
-9.355407
 20
38.728185
  0
VERTEX
  8
ordenamento_aeronautico
 10
-9.355266
 20
38.727901
  0
VERTEX
  8
ordenamento_aeronautico
 10
-9.355180
 20
38.727739
  0
VERTEX
  8
ordenamento_aeronautico
 10
-9.355411
 20
38.727572
  0
VERTEX
  8
ordenamento_aeronautico
 10
-9.355399
 20
38.727503
  0
VERTEX
  8
ordenamento_aeronautico
 10
-9.355169
 20
38.727287
  0
VERTEX
  8
ordenamento_aeronautico
 10
-9.354931
 20
38.727319
  0
VERTEX
  8
ordenamento_aeronautico
 10
-9.354652
 20
38.726842
  0
VERTEX
  8
ordenamento_aeronautico
 10
-9.354130
 20
38.726227
  0
VERTEX
  8
ordenamento_aeronautico
 10
-9.351677
 20
38.723559
  0
VERTEX
  8
ordenamento_aeronautico
 10
-9.352642
 20
38.723027
  0
VERTEX
  8
ordenamento_aeronautico
 10
-9.353372
 20
38.722822
  0
VERTEX
  8
ordenamento_aeronautico
 10
-9.352334
 20
38.719541
  0
VERTEX
  8
ordenamento_aeronautico
 10
-9.352363
 20
38.719515
  0
VERTEX
  8
ordenamento_aeronautico
 10
-9.352275
 20
38.719353
  0
VERTEX
  8
ordenamento_aeronautico
 10
-9.352196
 20
38.719234
  0
VERTEX
  8
ordenamento_aeronautico
 10
-9.352143
 20
38.719121
  0
VERTEX
  8
ordenamento_aeronautico
 10
-9.352101
 20
38.718993
  0
VERTEX
  8
ordenamento_aeronautico
 10
-9.352081
 20
38.718979
  0
VERTEX
  8
ordenamento_aeronautico
 10
-9.351828
 20
38.718047
  0
VERTEX
  8
ordenamento_aeronautico
 10
-9.351784
 20
38.717940
  0
VERTEX
  8
ordenamento_aeronautico
 10
-9.351739
 20
38.717882
  0
VERTEX
  8
ordenamento_aeronautico
 10
-9.351677
 20
38.717832
  0
VERTEX
  8
ordenamento_aeronautico
 10
-9.351579
 20
38.717777
  0
SEQEND
  0
POLYLINE
  8
ordenamento_aeronautico
  6
BYLAYER
 66
1
 70
1
 40
0.000000
 41
0.000000
  0
VERTEX
  8
ordenamento_aeronautico
 10
-9.346889
 20
38.722928
  0
VERTEX
  8
ordenamento_aeronautico
 10
-9.349442
 20
38.721520
  0
VERTEX
  8
ordenamento_aeronautico
 10
-9.349114
 20
38.720482
  0
VERTEX
  8
ordenamento_aeronautico
 10
-9.347233
 20
38.715811
  0
VERTEX
  8
ordenamento_aeronautico
 10
-9.351488
 20
38.715009
  0
VERTEX
  8
ordenamento_aeronautico
 10
-9.355976
 20
38.713339
  0
VERTEX
  8
ordenamento_aeronautico
 10
-9.356287
 20
38.716958
  0
VERTEX
  8
ordenamento_aeronautico
 10
-9.356473
 20
38.717359
  0
VERTEX
  8
ordenamento_aeronautico
 10
-9.356564
 20
38.717673
  0
VERTEX
  8
ordenamento_aeronautico
 10
-9.357165
 20
38.718335
  0
VERTEX
  8
ordenamento_aeronautico
 10
-9.361961
 20
38.718270
  0
VERTEX
  8
ordenamento_aeronautico
 10
-9.362066
 20
38.721664
  0
VERTEX
  8
ordenamento_aeronautico
 10
-9.361956
 20
38.721972
  0
VERTEX
  8
ordenamento_aeronautico
 10
-9.362426
 20
38.722852
  0
VERTEX
  8
ordenamento_aeronautico
 10
-9.362878
 20
38.723906
  0
VERTEX
  8
ordenamento_aeronautico
 10
-9.364313
 20
38.726363
  0
VERTEX
  8
ordenamento_aeronautico
 10
-9.363495
 20
38.726578
  0
VERTEX
  8
ordenamento_aeronautico
 10
-9.363678
 20
38.726935
  0
VERTEX
  8
ordenamento_aeronautico
 10
-9.363471
 20
38.726977
  0
VERTEX
  8
ordenamento_aeronautico
 10
-9.363653
 20
38.727323
  0
VERTEX
  8
ordenamento_aeronautico
 10
-9.362549
 20
38.727585
  0
VERTEX
  8
ordenamento_aeronautico
 10
-9.362697
 20
38.728084
  0
VERTEX
  8
ordenamento_aeronautico
 10
-9.361052
 20
38.728437
  0
VERTEX
  8
ordenamento_aeronautico
 10
-9.361233
 20
38.729204
  0
VERTEX
  8
ordenamento_aeronautico
 10
-9.361460
 20
38.730199
  0
VERTEX
  8
ordenamento_aeronautico
 10
-9.364092
 20
38.732137
  0
VERTEX
  8
ordenamento_aeronautico
 10
-9.361449
 20
38.734339
  0
VERTEX
  8
ordenamento_aeronautico
 10
-9.361261
 20
38.734461
  0
VERTEX
  8
ordenamento_aeronautico
 10
-9.361143
 20
38.734589
  0
VERTEX
  8
ordenamento_aeronautico
 10
-9.360531
 20
38.734873
  0
VERTEX
  8
ordenamento_aeronautico
 10
-9.360124
 20
38.735044
  0
VERTEX
  8
ordenamento_aeronautico
 10
-9.359701
 20
38.735186
  0
VERTEX
  8
ordenamento_aeronautico
 10
-9.359263
 20
38.735300
  0
VERTEX
  8
ordenamento_aeronautico
 10
-9.358814
 20
38.735383
  0
VERTEX
  8
ordenamento_aeronautico
 10
-9.358358
 20
38.735435
  0
VERTEX
  8
ordenamento_aeronautico
 10
-9.357898
 20
38.735456
  0
VERTEX
  8
ordenamento_aeronautico
 10
-9.357437
 20
38.735446
  0
VERTEX
  8
ordenamento_aeronautico
 10
-9.356979
 20
38.735405
  0
VERTEX
  8
ordenamento_aeronautico
 10
-9.356527
 20
38.735332
  0
VERTEX
  8
ordenamento_aeronautico
 10
-9.356085
 20
38.735230
  0
VERTEX
  8
ordenamento_aeronautico
 10
-9.355656
 20
38.735097
  0
VERTEX
  8
ordenamento_aeronautico
 10
-9.355244
 20
38.734937
  0
VERTEX
  8
ordenamento_aeronautico
 10
-9.354850
 20
38.734749
  0
VERTEX
  8
ordenamento_aeronautico
 10
-9.354479
 20
38.734534
  0
VERTEX
  8
ordenamento_aeronautico
 10
-9.354133
 20
38.734296
  0
VERTEX
  8
ordenamento_aeronautico
 10
-9.353814
 20
38.734035
  0
VERTEX
  8
ordenamento_aeronautico
 10
-9.353526
 20
38.733753
  0
VERTEX
  8
ordenamento_aeronautico
 10
-9.353270
 20
38.733453
  0
VERTEX
  8
ordenamento_aeronautico
 10
-9.353048
 20
38.733137
  0
VERTEX
  8
ordenamento_aeronautico
 10
-9.352862
 20
38.732806
  0
VERTEX
  8
ordenamento_aeronautico
 10
-9.352712
 20
38.732465
  0
VERTEX
  8
ordenamento_aeronautico
 10
-9.352602
 20
38.732114
  0
VERTEX
  8
ordenamento_aeronautico
 10
-9.352530
 20
38.731757
  0
VERTEX
  8
ordenamento_aeronautico
 10
-9.352169
 20
38.729271
  0
VERTEX
  8
ordenamento_aeronautico
 10
-9.352135
 20
38.728976
  0
VERTEX
  8
ordenamento_aeronautico
 10
-9.352098
 20
38.728900
  0
VERTEX
  8
ordenamento_aeronautico
 10
-9.352072
 20
38.728852
  0
VERTEX
  8
ordenamento_aeronautico
 10
-9.351660
 20
38.728149
  0
VERTEX
  8
ordenamento_aeronautico
 10
-9.351322
 20
38.727750
  0
VERTEX
  8
ordenamento_aeronautico
 10
-9.346889
 20
38.722928
  0
SEQEND
  0
POLYLINE
  8
ordenamento_aeronautico
  6
BYLAYER
 66
1
 70
1
 40
0.000000
 41
0.000000
  0
VERTEX
  8
ordenamento_aeronautico
 10
-9.414648
 20
38.693741
  0
VERTEX
  8
ordenamento_aeronautico
 10
-9.414648
 20
38.693736
  0
VERTEX
  8
ordenamento_aeronautico
 10
-9.414648
 20
38.693730
  0
VERTEX
  8
ordenamento_aeronautico
 10
-9.414650
 20
38.693725
  0
VERTEX
  8
ordenamento_aeronautico
 10
-9.414651
 20
38.693719
  0
VERTEX
  8
ordenamento_aeronautico
 10
-9.414653
 20
38.693714
  0
VERTEX
  8
ordenamento_aeronautico
 10
-9.414655
 20
38.693708
  0
VERTEX
  8
ordenamento_aeronautico
 10
-9.414658
 20
38.693703
  0
VERTEX
  8
ordenamento_aeronautico
 10
-9.414661
 20
38.693698
  0
VERTEX
  8
ordenamento_aeronautico
 10
-9.414665
 20
38.693693
  0
VERTEX
  8
ordenamento_aeronautico
 10
-9.414668
 20
38.693689
  0
VERTEX
  8
ordenamento_aeronautico
 10
-9.414673
 20
38.693684
  0
VERTEX
  8
ordenamento_aeronautico
 10
-9.414677
 20
38.693680
  0
VERTEX
  8
ordenamento_aeronautico
 10
-9.414682
 20
38.693676
  0
VERTEX
  8
ordenamento_aeronautico
 10
-9.414687
 20
38.693672
  0
VERTEX
  8
ordenamento_aeronautico
 10
-9.414693
 20
38.693668
  0
VERTEX
  8
ordenamento_aeronautico
 10
-9.414699
 20
38.693665
  0
VERTEX
  8
ordenamento_aeronautico
 10
-9.414705
 20
38.693662
  0
VERTEX
  8
ordenamento_aeronautico
 10
-9.414711
 20
38.693660
  0
VERTEX
  8
ordenamento_aeronautico
 10
-9.414718
 20
38.693657
  0
VERTEX
  8
ordenamento_aeronautico
 10
-9.414724
 20
38.693655
  0
VERTEX
  8
ordenamento_aeronautico
 10
-9.414731
 20
38.693653
  0
VERTEX
  8
ordenamento_aeronautico
 10
-9.414738
 20
38.693652
  0
VERTEX
  8
ordenamento_aeronautico
 10
-9.414745
 20
38.693651
  0
VERTEX
  8
ordenamento_aeronautico
 10
-9.414752
 20
38.693650
  0
VERTEX
  8
ordenamento_aeronautico
 10
-9.414759
 20
38.693650
  0
VERTEX
  8
ordenamento_aeronautico
 10
-9.414766
 20
38.693650
  0
VERTEX
  8
ordenamento_aeronautico
 10
-9.414774
 20
38.693650
  0
VERTEX
  8
ordenamento_aeronautico
 10
-9.414781
 20
38.693651
  0
VERTEX
  8
ordenamento_aeronautico
 10
-9.414788
 20
38.693652
  0
VERTEX
  8
ordenamento_aeronautico
 10
-9.414794
 20
38.693654
  0
VERTEX
  8
ordenamento_aeronautico
 10
-9.414801
 20
38.693655
  0
VERTEX
  8
ordenamento_aeronautico
 10
-9.414808
 20
38.693657
  0
VERTEX
  8
ordenamento_aeronautico
 10
-9.414814
 20
38.693660
  0
VERTEX
  8
ordenamento_aeronautico
 10
-9.414821
 20
38.693662
  0
VERTEX
  8
ordenamento_aeronautico
 10
-9.414827
 20
38.693665
  0
VERTEX
  8
ordenamento_aeronautico
 10
-9.414833
 20
38.693669
  0
VERTEX
  8
ordenamento_aeronautico
 10
-9.414838
 20
38.693672
  0
VERTEX
  8
ordenamento_aeronautico
 10
-9.414843
 20
38.693676
  0
VERTEX
  8
ordenamento_aeronautico
 10
-9.414848
 20
38.693680
  0
VERTEX
  8
ordenamento_aeronautico
 10
-9.414853
 20
38.693684
  0
VERTEX
  8
ordenamento_aeronautico
 10
-9.414857
 20
38.693689
  0
VERTEX
  8
ordenamento_aeronautico
 10
-9.414861
 20
38.693694
  0
VERTEX
  8
ordenamento_aeronautico
 10
-9.414865
 20
38.693698
  0
VERTEX
  8
ordenamento_aeronautico
 10
-9.414868
 20
38.693703
  0
VERTEX
  8
ordenamento_aeronautico
 10
-9.414870
 20
38.693709
  0
VERTEX
  8
ordenamento_aeronautico
 10
-9.414873
 20
38.693714
  0
VERTEX
  8
ordenamento_aeronautico
 10
-9.414875
 20
38.693719
  0
VERTEX
  8
ordenamento_aeronautico
 10
-9.414876
 20
38.693725
  0
VERTEX
  8
ordenamento_aeronautico
 10
-9.414877
 20
38.693730
  0
VERTEX
  8
ordenamento_aeronautico
 10
-9.414877
 20
38.693736
  0
VERTEX
  8
ordenamento_aeronautico
 10
-9.414878
 20
38.693742
  0
VERTEX
  8
ordenamento_aeronautico
 10
-9.414877
 20
38.693747
  0
VERTEX
  8
ordenamento_aeronautico
 10
-9.414876
 20
38.693753
  0
VERTEX
  8
ordenamento_aeronautico
 10
-9.414875
 20
38.693758
  0
VERTEX
  8
ordenamento_aeronautico
 10
-9.414873
 20
38.693764
  0
VERTEX
  8
ordenamento_aeronautico
 10
-9.414871
 20
38.693769
  0
VERTEX
  8
ordenamento_aeronautico
 10
-9.414869
 20
38.693774
  0
VERTEX
  8
ordenamento_aeronautico
 10
-9.414866
 20
38.693779
  0
VERTEX
  8
ordenamento_aeronautico
 10
-9.414863
 20
38.693784
  0
VERTEX
  8
ordenamento_aeronautico
 10
-9.414859
 20
38.693789
  0
VERTEX
  8
ordenamento_aeronautico
 10
-9.414855
 20
38.693794
  0
VERTEX
  8
ordenamento_aeronautico
 10
-9.414850
 20
38.693798
  0
VERTEX
  8
ordenamento_aeronautico
 10
-9.414846
 20
38.693802
  0
VERTEX
  8
ordenamento_aeronautico
 10
-9.414841
 20
38.693806
  0
VERTEX
  8
ordenamento_aeronautico
 10
-9.414835
 20
38.693810
  0
VERTEX
  8
ordenamento_aeronautico
 10
-9.414829
 20
38.693813
  0
VERTEX
  8
ordenamento_aeronautico
 10
-9.414823
 20
38.693816
  0
VERTEX
  8
ordenamento_aeronautico
 10
-9.414817
 20
38.693819
  0
VERTEX
  8
ordenamento_aeronautico
 10
-9.414811
 20
38.693822
  0
VERTEX
  8
ordenamento_aeronautico
 10
-9.414804
 20
38.693824
  0
VERTEX
  8
ordenamento_aeronautico
 10
-9.414798
 20
38.693826
  0
VERTEX
  8
ordenamento_aeronautico
 10
-9.414791
 20
38.693827
  0
VERTEX
  8
ordenamento_aeronautico
 10
-9.414784
 20
38.693829
  0
VERTEX
  8
ordenamento_aeronautico
 10
-9.414777
 20
38.693830
  0
VERTEX
  8
ordenamento_aeronautico
 10
-9.414770
 20
38.693830
  0
VERTEX
  8
ordenamento_aeronautico
 10
-9.414762
 20
38.693830
  0
VERTEX
  8
ordenamento_aeronautico
 10
-9.414755
 20
38.693830
  0
VERTEX
  8
ordenamento_aeronautico
 10
-9.414748
 20
38.693829
  0
VERTEX
  8
ordenamento_aeronautico
 10
-9.414741
 20
38.693829
  0
VERTEX
  8
ordenamento_aeronautico
 10
-9.414734
 20
38.693827
  0
VERTEX
  8
ordenamento_aeronautico
 10
-9.414727
 20
38.693826
  0
VERTEX
  8
ordenamento_aeronautico
 10
-9.414721
 20
38.693824
  0
VERTEX
  8
ordenamento_aeronautico
 10
-9.414714
 20
38.693822
  0
VERTEX
  8
ordenamento_aeronautico
 10
-9.414708
 20
38.693819
  0
VERTEX
  8
ordenamento_aeronautico
 10
-9.414702
 20
38.693816
  0
VERTEX
  8
ordenamento_aeronautico
 10
-9.414695
 20
38.693813
  0
VERTEX
  8
ordenamento_aeronautico
 10
-9.414690
 20
38.693810
  0
VERTEX
  8
ordenamento_aeronautico
 10
-9.414685
 20
38.693806
  0
VERTEX
  8
ordenamento_aeronautico
 10
-9.414679
 20
38.693802
  0
VERTEX
  8
ordenamento_aeronautico
 10
-9.414675
 20
38.693798
  0
VERTEX
  8
ordenamento_aeronautico
 10
-9.414670
 20
38.693794
  0
VERTEX
  8
ordenamento_aeronautico
 10
-9.414666
 20
38.693789
  0
VERTEX
  8
ordenamento_aeronautico
 10
-9.414662
 20
38.693784
  0
VERTEX
  8
ordenamento_aeronautico
 10
-9.414659
 20
38.693779
  0
VERTEX
  8
ordenamento_aeronautico
 10
-9.414656
 20
38.693774
  0
VERTEX
  8
ordenamento_aeronautico
 10
-9.414654
 20
38.693769
  0
VERTEX
  8
ordenamento_aeronautico
 10
-9.414652
 20
38.693764
  0
VERTEX
  8
ordenamento_aeronautico
 10
-9.414650
 20
38.693758
  0
VERTEX
  8
ordenamento_aeronautico
 10
-9.414649
 20
38.693753
  0
VERTEX
  8
ordenamento_aeronautico
 10
-9.414648
 20
38.693747
  0
VERTEX
  8
ordenamento_aeronautico
 10
-9.414648
 20
38.693741
  0
SEQEND
  0
POLYLINE
  8
ordenamento_aeronautico
  6
BYLAYER
 66
1
 70
1
 40
0.000000
 41
0.000000
  0
VERTEX
  8
ordenamento_aeronautico
 10
-9.419199
 20
38.728648
  0
VERTEX
  8
ordenamento_aeronautico
 10
-9.433205
 20
38.727394
  0
VERTEX
  8
ordenamento_aeronautico
 10
-9.433251
 20
38.729928
  0
VERTEX
  8
ordenamento_aeronautico
 10
-9.419205
 20
38.728985
  0
VERTEX
  8
ordenamento_aeronautico
 10
-9.419199
 20
38.728648
  0
SEQEND
  0
POLYLINE
  8
ordenamento_aeronautico
  6
BYLAYER
 66
1
 70
1
 40
0.000000
 41
0.000000
  0
VERTEX
  8
ordenamento_aeronautico
 10
-9.418716
 20
38.728710
  0
VERTEX
  8
ordenamento_aeronautico
 10
-9.413092
 20
38.718584
  0
VERTEX
  8
ordenamento_aeronautico
 10
-9.416173
 20
38.717809
  0
VERTEX
  8
ordenamento_aeronautico
 10
-9.419126
 20
38.728607
  0
VERTEX
  8
ordenamento_aeronautico
 10
-9.418716
 20
38.728710
  0
SEQEND
  0
POLYLINE
  8
ordenamento_aeronautico
  6
BYLAYER
 66
1
 70
1
 40
0.000000
 41
0.000000
  0
VERTEX
  8
ordenamento_aeronautico
 10
-9.413009
 20
38.682649
  0
VERTEX
  8
ordenamento_aeronautico
 10
-9.416120
 20
38.682615
  0
VERTEX
  8
ordenamento_aeronautico
 10
-9.414915
 20
38.693618
  0
VERTEX
  8
ordenamento_aeronautico
 10
-9.414607
 20
38.693621
  0
VERTEX
  8
ordenamento_aeronautico
 10
-9.413009
 20
38.682649
  0
SEQEND
  0
POLYLINE
  8
ordenamento_aeronautico
  6
BYLAYER
 66
1
 70
1
 40
0.000000
 41
0.000000
  0
VERTEX
  8
ordenamento_aeronautico
 10
-9.413405
 20
38.704865
  0
VERTEX
  8
ordenamento_aeronautico
 10
-9.414611
 20
38.693863
  0
VERTEX
  8
ordenamento_aeronautico
 10
-9.414919
 20
38.693859
  0
VERTEX
  8
ordenamento_aeronautico
 10
-9.416517
 20
38.704831
  0
VERTEX
  8
ordenamento_aeronautico
 10
-9.413405
 20
38.704865
  0
SEQEND
  0
POLYLINE
  8
ordenamento_aeronautico
  6
BYLAYER
 66
1
 70
1
 40
0.000000
 41
0.000000
  0
VERTEX
  8
ordenamento_aeronautico
 10
-9.418769
 20
38.728653
  0
VERTEX
  8
ordenamento_aeronautico
 10
-9.419199
 20
38.728648
  0
VERTEX
  8
ordenamento_aeronautico
 10
-9.419205
 20
38.728985
  0
VERTEX
  8
ordenamento_aeronautico
 10
-9.418775
 20
38.728989
  0
VERTEX
  8
ordenamento_aeronautico
 10
-9.418769
 20
38.728653
  0
SEQEND
  0
POLYLINE
  8
ordenamento_aeronautico
  6
BYLAYER
 66
1
 70
1
 40
0.000000
 41
0.000000
  0
VERTEX
  8
ordenamento_aeronautico
 10
-9.418716
 20
38.728710
  0
VERTEX
  8
ordenamento_aeronautico
 10
-9.419126
 20
38.728607
  0
VERTEX
  8
ordenamento_aeronautico
 10
-9.419257
 20
38.728927
  0
VERTEX
  8
ordenamento_aeronautico
 10
-9.418848
 20
38.729030
  0
VERTEX
  8
ordenamento_aeronautico
 10
-9.418716
 20
38.728710
  0
SEQEND
  0
POLYLINE
  8
ordenamento_aeronautico
  6
BYLAYER
 66
1
 70
1
 40
0.000000
 41
0.000000
  0
VERTEX
  8
ordenamento_aeronautico
 10
-9.414611
 20
38.693863
  0
VERTEX
  8
ordenamento_aeronautico
 10
-9.414607
 20
38.693621
  0
VERTEX
  8
ordenamento_aeronautico
 10
-9.414915
 20
38.693618
  0
VERTEX
  8
ordenamento_aeronautico
 10
-9.414919
 20
38.693859
  0
VERTEX
  8
ordenamento_aeronautico
 10
-9.414611
 20
38.693863
  0
SEQEND
  0
POLYLINE
  8
ordenamento_aeronautico
  6
BYLAYER
 66
1
 70
1
 40
0.000000
 41
0.000000
  0
VERTEX
  8
ordenamento_aeronautico
 10
-9.417742
 20
38.728832
  0
VERTEX
  8
ordenamento_aeronautico
 10
-9.417743
 20
38.728771
  0
VERTEX
  8
ordenamento_aeronautico
 10
-9.417749
 20
38.728711
  0
VERTEX
  8
ordenamento_aeronautico
 10
-9.417760
 20
38.728651
  0
VERTEX
  8
ordenamento_aeronautico
 10
-9.417776
 20
38.728591
  0
VERTEX
  8
ordenamento_aeronautico
 10
-9.417796
 20
38.728533
  0
VERTEX
  8
ordenamento_aeronautico
 10
-9.417821
 20
38.728475
  0
VERTEX
  8
ordenamento_aeronautico
 10
-9.417850
 20
38.728419
  0
VERTEX
  8
ordenamento_aeronautico
 10
-9.417884
 20
38.728364
  0
VERTEX
  8
ordenamento_aeronautico
 10
-9.417923
 20
38.728311
  0
VERTEX
  8
ordenamento_aeronautico
 10
-9.417965
 20
38.728261
  0
VERTEX
  8
ordenamento_aeronautico
 10
-9.418011
 20
38.728212
  0
VERTEX
  8
ordenamento_aeronautico
 10
-9.418061
 20
38.728165
  0
VERTEX
  8
ordenamento_aeronautico
 10
-9.418115
 20
38.728121
  0
VERTEX
  8
ordenamento_aeronautico
 10
-9.418172
 20
38.728080
  0
VERTEX
  8
ordenamento_aeronautico
 10
-9.418232
 20
38.728042
  0
VERTEX
  8
ordenamento_aeronautico
 10
-9.418295
 20
38.728007
  0
VERTEX
  8
ordenamento_aeronautico
 10
-9.418361
 20
38.727975
  0
VERTEX
  8
ordenamento_aeronautico
 10
-9.418429
 20
38.727946
  0
VERTEX
  8
ordenamento_aeronautico
 10
-9.418499
 20
38.727920
  0
VERTEX
  8
ordenamento_aeronautico
 10
-9.418571
 20
38.727898
  0
VERTEX
  8
ordenamento_aeronautico
 10
-9.418645
 20
38.727880
  0
VERTEX
  8
ordenamento_aeronautico
 10
-9.418720
 20
38.727865
  0
VERTEX
  8
ordenamento_aeronautico
 10
-9.418797
 20
38.727853
  0
VERTEX
  8
ordenamento_aeronautico
 10
-9.418874
 20
38.727846
  0
VERTEX
  8
ordenamento_aeronautico
 10
-9.418951
 20
38.727842
  0
VERTEX
  8
ordenamento_aeronautico
 10
-9.419028
 20
38.727842
  0
VERTEX
  8
ordenamento_aeronautico
 10
-9.419106
 20
38.727846
  0
VERTEX
  8
ordenamento_aeronautico
 10
-9.419183
 20
38.727854
  0
VERTEX
  8
ordenamento_aeronautico
 10
-9.419259
 20
38.727865
  0
VERTEX
  8
ordenamento_aeronautico
 10
-9.419334
 20
38.727880
  0
VERTEX
  8
ordenamento_aeronautico
 10
-9.419408
 20
38.727899
  0
VERTEX
  8
ordenamento_aeronautico
 10
-9.419480
 20
38.727921
  0
VERTEX
  8
ordenamento_aeronautico
 10
-9.419550
 20
38.727947
  0
VERTEX
  8
ordenamento_aeronautico
 10
-9.419618
 20
38.727976
  0
VERTEX
  8
ordenamento_aeronautico
 10
-9.419684
 20
38.728008
  0
VERTEX
  8
ordenamento_aeronautico
 10
-9.419747
 20
38.728044
  0
VERTEX
  8
ordenamento_aeronautico
 10
-9.419807
 20
38.728082
  0
VERTEX
  8
ordenamento_aeronautico
 10
-9.419864
 20
38.728124
  0
VERTEX
  8
ordenamento_aeronautico
 10
-9.419917
 20
38.728168
  0
VERTEX
  8
ordenamento_aeronautico
 10
-9.419967
 20
38.728214
  0
VERTEX
  8
ordenamento_aeronautico
 10
-9.420013
 20
38.728263
  0
VERTEX
  8
ordenamento_aeronautico
 10
-9.420055
 20
38.728314
  0
VERTEX
  8
ordenamento_aeronautico
 10
-9.420093
 20
38.728367
  0
VERTEX
  8
ordenamento_aeronautico
 10
-9.420127
 20
38.728422
  0
VERTEX
  8
ordenamento_aeronautico
 10
-9.420156
 20
38.728478
  0
VERTEX
  8
ordenamento_aeronautico
 10
-9.420181
 20
38.728535
  0
VERTEX
  8
ordenamento_aeronautico
 10
-9.420201
 20
38.728594
  0
VERTEX
  8
ordenamento_aeronautico
 10
-9.420216
 20
38.728654
  0
VERTEX
  8
ordenamento_aeronautico
 10
-9.420227
 20
38.728714
  0
VERTEX
  8
ordenamento_aeronautico
 10
-9.420233
 20
38.728774
  0
VERTEX
  8
ordenamento_aeronautico
 10
-9.420234
 20
38.728835
  0
VERTEX
  8
ordenamento_aeronautico
 10
-9.420230
 20
38.728895
  0
VERTEX
  8
ordenamento_aeronautico
 10
-9.420222
 20
38.728956
  0
VERTEX
  8
ordenamento_aeronautico
 10
-9.420208
 20
38.729016
  0
VERTEX
  8
ordenamento_aeronautico
 10
-9.420190
 20
38.729075
  0
VERTEX
  8
ordenamento_aeronautico
 10
-9.420168
 20
38.729133
  0
VERTEX
  8
ordenamento_aeronautico
 10
-9.420140
 20
38.729190
  0
VERTEX
  8
ordenamento_aeronautico
 10
-9.420109
 20
38.729245
  0
VERTEX
  8
ordenamento_aeronautico
 10
-9.420073
 20
38.729299
  0
VERTEX
  8
ordenamento_aeronautico
 10
-9.420032
 20
38.729351
  0
VERTEX
  8
ordenamento_aeronautico
 10
-9.419988
 20
38.729401
  0
VERTEX
  8
ordenamento_aeronautico
 10
-9.419940
 20
38.729448
  0
VERTEX
  8
ordenamento_aeronautico
 10
-9.419888
 20
38.729493
  0
VERTEX
  8
ordenamento_aeronautico
 10
-9.419833
 20
38.729536
  0
VERTEX
  8
ordenamento_aeronautico
 10
-9.419774
 20
38.729576
  0
VERTEX
  8
ordenamento_aeronautico
 10
-9.419713
 20
38.729612
  0
VERTEX
  8
ordenamento_aeronautico
 10
-9.419648
 20
38.729646
  0
VERTEX
  8
ordenamento_aeronautico
 10
-9.419581
 20
38.729677
  0
VERTEX
  8
ordenamento_aeronautico
 10
-9.419512
 20
38.729704
  0
VERTEX
  8
ordenamento_aeronautico
 10
-9.419440
 20
38.729728
  0
VERTEX
  8
ordenamento_aeronautico
 10
-9.419367
 20
38.729748
  0
VERTEX
  8
ordenamento_aeronautico
 10
-9.419293
 20
38.729765
  0
VERTEX
  8
ordenamento_aeronautico
 10
-9.419217
 20
38.729778
  0
VERTEX
  8
ordenamento_aeronautico
 10
-9.419141
 20
38.729787
  0
VERTEX
  8
ordenamento_aeronautico
 10
-9.419063
 20
38.729793
  0
VERTEX
  8
ordenamento_aeronautico
 10
-9.418986
 20
38.729794
  0
VERTEX
  8
ordenamento_aeronautico
 10
-9.418908
 20
38.729793
  0
VERTEX
  8
ordenamento_aeronautico
 10
-9.418831
 20
38.729787
  0
VERTEX
  8
ordenamento_aeronautico
 10
-9.418755
 20
38.729777
  0
VERTEX
  8
ordenamento_aeronautico
 10
-9.418679
 20
38.729764
  0
VERTEX
  8
ordenamento_aeronautico
 10
-9.418604
 20
38.729747
  0
VERTEX
  8
ordenamento_aeronautico
 10
-9.418531
 20
38.729727
  0
VERTEX
  8
ordenamento_aeronautico
 10
-9.418460
 20
38.729703
  0
VERTEX
  8
ordenamento_aeronautico
 10
-9.418391
 20
38.729675
  0
VERTEX
  8
ordenamento_aeronautico
 10
-9.418324
 20
38.729645
  0
VERTEX
  8
ordenamento_aeronautico
 10
-9.418260
 20
38.729611
  0
VERTEX
  8
ordenamento_aeronautico
 10
-9.418198
 20
38.729574
  0
VERTEX
  8
ordenamento_aeronautico
 10
-9.418140
 20
38.729534
  0
VERTEX
  8
ordenamento_aeronautico
 10
-9.418085
 20
38.729491
  0
VERTEX
  8
ordenamento_aeronautico
 10
-9.418033
 20
38.729446
  0
VERTEX
  8
ordenamento_aeronautico
 10
-9.417985
 20
38.729398
  0
VERTEX
  8
ordenamento_aeronautico
 10
-9.417941
 20
38.729348
  0
VERTEX
  8
ordenamento_aeronautico
 10
-9.417901
 20
38.729296
  0
VERTEX
  8
ordenamento_aeronautico
 10
-9.417865
 20
38.729242
  0
VERTEX
  8
ordenamento_aeronautico
 10
-9.417834
 20
38.729187
  0
VERTEX
  8
ordenamento_aeronautico
 10
-9.417807
 20
38.729130
  0
VERTEX
  8
ordenamento_aeronautico
 10
-9.417784
 20
38.729072
  0
VERTEX
  8
ordenamento_aeronautico
 10
-9.417766
 20
38.729013
  0
VERTEX
  8
ordenamento_aeronautico
 10
-9.417753
 20
38.728953
  0
VERTEX
  8
ordenamento_aeronautico
 10
-9.417745
 20
38.728893
  0
VERTEX
  8
ordenamento_aeronautico
 10
-9.417742
 20
38.728832
  0
SEQEND
  0
POLYLINE
  8
ordenamento_aeronautico
  6
BYLAYER
 66
1
 70
1
 40
0.000000
 41
0.000000
  0
VERTEX
  8
ordenamento_aeronautico
 10
-9.414609
 20
38.693742
  0
VERTEX
  8
ordenamento_aeronautico
 10
-9.414609
 20
38.693741
  0
VERTEX
  8
ordenamento_aeronautico
 10
-9.414609
 20
38.693735
  0
VERTEX
  8
ordenamento_aeronautico
 10
-9.414609
 20
38.693733
  0
VERTEX
  8
ordenamento_aeronautico
 10
-9.414609
 20
38.693728
  0
VERTEX
  8
ordenamento_aeronautico
 10
-9.414610
 20
38.693726
  0
VERTEX
  8
ordenamento_aeronautico
 10
-9.414611
 20
38.693720
  0
VERTEX
  8
ordenamento_aeronautico
 10
-9.414611
 20
38.693719
  0
VERTEX
  8
ordenamento_aeronautico
 10
-9.414613
 20
38.693713
  0
VERTEX
  8
ordenamento_aeronautico
 10
-9.414613
 20
38.693711
  0
VERTEX
  8
ordenamento_aeronautico
 10
-9.414615
 20
38.693706
  0
VERTEX
  8
ordenamento_aeronautico
 10
-9.414616
 20
38.693704
  0
VERTEX
  8
ordenamento_aeronautico
 10
-9.414618
 20
38.693699
  0
VERTEX
  8
ordenamento_aeronautico
 10
-9.414619
 20
38.693697
  0
VERTEX
  8
ordenamento_aeronautico
 10
-9.414622
 20
38.693691
  0
VERTEX
  8
ordenamento_aeronautico
 10
-9.414623
 20
38.693690
  0
VERTEX
  8
ordenamento_aeronautico
 10
-9.414626
 20
38.693685
  0
VERTEX
  8
ordenamento_aeronautico
 10
-9.414627
 20
38.693683
  0
VERTEX
  8
ordenamento_aeronautico
 10
-9.414627
 20
38.693683
  0
VERTEX
  8
ordenamento_aeronautico
 10
-9.414630
 20
38.693678
  0
VERTEX
  8
ordenamento_aeronautico
 10
-9.414632
 20
38.693676
  0
VERTEX
  8
ordenamento_aeronautico
 10
-9.414636
 20
38.693672
  0
VERTEX
  8
ordenamento_aeronautico
 10
-9.414637
 20
38.693671
  0
VERTEX
  8
ordenamento_aeronautico
 10
-9.414641
 20
38.693666
  0
VERTEX
  8
ordenamento_aeronautico
 10
-9.414643
 20
38.693664
  0
VERTEX
  8
ordenamento_aeronautico
 10
-9.414647
 20
38.693660
  0
VERTEX
  8
ordenamento_aeronautico
 10
-9.414649
 20
38.693658
  0
VERTEX
  8
ordenamento_aeronautico
 10
-9.414654
 20
38.693654
  0
VERTEX
  8
ordenamento_aeronautico
 10
-9.414656
 20
38.693653
  0
VERTEX
  8
ordenamento_aeronautico
 10
-9.414661
 20
38.693649
  0
VERTEX
  8
ordenamento_aeronautico
 10
-9.414663
 20
38.693648
  0
VERTEX
  8
ordenamento_aeronautico
 10
-9.414668
 20
38.693645
  0
VERTEX
  8
ordenamento_aeronautico
 10
-9.414670
 20
38.693643
  0
VERTEX
  8
ordenamento_aeronautico
 10
-9.414676
 20
38.693640
  0
VERTEX
  8
ordenamento_aeronautico
 10
-9.414678
 20
38.693640
  0
VERTEX
  8
ordenamento_aeronautico
 10
-9.414684
 20
38.693637
  0
VERTEX
  8
ordenamento_aeronautico
 10
-9.414685
 20
38.693636
  0
VERTEX
  8
ordenamento_aeronautico
 10
-9.414686
 20
38.693635
  0
VERTEX
  8
ordenamento_aeronautico
 10
-9.414692
 20
38.693633
  0
VERTEX
  8
ordenamento_aeronautico
 10
-9.414695
 20
38.693632
  0
VERTEX
  8
ordenamento_aeronautico
 10
-9.414701
 20
38.693629
  0
VERTEX
  8
ordenamento_aeronautico
 10
-9.414703
 20
38.693629
  0
VERTEX
  8
ordenamento_aeronautico
 10
-9.414710
 20
38.693627
  0
VERTEX
  8
ordenamento_aeronautico
 10
-9.414712
 20
38.693626
  0
VERTEX
  8
ordenamento_aeronautico
 10
-9.414719
 20
38.693624
  0
VERTEX
  8
ordenamento_aeronautico
 10
-9.414722
 20
38.693624
  0
VERTEX
  8
ordenamento_aeronautico
 10
-9.414729
 20
38.693622
  0
VERTEX
  8
ordenamento_aeronautico
 10
-9.414731
 20
38.693622
  0
VERTEX
  8
ordenamento_aeronautico
 10
-9.414738
 20
38.693621
  0
VERTEX
  8
ordenamento_aeronautico
 10
-9.414741
 20
38.693621
  0
VERTEX
  8
ordenamento_aeronautico
 10
-9.414748
 20
38.693620
  0
VERTEX
  8
ordenamento_aeronautico
 10
-9.414750
 20
38.693620
  0
VERTEX
  8
ordenamento_aeronautico
 10
-9.414757
 20
38.693619
  0
VERTEX
  8
ordenamento_aeronautico
 10
-9.414759
 20
38.693619
  0
VERTEX
  8
ordenamento_aeronautico
 10
-9.414759
 20
38.693619
  0
VERTEX
  8
ordenamento_aeronautico
 10
-9.414767
 20
38.693619
  0
VERTEX
  8
ordenamento_aeronautico
 10
-9.414768
 20
38.693620
  0
VERTEX
  8
ordenamento_aeronautico
 10
-9.414775
 20
38.693620
  0
VERTEX
  8
ordenamento_aeronautico
 10
-9.414779
 20
38.693620
  0
VERTEX
  8
ordenamento_aeronautico
 10
-9.414786
 20
38.693621
  0
VERTEX
  8
ordenamento_aeronautico
 10
-9.414788
 20
38.693621
  0
VERTEX
  8
ordenamento_aeronautico
 10
-9.414795
 20
38.693622
  0
VERTEX
  8
ordenamento_aeronautico
 10
-9.414797
 20
38.693623
  0
VERTEX
  8
ordenamento_aeronautico
 10
-9.414804
 20
38.693624
  0
VERTEX
  8
ordenamento_aeronautico
 10
-9.414806
 20
38.693624
  0
VERTEX
  8
ordenamento_aeronautico
 10
-9.414813
 20
38.693626
  0
VERTEX
  8
ordenamento_aeronautico
 10
-9.414815
 20
38.693627
  0
VERTEX
  8
ordenamento_aeronautico
 10
-9.414822
 20
38.693629
  0
VERTEX
  8
ordenamento_aeronautico
 10
-9.414825
 20
38.693630
  0
VERTEX
  8
ordenamento_aeronautico
 10
-9.414831
 20
38.693632
  0
VERTEX
  8
ordenamento_aeronautico
 10
-9.414833
 20
38.693633
  0
VERTEX
  8
ordenamento_aeronautico
 10
-9.414840
 20
38.693636
  0
VERTEX
  8
ordenamento_aeronautico
 10
-9.414840
 20
38.693636
  0
VERTEX
  8
ordenamento_aeronautico
 10
-9.414842
 20
38.693637
  0
VERTEX
  8
ordenamento_aeronautico
 10
-9.414848
 20
38.693640
  0
VERTEX
  8
ordenamento_aeronautico
 10
-9.414849
 20
38.693640
  0
VERTEX
  8
ordenamento_aeronautico
 10
-9.414855
 20
38.693644
  0
VERTEX
  8
ordenamento_aeronautico
 10
-9.414857
 20
38.693645
  0
VERTEX
  8
ordenamento_aeronautico
 10
-9.414863
 20
38.693648
  0
VERTEX
  8
ordenamento_aeronautico
 10
-9.414865
 20
38.693650
  0
VERTEX
  8
ordenamento_aeronautico
 10
-9.414870
 20
38.693654
  0
VERTEX
  8
ordenamento_aeronautico
 10
-9.414872
 20
38.693655
  0
VERTEX
  8
ordenamento_aeronautico
 10
-9.414877
 20
38.693659
  0
VERTEX
  8
ordenamento_aeronautico
 10
-9.414878
 20
38.693660
  0
VERTEX
  8
ordenamento_aeronautico
 10
-9.414883
 20
38.693665
  0
VERTEX
  8
ordenamento_aeronautico
 10
-9.414884
 20
38.693666
  0
VERTEX
  8
ordenamento_aeronautico
 10
-9.414888
 20
38.693670
  0
VERTEX
  8
ordenamento_aeronautico
 10
-9.414890
 20
38.693672
  0
VERTEX
  8
ordenamento_aeronautico
 10
-9.414894
 20
38.693677
  0
VERTEX
  8
ordenamento_aeronautico
 10
-9.414895
 20
38.693678
  0
VERTEX
  8
ordenamento_aeronautico
 10
-9.414895
 20
38.693679
  0
VERTEX
  8
ordenamento_aeronautico
 10
-9.414899
 20
38.693684
  0
VERTEX
  8
ordenamento_aeronautico
 10
-9.414900
 20
38.693685
  0
VERTEX
  8
ordenamento_aeronautico
 10
-9.414903
 20
38.693690
  0
VERTEX
  8
ordenamento_aeronautico
 10
-9.414904
 20
38.693692
  0
VERTEX
  8
ordenamento_aeronautico
 10
-9.414907
 20
38.693697
  0
VERTEX
  8
ordenamento_aeronautico
 10
-9.414907
 20
38.693699
  0
VERTEX
  8
ordenamento_aeronautico
 10
-9.414910
 20
38.693704
  0
VERTEX
  8
ordenamento_aeronautico
 10
-9.414910
 20
38.693706
  0
VERTEX
  8
ordenamento_aeronautico
 10
-9.414912
 20
38.693711
  0
VERTEX
  8
ordenamento_aeronautico
 10
-9.414913
 20
38.693713
  0
VERTEX
  8
ordenamento_aeronautico
 10
-9.414914
 20
38.693719
  0
VERTEX
  8
ordenamento_aeronautico
 10
-9.414915
 20
38.693721
  0
VERTEX
  8
ordenamento_aeronautico
 10
-9.414916
 20
38.693726
  0
VERTEX
  8
ordenamento_aeronautico
 10
-9.414916
 20
38.693728
  0
VERTEX
  8
ordenamento_aeronautico
 10
-9.414916
 20
38.693733
  0
VERTEX
  8
ordenamento_aeronautico
 10
-9.414917
 20
38.693736
  0
VERTEX
  8
ordenamento_aeronautico
 10
-9.414917
 20
38.693741
  0
VERTEX
  8
ordenamento_aeronautico
 10
-9.414917
 20
38.693743
  0
VERTEX
  8
ordenamento_aeronautico
 10
-9.414916
 20
38.693749
  0
VERTEX
  8
ordenamento_aeronautico
 10
-9.414916
 20
38.693751
  0
VERTEX
  8
ordenamento_aeronautico
 10
-9.414915
 20
38.693756
  0
VERTEX
  8
ordenamento_aeronautico
 10
-9.414915
 20
38.693758
  0
VERTEX
  8
ordenamento_aeronautico
 10
-9.414914
 20
38.693764
  0
VERTEX
  8
ordenamento_aeronautico
 10
-9.414913
 20
38.693766
  0
VERTEX
  8
ordenamento_aeronautico
 10
-9.414911
 20
38.693771
  0
VERTEX
  8
ordenamento_aeronautico
 10
-9.414911
 20
38.693773
  0
VERTEX
  8
ordenamento_aeronautico
 10
-9.414909
 20
38.693778
  0
VERTEX
  8
ordenamento_aeronautico
 10
-9.414908
 20
38.693780
  0
VERTEX
  8
ordenamento_aeronautico
 10
-9.414906
 20
38.693785
  0
VERTEX
  8
ordenamento_aeronautico
 10
-9.414905
 20
38.693787
  0
VERTEX
  8
ordenamento_aeronautico
 10
-9.414902
 20
38.693792
  0
VERTEX
  8
ordenamento_aeronautico
 10
-9.414901
 20
38.693794
  0
VERTEX
  8
ordenamento_aeronautico
 10
-9.414897
 20
38.693799
  0
VERTEX
  8
ordenamento_aeronautico
 10
-9.414897
 20
38.693799
  0
VERTEX
  8
ordenamento_aeronautico
 10
-9.414896
 20
38.693800
  0
VERTEX
  8
ordenamento_aeronautico
 10
-9.414892
 20
38.693805
  0
VERTEX
  8
ordenamento_aeronautico
 10
-9.414891
 20
38.693807
  0
VERTEX
  8
ordenamento_aeronautico
 10
-9.414887
 20
38.693811
  0
VERTEX
  8
ordenamento_aeronautico
 10
-9.414885
 20
38.693813
  0
VERTEX
  8
ordenamento_aeronautico
 10
-9.414881
 20
38.693817
  0
VERTEX
  8
ordenamento_aeronautico
 10
-9.414880
 20
38.693818
  0
VERTEX
  8
ordenamento_aeronautico
 10
-9.414875
 20
38.693823
  0
VERTEX
  8
ordenamento_aeronautico
 10
-9.414873
 20
38.693824
  0
VERTEX
  8
ordenamento_aeronautico
 10
-9.414868
 20
38.693828
  0
VERTEX
  8
ordenamento_aeronautico
 10
-9.414866
 20
38.693830
  0
VERTEX
  8
ordenamento_aeronautico
 10
-9.414861
 20
38.693833
  0
VERTEX
  8
ordenamento_aeronautico
 10
-9.414859
 20
38.693834
  0
VERTEX
  8
ordenamento_aeronautico
 10
-9.414853
 20
38.693838
  0
VERTEX
  8
ordenamento_aeronautico
 10
-9.414851
 20
38.693839
  0
VERTEX
  8
ordenamento_aeronautico
 10
-9.414845
 20
38.693842
  0
VERTEX
  8
ordenamento_aeronautico
 10
-9.414843
 20
38.693843
  0
VERTEX
  8
ordenamento_aeronautico
 10
-9.414843
 20
38.693843
  0
VERTEX
  8
ordenamento_aeronautico
 10
-9.414837
 20
38.693846
  0
VERTEX
  8
ordenamento_aeronautico
 10
-9.414835
 20
38.693847
  0
VERTEX
  8
ordenamento_aeronautico
 10
-9.414829
 20
38.693849
  0
VERTEX
  8
ordenamento_aeronautico
 10
-9.414826
 20
38.693850
  0
VERTEX
  8
ordenamento_aeronautico
 10
-9.414819
 20
38.693852
  0
VERTEX
  8
ordenamento_aeronautico
 10
-9.414817
 20
38.693853
  0
VERTEX
  8
ordenamento_aeronautico
 10
-9.414811
 20
38.693855
  0
VERTEX
  8
ordenamento_aeronautico
 10
-9.414808
 20
38.693855
  0
VERTEX
  8
ordenamento_aeronautico
 10
-9.414801
 20
38.693857
  0
VERTEX
  8
ordenamento_aeronautico
 10
-9.414799
 20
38.693857
  0
VERTEX
  8
ordenamento_aeronautico
 10
-9.414793
 20
38.693859
  0
VERTEX
  8
ordenamento_aeronautico
 10
-9.414790
 20
38.693859
  0
VERTEX
  8
ordenamento_aeronautico
 10
-9.414783
 20
38.693860
  0
VERTEX
  8
ordenamento_aeronautico
 10
-9.414780
 20
38.693860
  0
VERTEX
  8
ordenamento_aeronautico
 10
-9.414773
 20
38.693861
  0
VERTEX
  8
ordenamento_aeronautico
 10
-9.414771
 20
38.693861
  0
VERTEX
  8
ordenamento_aeronautico
 10
-9.414764
 20
38.693861
  0
VERTEX
  8
ordenamento_aeronautico
 10
-9.414763
 20
38.693861
  0
VERTEX
  8
ordenamento_aeronautico
 10
-9.414761
 20
38.693861
  0
VERTEX
  8
ordenamento_aeronautico
 10
-9.414754
 20
38.693861
  0
VERTEX
  8
ordenamento_aeronautico
 10
-9.414752
 20
38.693860
  0
VERTEX
  8
ordenamento_aeronautico
 10
-9.414745
 20
38.693860
  0
VERTEX
  8
ordenamento_aeronautico
 10
-9.414742
 20
38.693860
  0
VERTEX
  8
ordenamento_aeronautico
 10
-9.414735
 20
38.693859
  0
VERTEX
  8
ordenamento_aeronautico
 10
-9.414733
 20
38.693859
  0
VERTEX
  8
ordenamento_aeronautico
 10
-9.414726
 20
38.693857
  0
VERTEX
  8
ordenamento_aeronautico
 10
-9.414723
 20
38.693857
  0
VERTEX
  8
ordenamento_aeronautico
 10
-9.414716
 20
38.693855
  0
VERTEX
  8
ordenamento_aeronautico
 10
-9.414714
 20
38.693855
  0
VERTEX
  8
ordenamento_aeronautico
 10
-9.414707
 20
38.693853
  0
VERTEX
  8
ordenamento_aeronautico
 10
-9.414705
 20
38.693852
  0
VERTEX
  8
ordenamento_aeronautico
 10
-9.414699
 20
38.693850
  0
VERTEX
  8
ordenamento_aeronautico
 10
-9.414696
 20
38.693849
  0
VERTEX
  8
ordenamento_aeronautico
 10
-9.414690
 20
38.693846
  0
VERTEX
  8
ordenamento_aeronautico
 10
-9.414688
 20
38.693846
  0
VERTEX
  8
ordenamento_aeronautico
 10
-9.414687
 20
38.693845
  0
VERTEX
  8
ordenamento_aeronautico
 10
-9.414681
 20
38.693842
  0
VERTEX
  8
ordenamento_aeronautico
 10
-9.414680
 20
38.693842
  0
VERTEX
  8
ordenamento_aeronautico
 10
-9.414674
 20
38.693839
  0
VERTEX
  8
ordenamento_aeronautico
 10
-9.414672
 20
38.693837
  0
VERTEX
  8
ordenamento_aeronautico
 10
-9.414666
 20
38.693834
  0
VERTEX
  8
ordenamento_aeronautico
 10
-9.414664
 20
38.693833
  0
VERTEX
  8
ordenamento_aeronautico
 10
-9.414659
 20
38.693829
  0
VERTEX
  8
ordenamento_aeronautico
 10
-9.414657
 20
38.693828
  0
VERTEX
  8
ordenamento_aeronautico
 10
-9.414652
 20
38.693824
  0
VERTEX
  8
ordenamento_aeronautico
 10
-9.414650
 20
38.693823
  0
VERTEX
  8
ordenamento_aeronautico
 10
-9.414646
 20
38.693819
  0
VERTEX
  8
ordenamento_aeronautico
 10
-9.414644
 20
38.693817
  0
VERTEX
  8
ordenamento_aeronautico
 10
-9.414639
 20
38.693812
  0
VERTEX
  8
ordenamento_aeronautico
 10
-9.414638
 20
38.693811
  0
VERTEX
  8
ordenamento_aeronautico
 10
-9.414634
 20
38.693807
  0
VERTEX
  8
ordenamento_aeronautico
 10
-9.414633
 20
38.693805
  0
VERTEX
  8
ordenamento_aeronautico
 10
-9.414629
 20
38.693800
  0
VERTEX
  8
ordenamento_aeronautico
 10
-9.414629
 20
38.693800
  0
VERTEX
  8
ordenamento_aeronautico
 10
-9.414628
 20
38.693798
  0
VERTEX
  8
ordenamento_aeronautico
 10
-9.414624
 20
38.693793
  0
VERTEX
  8
ordenamento_aeronautico
 10
-9.414624
 20
38.693792
  0
VERTEX
  8
ordenamento_aeronautico
 10
-9.414621
 20
38.693787
  0
VERTEX
  8
ordenamento_aeronautico
 10
-9.414620
 20
38.693785
  0
VERTEX
  8
ordenamento_aeronautico
 10
-9.414617
 20
38.693780
  0
VERTEX
  8
ordenamento_aeronautico
 10
-9.414616
 20
38.693778
  0
VERTEX
  8
ordenamento_aeronautico
 10
-9.414614
 20
38.693772
  0
VERTEX
  8
ordenamento_aeronautico
 10
-9.414614
 20
38.693770
  0
VERTEX
  8
ordenamento_aeronautico
 10
-9.414612
 20
38.693765
  0
VERTEX
  8
ordenamento_aeronautico
 10
-9.414612
 20
38.693763
  0
VERTEX
  8
ordenamento_aeronautico
 10
-9.414610
 20
38.693758
  0
VERTEX
  8
ordenamento_aeronautico
 10
-9.414610
 20
38.693756
  0
VERTEX
  8
ordenamento_aeronautico
 10
-9.414609
 20
38.693750
  0
VERTEX
  8
ordenamento_aeronautico
 10
-9.414609
 20
38.693748
  0
VERTEX
  8
ordenamento_aeronautico
 10
-9.414609
 20
38.693743
  0
VERTEX
  8
ordenamento_aeronautico
 10
-9.414609
 20
38.693742
  0
SEQEND
  0
POLYLINE
  8
ordenamento_aeronautico
  6
BYLAYER
 66
1
 70
1
 40
0.000000
 41
0.000000
  0
VERTEX
  8
ordenamento_aeronautico
 10
-9.413570
 20
38.693754
  0
VERTEX
  8
ordenamento_aeronautico
 10
-9.413570
 20
38.693753
  0
VERTEX
  8
ordenamento_aeronautico
 10
-9.413570
 20
38.693752
  0
VERTEX
  8
ordenamento_aeronautico
 10
-9.413570
 20
38.693731
  0
VERTEX
  8
ordenamento_aeronautico
 10
-9.413570
 20
38.693725
  0
VERTEX
  8
ordenamento_aeronautico
 10
-9.413572
 20
38.693688
  0
VERTEX
  8
ordenamento_aeronautico
 10
-9.413572
 20
38.693686
  0
VERTEX
  8
ordenamento_aeronautico
 10
-9.413573
 20
38.693669
  0
VERTEX
  8
ordenamento_aeronautico
 10
-9.413574
 20
38.693664
  0
VERTEX
  8
ordenamento_aeronautico
 10
-9.413576
 20
38.693648
  0
VERTEX
  8
ordenamento_aeronautico
 10
-9.413576
 20
38.693646
  0
VERTEX
  8
ordenamento_aeronautico
 10
-9.413582
 20
38.693607
  0
VERTEX
  8
ordenamento_aeronautico
 10
-9.413583
 20
38.693601
  0
VERTEX
  8
ordenamento_aeronautico
 10
-9.413586
 20
38.693585
  0
VERTEX
  8
ordenamento_aeronautico
 10
-9.413587
 20
38.693583
  0
VERTEX
  8
ordenamento_aeronautico
 10
-9.413593
 20
38.693558
  0
VERTEX
  8
ordenamento_aeronautico
 10
-9.413594
 20
38.693552
  0
VERTEX
  8
ordenamento_aeronautico
 10
-9.413604
 20
38.693517
  0
VERTEX
  8
ordenamento_aeronautico
 10
-9.413605
 20
38.693515
  0
VERTEX
  8
ordenamento_aeronautico
 10
-9.413611
 20
38.693496
  0
VERTEX
  8
ordenamento_aeronautico
 10
-9.413613
 20
38.693491
  0
VERTEX
  8
ordenamento_aeronautico
 10
-9.413624
 20
38.693461
  0
VERTEX
  8
ordenamento_aeronautico
 10
-9.413625
 20
38.693460
  0
VERTEX
  8
ordenamento_aeronautico
 10
-9.413632
 20
38.693442
  0
VERTEX
  8
ordenamento_aeronautico
 10
-9.413634
 20
38.693437
  0
VERTEX
  8
ordenamento_aeronautico
 10
-9.413646
 20
38.693412
  0
VERTEX
  8
ordenamento_aeronautico
 10
-9.413647
 20
38.693410
  0
VERTEX
  8
ordenamento_aeronautico
 10
-9.413660
 20
38.693383
  0
VERTEX
  8
ordenamento_aeronautico
 10
-9.413663
 20
38.693378
  0
VERTEX
  8
ordenamento_aeronautico
 10
-9.413664
 20
38.693376
  0
VERTEX
  8
ordenamento_aeronautico
 10
-9.413665
 20
38.693375
  0
VERTEX
  8
ordenamento_aeronautico
 10
-9.413687
 20
38.693336
  0
VERTEX
  8
ordenamento_aeronautico
 10
-9.413690
 20
38.693330
  0
VERTEX
  8
ordenamento_aeronautico
 10
-9.413708
 20
38.693303
  0
VERTEX
  8
ordenamento_aeronautico
 10
-9.413709
 20
38.693301
  0
VERTEX
  8
ordenamento_aeronautico
 10
-9.413720
 20
38.693286
  0
VERTEX
  8
ordenamento_aeronautico
 10
-9.413721
 20
38.693284
  0
VERTEX
  8
ordenamento_aeronautico
 10
-9.413725
 20
38.693279
  0
VERTEX
  8
ordenamento_aeronautico
 10
-9.413739
 20
38.693260
  0
VERTEX
  8
ordenamento_aeronautico
 10
-9.413741
 20
38.693258
  0
VERTEX
  8
ordenamento_aeronautico
 10
-9.413764
 20
38.693228
  0
VERTEX
  8
ordenamento_aeronautico
 10
-9.413768
 20
38.693224
  0
VERTEX
  8
ordenamento_aeronautico
 10
-9.413771
 20
38.693220
  0
VERTEX
  8
ordenamento_aeronautico
 10
-9.413772
 20
38.693219
  0
VERTEX
  8
ordenamento_aeronautico
 10
-9.413794
 20
38.693195
  0
VERTEX
  8
ordenamento_aeronautico
 10
-9.413798
 20
38.693190
  0
VERTEX
  8
ordenamento_aeronautico
 10
-9.413830
 20
38.693157
  0
VERTEX
  8
ordenamento_aeronautico
 10
-9.413832
 20
38.693155
  0
VERTEX
  8
ordenamento_aeronautico
 10
-9.413852
 20
38.693136
  0
VERTEX
  8
ordenamento_aeronautico
 10
-9.413857
 20
38.693132
  0
VERTEX
  8
ordenamento_aeronautico
 10
-9.413876
 20
38.693115
  0
VERTEX
  8
ordenamento_aeronautico
 10
-9.413878
 20
38.693113
  0
VERTEX
  8
ordenamento_aeronautico
 10
-9.413902
 20
38.693093
  0
VERTEX
  8
ordenamento_aeronautico
 10
-9.413907
 20
38.693089
  0
VERTEX
  8
ordenamento_aeronautico
 10
-9.413931
 20
38.693070
  0
VERTEX
  8
ordenamento_aeronautico
 10
-9.413932
 20
38.693069
  0
VERTEX
  8
ordenamento_aeronautico
 10
-9.413955
 20
38.693052
  0
VERTEX
  8
ordenamento_aeronautico
 10
-9.413960
 20
38.693048
  0
VERTEX
  8
ordenamento_aeronautico
 10
-9.413985
 20
38.693031
  0
VERTEX
  8
ordenamento_aeronautico
 10
-9.413986
 20
38.693030
  0
VERTEX
  8
ordenamento_aeronautico
 10
-9.414001
 20
38.693020
  0
VERTEX
  8
ordenamento_aeronautico
 10
-9.414007
 20
38.693017
  0
VERTEX
  8
ordenamento_aeronautico
 10
-9.414020
 20
38.693009
  0
VERTEX
  8
ordenamento_aeronautico
 10
-9.414022
 20
38.693007
  0
VERTEX
  8
ordenamento_aeronautico
 10
-9.414072
 20
38.692978
  0
VERTEX
  8
ordenamento_aeronautico
 10
-9.414077
 20
38.692975
  0
VERTEX
  8
ordenamento_aeronautico
 10
-9.414115
 20
38.692955
  0
VERTEX
  8
ordenamento_aeronautico
 10
-9.414121
 20
38.692952
  0
VERTEX
  8
ordenamento_aeronautico
 10
-9.414133
 20
38.692946
  0
VERTEX
  8
ordenamento_aeronautico
 10
-9.414134
 20
38.692946
  0
VERTEX
  8
ordenamento_aeronautico
 10
-9.414135
 20
38.692945
  0
VERTEX
  8
ordenamento_aeronautico
 10
-9.414154
 20
38.692936
  0
VERTEX
  8
ordenamento_aeronautico
 10
-9.414190
 20
38.692920
  0
VERTEX
  8
ordenamento_aeronautico
 10
-9.414197
 20
38.692917
  0
VERTEX
  8
ordenamento_aeronautico
 10
-9.414240
 20
38.692900
  0
VERTEX
  8
ordenamento_aeronautico
 10
-9.414243
 20
38.692899
  0
VERTEX
  8
ordenamento_aeronautico
 10
-9.414264
 20
38.692891
  0
VERTEX
  8
ordenamento_aeronautico
 10
-9.414270
 20
38.692889
  0
VERTEX
  8
ordenamento_aeronautico
 10
-9.414299
 20
38.692879
  0
VERTEX
  8
ordenamento_aeronautico
 10
-9.414301
 20
38.692878
  0
VERTEX
  8
ordenamento_aeronautico
 10
-9.414324
 20
38.692871
  0
VERTEX
  8
ordenamento_aeronautico
 10
-9.414331
 20
38.692868
  0
VERTEX
  8
ordenamento_aeronautico
 10
-9.414362
 20
38.692859
  0
VERTEX
  8
ordenamento_aeronautico
 10
-9.414365
 20
38.692859
  0
VERTEX
  8
ordenamento_aeronautico
 10
-9.414397
 20
38.692850
  0
VERTEX
  8
ordenamento_aeronautico
 10
-9.414404
 20
38.692848
  0
VERTEX
  8
ordenamento_aeronautico
 10
-9.414435
 20
38.692841
  0
VERTEX
  8
ordenamento_aeronautico
 10
-9.414437
 20
38.692841
  0
VERTEX
  8
ordenamento_aeronautico
 10
-9.414470
 20
38.692834
  0
VERTEX
  8
ordenamento_aeronautico
 10
-9.414472
 20
38.692833
  0
VERTEX
  8
ordenamento_aeronautico
 10
-9.414479
 20
38.692832
  0
VERTEX
  8
ordenamento_aeronautico
 10
-9.414532
 20
38.692823
  0
VERTEX
  8
ordenamento_aeronautico
 10
-9.414539
 20
38.692822
  0
VERTEX
  8
ordenamento_aeronautico
 10
-9.414609
 20
38.692813
  0
VERTEX
  8
ordenamento_aeronautico
 10
-9.414612
 20
38.692813
  0
VERTEX
  8
ordenamento_aeronautico
 10
-9.414626
 20
38.692811
  0
VERTEX
  8
ordenamento_aeronautico
 10
-9.414633
 20
38.692811
  0
VERTEX
  8
ordenamento_aeronautico
 10
-9.414685
 20
38.692807
  0
VERTEX
  8
ordenamento_aeronautico
 10
-9.414693
 20
38.692807
  0
VERTEX
  8
ordenamento_aeronautico
 10
-9.414742
 20
38.692805
  0
VERTEX
  8
ordenamento_aeronautico
 10
-9.414744
 20
38.692805
  0
VERTEX
  8
ordenamento_aeronautico
 10
-9.414745
 20
38.692805
  0
VERTEX
  8
ordenamento_aeronautico
 10
-9.414762
 20
38.692805
  0
VERTEX
  8
ordenamento_aeronautico
 10
-9.414769
 20
38.692805
  0
VERTEX
  8
ordenamento_aeronautico
 10
-9.414815
 20
38.692806
  0
VERTEX
  8
ordenamento_aeronautico
 10
-9.414817
 20
38.692806
  0
VERTEX
  8
ordenamento_aeronautico
 10
-9.414821
 20
38.692806
  0
VERTEX
  8
ordenamento_aeronautico
 10
-9.414828
 20
38.692807
  0
VERTEX
  8
ordenamento_aeronautico
 10
-9.414878
 20
38.692810
  0
VERTEX
  8
ordenamento_aeronautico
 10
-9.414881
 20
38.692810
  0
VERTEX
  8
ordenamento_aeronautico
 10
-9.414914
 20
38.692813
  0
VERTEX
  8
ordenamento_aeronautico
 10
-9.414921
 20
38.692813
  0
VERTEX
  8
ordenamento_aeronautico
 10
-9.414955
 20
38.692817
  0
VERTEX
  8
ordenamento_aeronautico
 10
-9.414958
 20
38.692818
  0
VERTEX
  8
ordenamento_aeronautico
 10
-9.414990
 20
38.692822
  0
VERTEX
  8
ordenamento_aeronautico
 10
-9.414997
 20
38.692824
  0
VERTEX
  8
ordenamento_aeronautico
 10
-9.415015
 20
38.692826
  0
VERTEX
  8
ordenamento_aeronautico
 10
-9.415017
 20
38.692827
  0
VERTEX
  8
ordenamento_aeronautico
 10
-9.415054
 20
38.692833
  0
VERTEX
  8
ordenamento_aeronautico
 10
-9.415060
 20
38.692835
  0
VERTEX
  8
ordenamento_aeronautico
 10
-9.415081
 20
38.692839
  0
VERTEX
  8
ordenamento_aeronautico
 10
-9.415083
 20
38.692840
  0
VERTEX
  8
ordenamento_aeronautico
 10
-9.415124
 20
38.692849
  0
VERTEX
  8
ordenamento_aeronautico
 10
-9.415131
 20
38.692851
  0
VERTEX
  8
ordenamento_aeronautico
 10
-9.415140
 20
38.692853
  0
VERTEX
  8
ordenamento_aeronautico
 10
-9.415142
 20
38.692854
  0
VERTEX
  8
ordenamento_aeronautico
 10
-9.415186
 20
38.692866
  0
VERTEX
  8
ordenamento_aeronautico
 10
-9.415193
 20
38.692868
  0
VERTEX
  8
ordenamento_aeronautico
 10
-9.415256
 20
38.692889
  0
VERTEX
  8
ordenamento_aeronautico
 10
-9.415258
 20
38.692890
  0
VERTEX
  8
ordenamento_aeronautico
 10
-9.415268
 20
38.692893
  0
VERTEX
  8
ordenamento_aeronautico
 10
-9.415274
 20
38.692895
  0
VERTEX
  8
ordenamento_aeronautico
 10
-9.415303
 20
38.692906
  0
VERTEX
  8
ordenamento_aeronautico
 10
-9.415305
 20
38.692907
  0
VERTEX
  8
ordenamento_aeronautico
 10
-9.415335
 20
38.692920
  0
VERTEX
  8
ordenamento_aeronautico
 10
-9.415341
 20
38.692922
  0
VERTEX
  8
ordenamento_aeronautico
 10
-9.415346
 20
38.692925
  0
VERTEX
  8
ordenamento_aeronautico
 10
-9.415366
 20
38.692934
  0
VERTEX
  8
ordenamento_aeronautico
 10
-9.415366
 20
38.692934
  0
VERTEX
  8
ordenamento_aeronautico
 10
-9.415368
 20
38.692935
  0
VERTEX
  8
ordenamento_aeronautico
 10
-9.415398
 20
38.692949
  0
VERTEX
  8
ordenamento_aeronautico
 10
-9.415404
 20
38.692952
  0
VERTEX
  8
ordenamento_aeronautico
 10
-9.415416
 20
38.692958
  0
VERTEX
  8
ordenamento_aeronautico
 10
-9.415418
 20
38.692959
  0
VERTEX
  8
ordenamento_aeronautico
 10
-9.415453
 20
38.692978
  0
VERTEX
  8
ordenamento_aeronautico
 10
-9.415459
 20
38.692981
  0
VERTEX
  8
ordenamento_aeronautico
 10
-9.415487
 20
38.692997
  0
VERTEX
  8
ordenamento_aeronautico
 10
-9.415489
 20
38.692998
  0
VERTEX
  8
ordenamento_aeronautico
 10
-9.415512
 20
38.693013
  0
VERTEX
  8
ordenamento_aeronautico
 10
-9.415518
 20
38.693017
  0
VERTEX
  8
ordenamento_aeronautico
 10
-9.415539
 20
38.693030
  0
VERTEX
  8
ordenamento_aeronautico
 10
-9.415541
 20
38.693032
  0
VERTEX
  8
ordenamento_aeronautico
 10
-9.415576
 20
38.693056
  0
VERTEX
  8
ordenamento_aeronautico
 10
-9.415581
 20
38.693060
  0
VERTEX
  8
ordenamento_aeronautico
 10
-9.415622
 20
38.693092
  0
VERTEX
  8
ordenamento_aeronautico
 10
-9.415623
 20
38.693093
  0
VERTEX
  8
ordenamento_aeronautico
 10
-9.415629
 20
38.693097
  0
VERTEX
  8
ordenamento_aeronautico
 10
-9.415634
 20
38.693101
  0
VERTEX
  8
ordenamento_aeronautico
 10
-9.415644
 20
38.693110
  0
VERTEX
  8
ordenamento_aeronautico
 10
-9.415645
 20
38.693111
  0
VERTEX
  8
ordenamento_aeronautico
 10
-9.415670
 20
38.693134
  0
VERTEX
  8
ordenamento_aeronautico
 10
-9.415675
 20
38.693138
  0
VERTEX
  8
ordenamento_aeronautico
 10
-9.415676
 20
38.693139
  0
VERTEX
  8
ordenamento_aeronautico
 10
-9.415716
 20
38.693179
  0
VERTEX
  8
ordenamento_aeronautico
 10
-9.415721
 20
38.693183
  0
VERTEX
  8
ordenamento_aeronautico
 10
-9.415748
 20
38.693213
  0
VERTEX
  8
ordenamento_aeronautico
 10
-9.415749
 20
38.693214
  0
VERTEX
  8
ordenamento_aeronautico
 10
-9.415764
 20
38.693232
  0
VERTEX
  8
ordenamento_aeronautico
 10
-9.415768
 20
38.693237
  0
VERTEX
  8
ordenamento_aeronautico
 10
-9.415786
 20
38.693260
  0
VERTEX
  8
ordenamento_aeronautico
 10
-9.415787
 20
38.693261
  0
VERTEX
  8
ordenamento_aeronautico
 10
-9.415798
 20
38.693276
  0
VERTEX
  8
ordenamento_aeronautico
 10
-9.415799
 20
38.693276
  0
VERTEX
  8
ordenamento_aeronautico
 10
-9.415802
 20
38.693282
  0
VERTEX
  8
ordenamento_aeronautico
 10
-9.415806
 20
38.693287
  0
VERTEX
  8
ordenamento_aeronautico
 10
-9.415815
 20
38.693300
  0
VERTEX
  8
ordenamento_aeronautico
 10
-9.415816
 20
38.693302
  0
VERTEX
  8
ordenamento_aeronautico
 10
-9.415833
 20
38.693328
  0
VERTEX
  8
ordenamento_aeronautico
 10
-9.415836
 20
38.693333
  0
VERTEX
  8
ordenamento_aeronautico
 10
-9.415851
 20
38.693358
  0
VERTEX
  8
ordenamento_aeronautico
 10
-9.415852
 20
38.693360
  0
VERTEX
  8
ordenamento_aeronautico
 10
-9.415869
 20
38.693390
  0
VERTEX
  8
ordenamento_aeronautico
 10
-9.415871
 20
38.693395
  0
VERTEX
  8
ordenamento_aeronautico
 10
-9.415891
 20
38.693438
  0
VERTEX
  8
ordenamento_aeronautico
 10
-9.415892
 20
38.693439
  0
VERTEX
  8
ordenamento_aeronautico
 10
-9.415894
 20
38.693444
  0
VERTEX
  8
ordenamento_aeronautico
 10
-9.415894
 20
38.693445
  0
VERTEX
  8
ordenamento_aeronautico
 10
-9.415895
 20
38.693446
  0
VERTEX
  8
ordenamento_aeronautico
 10
-9.415912
 20
38.693489
  0
VERTEX
  8
ordenamento_aeronautico
 10
-9.415914
 20
38.693494
  0
VERTEX
  8
ordenamento_aeronautico
 10
-9.415927
 20
38.693536
  0
VERTEX
  8
ordenamento_aeronautico
 10
-9.415927
 20
38.693538
  0
VERTEX
  8
ordenamento_aeronautico
 10
-9.415931
 20
38.693553
  0
VERTEX
  8
ordenamento_aeronautico
 10
-9.415933
 20
38.693559
  0
VERTEX
  8
ordenamento_aeronautico
 10
-9.415938
 20
38.693581
  0
VERTEX
  8
ordenamento_aeronautico
 10
-9.415939
 20
38.693583
  0
VERTEX
  8
ordenamento_aeronautico
 10
-9.415944
 20
38.693611
  0
VERTEX
  8
ordenamento_aeronautico
 10
-9.415945
 20
38.693617
  0
VERTEX
  8
ordenamento_aeronautico
 10
-9.415949
 20
38.693641
  0
VERTEX
  8
ordenamento_aeronautico
 10
-9.415949
 20
38.693642
  0
VERTEX
  8
ordenamento_aeronautico
 10
-9.415951
 20
38.693663
  0
VERTEX
  8
ordenamento_aeronautico
 10
-9.415952
 20
38.693668
  0
VERTEX
  8
ordenamento_aeronautico
 10
-9.415954
 20
38.693693
  0
VERTEX
  8
ordenamento_aeronautico
 10
-9.415954
 20
38.693695
  0
VERTEX
  8
ordenamento_aeronautico
 10
-9.415955
 20
38.693724
  0
VERTEX
  8
ordenamento_aeronautico
 10
-9.415955
 20
38.693730
  0
VERTEX
  8
ordenamento_aeronautico
 10
-9.415955
 20
38.693759
  0
VERTEX
  8
ordenamento_aeronautico
 10
-9.415955
 20
38.693761
  0
VERTEX
  8
ordenamento_aeronautico
 10
-9.415954
 20
38.693786
  0
VERTEX
  8
ordenamento_aeronautico
 10
-9.415954
 20
38.693792
  0
VERTEX
  8
ordenamento_aeronautico
 10
-9.415952
 20
38.693812
  0
VERTEX
  8
ordenamento_aeronautico
 10
-9.415952
 20
38.693813
  0
VERTEX
  8
ordenamento_aeronautico
 10
-9.415949
 20
38.693838
  0
VERTEX
  8
ordenamento_aeronautico
 10
-9.415948
 20
38.693843
  0
VERTEX
  8
ordenamento_aeronautico
 10
-9.415944
 20
38.693871
  0
VERTEX
  8
ordenamento_aeronautico
 10
-9.415943
 20
38.693873
  0
VERTEX
  8
ordenamento_aeronautico
 10
-9.415939
 20
38.693896
  0
VERTEX
  8
ordenamento_aeronautico
 10
-9.415938
 20
38.693901
  0
VERTEX
  8
ordenamento_aeronautico
 10
-9.415934
 20
38.693917
  0
VERTEX
  8
ordenamento_aeronautico
 10
-9.415934
 20
38.693919
  0
VERTEX
  8
ordenamento_aeronautico
 10
-9.415922
 20
38.693960
  0
VERTEX
  8
ordenamento_aeronautico
 10
-9.415920
 20
38.693966
  0
VERTEX
  8
ordenamento_aeronautico
 10
-9.415905
 20
38.694009
  0
VERTEX
  8
ordenamento_aeronautico
 10
-9.415904
 20
38.694011
  0
VERTEX
  8
ordenamento_aeronautico
 10
-9.415904
 20
38.694011
  0
VERTEX
  8
ordenamento_aeronautico
 10
-9.415902
 20
38.694016
  0
VERTEX
  8
ordenamento_aeronautico
 10
-9.415902
 20
38.694018
  0
VERTEX
  8
ordenamento_aeronautico
 10
-9.415883
 20
38.694061
  0
VERTEX
  8
ordenamento_aeronautico
 10
-9.415881
 20
38.694066
  0
VERTEX
  8
ordenamento_aeronautico
 10
-9.415866
 20
38.694096
  0
VERTEX
  8
ordenamento_aeronautico
 10
-9.415864
 20
38.694098
  0
VERTEX
  8
ordenamento_aeronautico
 10
-9.415850
 20
38.694124
  0
VERTEX
  8
ordenamento_aeronautico
 10
-9.415848
 20
38.694129
  0
VERTEX
  8
ordenamento_aeronautico
 10
-9.415832
 20
38.694155
  0
VERTEX
  8
ordenamento_aeronautico
 10
-9.415831
 20
38.694156
  0
VERTEX
  8
ordenamento_aeronautico
 10
-9.415822
 20
38.694170
  0
VERTEX
  8
ordenamento_aeronautico
 10
-9.415818
 20
38.694175
  0
VERTEX
  8
ordenamento_aeronautico
 10
-9.415815
 20
38.694181
  0
VERTEX
  8
ordenamento_aeronautico
 10
-9.415814
 20
38.694182
  0
VERTEX
  8
ordenamento_aeronautico
 10
-9.415804
 20
38.694197
  0
VERTEX
  8
ordenamento_aeronautico
 10
-9.415803
 20
38.694197
  0
VERTEX
  8
ordenamento_aeronautico
 10
-9.415786
 20
38.694221
  0
VERTEX
  8
ordenamento_aeronautico
 10
-9.415782
 20
38.694226
  0
VERTEX
  8
ordenamento_aeronautico
 10
-9.415768
 20
38.694244
  0
VERTEX
  8
ordenamento_aeronautico
 10
-9.415766
 20
38.694246
  0
VERTEX
  8
ordenamento_aeronautico
 10
-9.415740
 20
38.694276
  0
VERTEX
  8
ordenamento_aeronautico
 10
-9.415736
 20
38.694280
  0
VERTEX
  8
ordenamento_aeronautico
 10
-9.415698
 20
38.694321
  0
VERTEX
  8
ordenamento_aeronautico
 10
-9.415696
 20
38.694322
  0
VERTEX
  8
ordenamento_aeronautico
 10
-9.415692
 20
38.694327
  0
VERTEX
  8
ordenamento_aeronautico
 10
-9.415667
 20
38.694349
  0
VERTEX
  8
ordenamento_aeronautico
 10
-9.415666
 20
38.694351
  0
VERTEX
  8
ordenamento_aeronautico
 10
-9.415656
 20
38.694360
  0
VERTEX
  8
ordenamento_aeronautico
 10
-9.415651
 20
38.694364
  0
VERTEX
  8
ordenamento_aeronautico
 10
-9.415646
 20
38.694368
  0
VERTEX
  8
ordenamento_aeronautico
 10
-9.415644
 20
38.694370
  0
VERTEX
  8
ordenamento_aeronautico
 10
-9.415605
 20
38.694402
  0
VERTEX
  8
ordenamento_aeronautico
 10
-9.415600
 20
38.694406
  0
VERTEX
  8
ordenamento_aeronautico
 10
-9.415566
 20
38.694431
  0
VERTEX
  8
ordenamento_aeronautico
 10
-9.415564
 20
38.694433
  0
VERTEX
  8
ordenamento_aeronautico
 10
-9.415544
 20
38.694447
  0
VERTEX
  8
ordenamento_aeronautico
 10
-9.415538
 20
38.694451
  0
VERTEX
  8
ordenamento_aeronautico
 10
-9.415515
 20
38.694466
  0
VERTEX
  8
ordenamento_aeronautico
 10
-9.415513
 20
38.694467
  0
VERTEX
  8
ordenamento_aeronautico
 10
-9.415486
 20
38.694484
  0
VERTEX
  8
ordenamento_aeronautico
 10
-9.415480
 20
38.694487
  0
VERTEX
  8
ordenamento_aeronautico
 10
-9.415445
 20
38.694507
  0
VERTEX
  8
ordenamento_aeronautico
 10
-9.415444
 20
38.694508
  0
VERTEX
  8
ordenamento_aeronautico
 10
-9.415432
 20
38.694514
  0
VERTEX
  8
ordenamento_aeronautico
 10
-9.415426
 20
38.694517
  0
VERTEX
  8
ordenamento_aeronautico
 10
-9.415396
 20
38.694532
  0
VERTEX
  8
ordenamento_aeronautico
 10
-9.415395
 20
38.694533
  0
VERTEX
  8
ordenamento_aeronautico
 10
-9.415394
 20
38.694533
  0
VERTEX
  8
ordenamento_aeronautico
 10
-9.415375
 20
38.694542
  0
VERTEX
  8
ordenamento_aeronautico
 10
-9.415370
 20
38.694545
  0
VERTEX
  8
ordenamento_aeronautico
 10
-9.415364
 20
38.694548
  0
VERTEX
  8
ordenamento_aeronautico
 10
-9.415334
 20
38.694561
  0
VERTEX
  8
ordenamento_aeronautico
 10
-9.415332
 20
38.694562
  0
VERTEX
  8
ordenamento_aeronautico
 10
-9.415304
 20
38.694573
  0
VERTEX
  8
ordenamento_aeronautico
 10
-9.415298
 20
38.694576
  0
VERTEX
  8
ordenamento_aeronautico
 10
-9.415289
 20
38.694579
  0
VERTEX
  8
ordenamento_aeronautico
 10
-9.415286
 20
38.694580
  0
VERTEX
  8
ordenamento_aeronautico
 10
-9.415224
 20
38.694602
  0
VERTEX
  8
ordenamento_aeronautico
 10
-9.415217
 20
38.694604
  0
VERTEX
  8
ordenamento_aeronautico
 10
-9.415173
 20
38.694618
  0
VERTEX
  8
ordenamento_aeronautico
 10
-9.415171
 20
38.694618
  0
VERTEX
  8
ordenamento_aeronautico
 10
-9.415163
 20
38.694621
  0
VERTEX
  8
ordenamento_aeronautico
 10
-9.415156
 20
38.694623
  0
VERTEX
  8
ordenamento_aeronautico
 10
-9.415115
 20
38.694633
  0
VERTEX
  8
ordenamento_aeronautico
 10
-9.415113
 20
38.694634
  0
VERTEX
  8
ordenamento_aeronautico
 10
-9.415093
 20
38.694638
  0
VERTEX
  8
ordenamento_aeronautico
 10
-9.415086
 20
38.694640
  0
VERTEX
  8
ordenamento_aeronautico
 10
-9.415049
 20
38.694647
  0
VERTEX
  8
ordenamento_aeronautico
 10
-9.415047
 20
38.694648
  0
VERTEX
  8
ordenamento_aeronautico
 10
-9.415030
 20
38.694651
  0
VERTEX
  8
ordenamento_aeronautico
 10
-9.415023
 20
38.694652
  0
VERTEX
  8
ordenamento_aeronautico
 10
-9.414990
 20
38.694658
  0
VERTEX
  8
ordenamento_aeronautico
 10
-9.414988
 20
38.694658
  0
VERTEX
  8
ordenamento_aeronautico
 10
-9.414954
 20
38.694663
  0
VERTEX
  8
ordenamento_aeronautico
 10
-9.414947
 20
38.694664
  0
VERTEX
  8
ordenamento_aeronautico
 10
-9.414915
 20
38.694667
  0
VERTEX
  8
ordenamento_aeronautico
 10
-9.414912
 20
38.694668
  0
VERTEX
  8
ordenamento_aeronautico
 10
-9.414861
 20
38.694672
  0
VERTEX
  8
ordenamento_aeronautico
 10
-9.414854
 20
38.694672
  0
VERTEX
  8
ordenamento_aeronautico
 10
-9.414850
 20
38.694672
  0
VERTEX
  8
ordenamento_aeronautico
 10
-9.414848
 20
38.694673
  0
VERTEX
  8
ordenamento_aeronautico
 10
-9.414802
 20
38.694674
  0
VERTEX
  8
ordenamento_aeronautico
 10
-9.414795
 20
38.694675
  0
VERTEX
  8
ordenamento_aeronautico
 10
-9.414778
 20
38.694675
  0
VERTEX
  8
ordenamento_aeronautico
 10
-9.414778
 20
38.694675
  0
VERTEX
  8
ordenamento_aeronautico
 10
-9.414776
 20
38.694675
  0
VERTEX
  8
ordenamento_aeronautico
 10
-9.414726
 20
38.694675
  0
VERTEX
  8
ordenamento_aeronautico
 10
-9.414719
 20
38.694674
  0
VERTEX
  8
ordenamento_aeronautico
 10
-9.414666
 20
38.694672
  0
VERTEX
  8
ordenamento_aeronautico
 10
-9.414659
 20
38.694671
  0
VERTEX
  8
ordenamento_aeronautico
 10
-9.414646
 20
38.694670
  0
VERTEX
  8
ordenamento_aeronautico
 10
-9.414642
 20
38.694670
  0
VERTEX
  8
ordenamento_aeronautico
 10
-9.414572
 20
38.694663
  0
VERTEX
  8
ordenamento_aeronautico
 10
-9.414565
 20
38.694662
  0
VERTEX
  8
ordenamento_aeronautico
 10
-9.414512
 20
38.694654
  0
VERTEX
  8
ordenamento_aeronautico
 10
-9.414505
 20
38.694653
  0
VERTEX
  8
ordenamento_aeronautico
 10
-9.414502
 20
38.694652
  0
VERTEX
  8
ordenamento_aeronautico
 10
-9.414470
 20
38.694646
  0
VERTEX
  8
ordenamento_aeronautico
 10
-9.414467
 20
38.694646
  0
VERTEX
  8
ordenamento_aeronautico
 10
-9.414436
 20
38.694639
  0
VERTEX
  8
ordenamento_aeronautico
 10
-9.414429
 20
38.694638
  0
VERTEX
  8
ordenamento_aeronautico
 10
-9.414396
 20
38.694630
  0
VERTEX
  8
ordenamento_aeronautico
 10
-9.414394
 20
38.694629
  0
VERTEX
  8
ordenamento_aeronautico
 10
-9.414362
 20
38.694621
  0
VERTEX
  8
ordenamento_aeronautico
 10
-9.414356
 20
38.694619
  0
VERTEX
  8
ordenamento_aeronautico
 10
-9.414332
 20
38.694612
  0
VERTEX
  8
ordenamento_aeronautico
 10
-9.414330
 20
38.694611
  0
VERTEX
  8
ordenamento_aeronautico
 10
-9.414301
 20
38.694602
  0
VERTEX
  8
ordenamento_aeronautico
 10
-9.414294
 20
38.694600
  0
VERTEX
  8
ordenamento_aeronautico
 10
-9.414273
 20
38.694593
  0
VERTEX
  8
ordenamento_aeronautico
 10
-9.414270
 20
38.694592
  0
VERTEX
  8
ordenamento_aeronautico
 10
-9.414226
 20
38.694575
  0
VERTEX
  8
ordenamento_aeronautico
 10
-9.414220
 20
38.694573
  0
VERTEX
  8
ordenamento_aeronautico
 10
-9.414183
 20
38.694557
  0
VERTEX
  8
ordenamento_aeronautico
 10
-9.414164
 20
38.694549
  0
VERTEX
  8
ordenamento_aeronautico
 10
-9.414162
 20
38.694548
  0
VERTEX
  8
ordenamento_aeronautico
 10
-9.414161
 20
38.694548
  0
VERTEX
  8
ordenamento_aeronautico
 10
-9.414149
 20
38.694542
  0
VERTEX
  8
ordenamento_aeronautico
 10
-9.414143
 20
38.694539
  0
VERTEX
  8
ordenamento_aeronautico
 10
-9.414105
 20
38.694520
  0
VERTEX
  8
ordenamento_aeronautico
 10
-9.414099
 20
38.694517
  0
VERTEX
  8
ordenamento_aeronautico
 10
-9.414048
 20
38.694489
  0
VERTEX
  8
ordenamento_aeronautico
 10
-9.414046
 20
38.694488
  0
VERTEX
  8
ordenamento_aeronautico
 10
-9.414033
 20
38.694480
  0
VERTEX
  8
ordenamento_aeronautico
 10
-9.414027
 20
38.694476
  0
VERTEX
  8
ordenamento_aeronautico
 10
-9.414012
 20
38.694467
  0
VERTEX
  8
ordenamento_aeronautico
 10
-9.414010
 20
38.694466
  0
VERTEX
  8
ordenamento_aeronautico
 10
-9.413985
 20
38.694449
  0
VERTEX
  8
ordenamento_aeronautico
 10
-9.413980
 20
38.694446
  0
VERTEX
  8
ordenamento_aeronautico
 10
-9.413957
 20
38.694429
  0
VERTEX
  8
ordenamento_aeronautico
 10
-9.413955
 20
38.694428
  0
VERTEX
  8
ordenamento_aeronautico
 10
-9.413931
 20
38.694410
  0
VERTEX
  8
ordenamento_aeronautico
 10
-9.413925
 20
38.694406
  0
VERTEX
  8
ordenamento_aeronautico
 10
-9.413900
 20
38.694386
  0
VERTEX
  8
ordenamento_aeronautico
 10
-9.413899
 20
38.694385
  0
VERTEX
  8
ordenamento_aeronautico
 10
-9.413879
 20
38.694368
  0
VERTEX
  8
ordenamento_aeronautico
 10
-9.413874
 20
38.694364
  0
VERTEX
  8
ordenamento_aeronautico
 10
-9.413853
 20
38.694345
  0
VERTEX
  8
ordenamento_aeronautico
 10
-9.413851
 20
38.694344
  0
VERTEX
  8
ordenamento_aeronautico
 10
-9.413818
 20
38.694311
  0
VERTEX
  8
ordenamento_aeronautico
 10
-9.413814
 20
38.694307
  0
VERTEX
  8
ordenamento_aeronautico
 10
-9.413791
 20
38.694283
  0
VERTEX
  8
ordenamento_aeronautico
 10
-9.413790
 20
38.694282
  0
VERTEX
  8
ordenamento_aeronautico
 10
-9.413787
 20
38.694278
  0
VERTEX
  8
ordenamento_aeronautico
 10
-9.413783
 20
38.694273
  0
VERTEX
  8
ordenamento_aeronautico
 10
-9.413758
 20
38.694245
  0
VERTEX
  8
ordenamento_aeronautico
 10
-9.413742
 20
38.694223
  0
VERTEX
  8
ordenamento_aeronautico
 10
-9.413741
 20
38.694222
  0
VERTEX
  8
ordenamento_aeronautico
 10
-9.413738
 20
38.694218
  0
VERTEX
  8
ordenamento_aeronautico
 10
-9.413737
 20
38.694217
  0
VERTEX
  8
ordenamento_aeronautico
 10
-9.413726
 20
38.694202
  0
VERTEX
  8
ordenamento_aeronautico
 10
-9.413724
 20
38.694201
  0
VERTEX
  8
ordenamento_aeronautico
 10
-9.413705
 20
38.694173
  0
VERTEX
  8
ordenamento_aeronautico
 10
-9.413702
 20
38.694168
  0
VERTEX
  8
ordenamento_aeronautico
 10
-9.413678
 20
38.694130
  0
VERTEX
  8
ordenamento_aeronautico
 10
-9.413677
 20
38.694128
  0
VERTEX
  8
ordenamento_aeronautico
 10
-9.413677
 20
38.694126
  0
VERTEX
  8
ordenamento_aeronautico
 10
-9.413674
 20
38.694121
  0
VERTEX
  8
ordenamento_aeronautico
 10
-9.413659
 20
38.694095
  0
VERTEX
  8
ordenamento_aeronautico
 10
-9.413658
 20
38.694093
  0
VERTEX
  8
ordenamento_aeronautico
 10
-9.413646
 20
38.694068
  0
VERTEX
  8
ordenamento_aeronautico
 10
-9.413643
 20
38.694063
  0
VERTEX
  8
ordenamento_aeronautico
 10
-9.413635
 20
38.694046
  0
VERTEX
  8
ordenamento_aeronautico
 10
-9.413634
 20
38.694044
  0
VERTEX
  8
ordenamento_aeronautico
 10
-9.413622
 20
38.694015
  0
VERTEX
  8
ordenamento_aeronautico
 10
-9.413620
 20
38.694009
  0
VERTEX
  8
ordenamento_aeronautico
 10
-9.413613
 20
38.693990
  0
VERTEX
  8
ordenamento_aeronautico
 10
-9.413612
 20
38.693988
  0
VERTEX
  8
ordenamento_aeronautico
 10
-9.413601
 20
38.693954
  0
VERTEX
  8
ordenamento_aeronautico
 10
-9.413600
 20
38.693948
  0
VERTEX
  8
ordenamento_aeronautico
 10
-9.413593
 20
38.693923
  0
VERTEX
  8
ordenamento_aeronautico
 10
-9.413592
 20
38.693921
  0
VERTEX
  8
ordenamento_aeronautico
 10
-9.413589
 20
38.693905
  0
VERTEX
  8
ordenamento_aeronautico
 10
-9.413587
 20
38.693899
  0
VERTEX
  8
ordenamento_aeronautico
 10
-9.413580
 20
38.693860
  0
VERTEX
  8
ordenamento_aeronautico
 10
-9.413579
 20
38.693858
  0
VERTEX
  8
ordenamento_aeronautico
 10
-9.413577
 20
38.693843
  0
VERTEX
  8
ordenamento_aeronautico
 10
-9.413576
 20
38.693837
  0
VERTEX
  8
ordenamento_aeronautico
 10
-9.413574
 20
38.693820
  0
VERTEX
  8
ordenamento_aeronautico
 10
-9.413574
 20
38.693818
  0
VERTEX
  8
ordenamento_aeronautico
 10
-9.413571
 20
38.693781
  0
VERTEX
  8
ordenamento_aeronautico
 10
-9.413571
 20
38.693776
  0
VERTEX
  8
ordenamento_aeronautico
 10
-9.413570
 20
38.693754
  0
SEQEND
  0
POLYLINE
  8
ordenamento_aeronautico
  6
BYLAYER
 66
1
 70
1
 40
0.000000
 41
0.000000
  0
VERTEX
  8
ordenamento_aeronautico
 10
-9.355839
 20
38.730616
  0
VERTEX
  8
ordenamento_aeronautico
 10
-9.355839
 20
38.730615
  0
VERTEX
  8
ordenamento_aeronautico
 10
-9.355838
 20
38.730606
  0
VERTEX
  8
ordenamento_aeronautico
 10
-9.355799
 20
38.730310
  0
VERTEX
  8
ordenamento_aeronautico
 10
-9.355757
 20
38.730007
  0
VERTEX
  8
ordenamento_aeronautico
 10
-9.355722
 20
38.729731
  0
VERTEX
  8
ordenamento_aeronautico
 10
-9.355601
 20
38.728999
  0
VERTEX
  8
ordenamento_aeronautico
 10
-9.355591
 20
38.728903
  0
VERTEX
  8
ordenamento_aeronautico
 10
-9.355583
 20
38.728843
  0
VERTEX
  8
ordenamento_aeronautico
 10
-9.355572
 20
38.728744
  0
VERTEX
  8
ordenamento_aeronautico
 10
-9.355565
 20
38.728693
  0
VERTEX
  8
ordenamento_aeronautico
 10
-9.355557
 20
38.728652
  0
VERTEX
  8
ordenamento_aeronautico
 10
-9.355561
 20
38.728644
  0
VERTEX
  8
ordenamento_aeronautico
 10
-9.355560
 20
38.728635
  0
VERTEX
  8
ordenamento_aeronautico
 10
-9.355557
 20
38.728607
  0
VERTEX
  8
ordenamento_aeronautico
 10
-9.355549
 20
38.728557
  0
VERTEX
  8
ordenamento_aeronautico
 10
-9.355544
 20
38.728516
  0
VERTEX
  8
ordenamento_aeronautico
 10
-9.355538
 20
38.728484
  0
VERTEX
  8
ordenamento_aeronautico
 10
-9.355527
 20
38.728432
  0
VERTEX
  8
ordenamento_aeronautico
 10
-9.355519
 20
38.728398
  0
VERTEX
  8
ordenamento_aeronautico
 10
-9.355507
 20
38.728353
  0
VERTEX
  8
ordenamento_aeronautico
 10
-9.355479
 20
38.728273
  0
VERTEX
  8
ordenamento_aeronautico
 10
-9.355459
 20
38.728220
  0
VERTEX
  8
ordenamento_aeronautico
 10
-9.355422
 20
38.728133
  0
VERTEX
  8
ordenamento_aeronautico
 10
-9.355384
 20
38.728053
  0
VERTEX
  8
ordenamento_aeronautico
 10
-9.355221
 20
38.727746
  0
VERTEX
  8
ordenamento_aeronautico
 10
-9.355448
 20
38.727582
  0
VERTEX
  8
ordenamento_aeronautico
 10
-9.355432
 20
38.727491
  0
VERTEX
  8
ordenamento_aeronautico
 10
-9.355183
 20
38.727258
  0
VERTEX
  8
ordenamento_aeronautico
 10
-9.354952
 20
38.727289
  0
VERTEX
  8
ordenamento_aeronautico
 10
-9.354724
 20
38.726886
  0
VERTEX
  8
ordenamento_aeronautico
 10
-9.354681
 20
38.726828
  0
VERTEX
  8
ordenamento_aeronautico
 10
-9.354539
 20
38.726655
  0
VERTEX
  8
ordenamento_aeronautico
 10
-9.354450
 20
38.726555
  0
VERTEX
  8
ordenamento_aeronautico
 10
-9.354275
 20
38.726355
  0
VERTEX
  8
ordenamento_aeronautico
 10
-9.354214
 20
38.726286
  0
VERTEX
  8
ordenamento_aeronautico
 10
-9.354159
 20
38.726212
  0
VERTEX
  8
ordenamento_aeronautico
 10
-9.354022
 20
38.726072
  0
VERTEX
  8
ordenamento_aeronautico
 10
-9.353815
 20
38.725860
  0
VERTEX
  8
ordenamento_aeronautico
 10
-9.352934
 20
38.724904
  0
VERTEX
  8
ordenamento_aeronautico
 10
-9.352443
 20
38.724372
  0
VERTEX
  8
ordenamento_aeronautico
 10
-9.352281
 20
38.724198
  0
VERTEX
  8
ordenamento_aeronautico
 10
-9.351725
 20
38.723566
  0
VERTEX
  8
ordenamento_aeronautico
 10
-9.352658
 20
38.723051
  0
VERTEX
  8
ordenamento_aeronautico
 10
-9.353412
 20
38.722840
  0
VERTEX
  8
ordenamento_aeronautico
 10
-9.353348
 20
38.722613
  0
VERTEX
  8
ordenamento_aeronautico
 10
-9.353194
 20
38.722103
  0
VERTEX
  8
ordenamento_aeronautico
 10
-9.352943
 20
38.721417
  0
VERTEX
  8
ordenamento_aeronautico
 10
-9.352889
 20
38.721241
  0
VERTEX
  8
ordenamento_aeronautico
 10
-9.352760
 20
38.720802
  0
VERTEX
  8
ordenamento_aeronautico
 10
-9.352605
 20
38.720295
  0
VERTEX
  8
ordenamento_aeronautico
 10
-9.352493
 20
38.719928
  0
VERTEX
  8
ordenamento_aeronautico
 10
-9.352372
 20
38.719548
  0
VERTEX
  8
ordenamento_aeronautico
 10
-9.352403
 20
38.719520
  0
VERTEX
  8
ordenamento_aeronautico
 10
-9.352306
 20
38.719341
  0
VERTEX
  8
ordenamento_aeronautico
 10
-9.352227
 20
38.719223
  0
VERTEX
  8
ordenamento_aeronautico
 10
-9.352176
 20
38.719113
  0
VERTEX
  8
ordenamento_aeronautico
 10
-9.352152
 20
38.719034
  0
VERTEX
  8
ordenamento_aeronautico
 10
-9.352131
 20
38.718979
  0
VERTEX
  8
ordenamento_aeronautico
 10
-9.352112
 20
38.718965
  0
VERTEX
  8
ordenamento_aeronautico
 10
-9.352008
 20
38.718588
  0
VERTEX
  8
ordenamento_aeronautico
 10
-9.351904
 20
38.718210
  0
VERTEX
  8
ordenamento_aeronautico
 10
-9.351861
 20
38.718040
  0
VERTEX
  8
ordenamento_aeronautico
 10
-9.351836
 20
38.717964
  0
VERTEX
  8
ordenamento_aeronautico
 10
-9.351794
 20
38.717893
  0
VERTEX
  8
ordenamento_aeronautico
 10
-9.351739
 20
38.717838
  0
VERTEX
  8
ordenamento_aeronautico
 10
-9.351661
 20
38.717786
  0
VERTEX
  8
ordenamento_aeronautico
 10
-9.351616
 20
38.717764
  0
VERTEX
  8
ordenamento_aeronautico
 10
-9.351623
 20
38.717717
  0
VERTEX
  8
ordenamento_aeronautico
 10
-9.351756
 20
38.717705
  0
VERTEX
  8
ordenamento_aeronautico
 10
-9.351786
 20
38.717704
  0
VERTEX
  8
ordenamento_aeronautico
 10
-9.351856
 20
38.717698
  0
VERTEX
  8
ordenamento_aeronautico
 10
-9.351921
 20
38.717690
  0
VERTEX
  8
ordenamento_aeronautico
 10
-9.352110
 20
38.717689
  0
VERTEX
  8
ordenamento_aeronautico
 10
-9.352327
 20
38.717657
  0
VERTEX
  8
ordenamento_aeronautico
 10
-9.352408
 20
38.717639
  0
VERTEX
  8
ordenamento_aeronautico
 10
-9.352503
 20
38.717619
  0
VERTEX
  8
ordenamento_aeronautico
 10
-9.352532
 20
38.717611
  0
VERTEX
  8
ordenamento_aeronautico
 10
-9.352624
 20
38.717578
  0
VERTEX
  8
ordenamento_aeronautico
 10
-9.352756
 20
38.717529
  0
VERTEX
  8
ordenamento_aeronautico
 10
-9.352875
 20
38.717484
  0
VERTEX
  8
ordenamento_aeronautico
 10
-9.352879
 20
38.717521
  0
VERTEX
  8
ordenamento_aeronautico
 10
-9.352964
 20
38.717715
  0
VERTEX
  8
ordenamento_aeronautico
 10
-9.353026
 20
38.717848
  0
VERTEX
  8
ordenamento_aeronautico
 10
-9.353106
 20
38.718017
  0
VERTEX
  8
ordenamento_aeronautico
 10
-9.353158
 20
38.718125
  0
VERTEX
  8
ordenamento_aeronautico
 10
-9.353255
 20
38.718457
  0
VERTEX
  8
ordenamento_aeronautico
 10
-9.353267
 20
38.718493
  0
VERTEX
  8
ordenamento_aeronautico
 10
-9.353307
 20
38.718597
  0
VERTEX
  8
ordenamento_aeronautico
 10
-9.353357
 20
38.718707
  0
VERTEX
  8
ordenamento_aeronautico
 10
-9.353493
 20
38.718938
  0
VERTEX
  8
ordenamento_aeronautico
 10
-9.353541
 20
38.719004
  0
VERTEX
  8
ordenamento_aeronautico
 10
-9.353800
 20
38.719290
  0
VERTEX
  8
ordenamento_aeronautico
 10
-9.353782
 20
38.719485
  0
VERTEX
  8
ordenamento_aeronautico
 10
-9.353694
 20
38.719729
  0
VERTEX
  8
ordenamento_aeronautico
 10
-9.353838
 20
38.720111
  0
VERTEX
  8
ordenamento_aeronautico
 10
-9.353877
 20
38.720161
  0
VERTEX
  8
ordenamento_aeronautico
 10
-9.354324
 20
38.721384
  0
VERTEX
  8
ordenamento_aeronautico
 10
-9.354480
 20
38.721877
  0
VERTEX
  8
ordenamento_aeronautico
 10
-9.354546
 20
38.721863
  0
VERTEX
  8
ordenamento_aeronautico
 10
-9.354568
 20
38.721817
  0
VERTEX
  8
ordenamento_aeronautico
 10
-9.356320
 20
38.721421
  0
VERTEX
  8
ordenamento_aeronautico
 10
-9.356499
 20
38.721277
  0
VERTEX
  8
ordenamento_aeronautico
 10
-9.356593
 20
38.721233
  0
VERTEX
  8
ordenamento_aeronautico
 10
-9.356591
 20
38.721045
  0
VERTEX
  8
ordenamento_aeronautico
 10
-9.358596
 20
38.721018
  0
VERTEX
  8
ordenamento_aeronautico
 10
-9.358606
 20
38.721324
  0
VERTEX
  8
ordenamento_aeronautico
 10
-9.358445
 20
38.721771
  0
VERTEX
  8
ordenamento_aeronautico
 10
-9.358460
 20
38.722442
  0
VERTEX
  8
ordenamento_aeronautico
 10
-9.358469
 20
38.723034
  0
VERTEX
  8
ordenamento_aeronautico
 10
-9.358698
 20
38.723319
  0
VERTEX
  8
ordenamento_aeronautico
 10
-9.358923
 20
38.723293
  0
VERTEX
  8
ordenamento_aeronautico
 10
-9.359197
 20
38.723805
  0
VERTEX
  8
ordenamento_aeronautico
 10
-9.359338
 20
38.724130
  0
VERTEX
  8
ordenamento_aeronautico
 10
-9.359347
 20
38.724155
  0
VERTEX
  8
ordenamento_aeronautico
 10
-9.359336
 20
38.724164
  0
VERTEX
  8
ordenamento_aeronautico
 10
-9.359275
 20
38.724194
  0
VERTEX
  8
ordenamento_aeronautico
 10
-9.359258
 20
38.724202
  0
VERTEX
  8
ordenamento_aeronautico
 10
-9.359582
 20
38.724756
  0
VERTEX
  8
ordenamento_aeronautico
 10
-9.358927
 20
38.724928
  0
VERTEX
  8
ordenamento_aeronautico
 10
-9.359004
 20
38.725077
  0
VERTEX
  8
ordenamento_aeronautico
 10
-9.358764
 20
38.725125
  0
VERTEX
  8
ordenamento_aeronautico
 10
-9.359015
 20
38.725603
  0
VERTEX
  8
ordenamento_aeronautico
 10
-9.358462
 20
38.725735
  0
VERTEX
  8
ordenamento_aeronautico
 10
-9.358589
 20
38.726163
  0
VERTEX
  8
ordenamento_aeronautico
 10
-9.357754
 20
38.726329
  0
VERTEX
  8
ordenamento_aeronautico
 10
-9.357597
 20
38.726365
  0
VERTEX
  8
ordenamento_aeronautico
 10
-9.357467
 20
38.726395
  0
VERTEX
  8
ordenamento_aeronautico
 10
-9.357208
 20
38.726443
  0
VERTEX
  8
ordenamento_aeronautico
 10
-9.357206
 20
38.726450
  0
VERTEX
  8
ordenamento_aeronautico
 10
-9.357027
 20
38.726475
  0
VERTEX
  8
ordenamento_aeronautico
 10
-9.356890
 20
38.726925
  0
VERTEX
  8
ordenamento_aeronautico
 10
-9.356821
 20
38.727360
  0
VERTEX
  8
ordenamento_aeronautico
 10
-9.356822
 20
38.727389
  0
VERTEX
  8
ordenamento_aeronautico
 10
-9.356831
 20
38.727420
  0
VERTEX
  8
ordenamento_aeronautico
 10
-9.356853
 20
38.727442
  0
VERTEX
  8
ordenamento_aeronautico
 10
-9.356964
 20
38.727484
  0
VERTEX
  8
ordenamento_aeronautico
 10
-9.357058
 20
38.727717
  0
VERTEX
  8
ordenamento_aeronautico
 10
-9.357009
 20
38.727840
  0
VERTEX
  8
ordenamento_aeronautico
 10
-9.356997
 20
38.727896
  0
VERTEX
  8
ordenamento_aeronautico
 10
-9.356995
 20
38.727921
  0
VERTEX
  8
ordenamento_aeronautico
 10
-9.357128
 20
38.728232
  0
VERTEX
  8
ordenamento_aeronautico
 10
-9.357556
 20
38.728487
  0
VERTEX
  8
ordenamento_aeronautico
 10
-9.358124
 20
38.730897
  0
VERTEX
  8
ordenamento_aeronautico
 10
-9.358157
 20
38.731044
  0
VERTEX
  8
ordenamento_aeronautico
 10
-9.358183
 20
38.731190
  0
VERTEX
  8
ordenamento_aeronautico
 10
-9.358160
 20
38.731193
  0
VERTEX
  8
ordenamento_aeronautico
 10
-9.358429
 20
38.731913
  0
VERTEX
  8
ordenamento_aeronautico
 10
-9.358482
 20
38.731904
  0
VERTEX
  8
ordenamento_aeronautico
 10
-9.358679
 20
38.732256
  0
VERTEX
  8
ordenamento_aeronautico
 10
-9.359159
 20
38.732214
  0
VERTEX
  8
ordenamento_aeronautico
 10
-9.359215
 20
38.732255
  0
VERTEX
  8
ordenamento_aeronautico
 10
-9.359086
 20
38.732363
  0
VERTEX
  8
ordenamento_aeronautico
 10
-9.358909
 20
38.732477
  0
VERTEX
  8
ordenamento_aeronautico
 10
-9.358864
 20
38.732482
  0
VERTEX
  8
ordenamento_aeronautico
 10
-9.358798
 20
38.732516
  0
VERTEX
  8
ordenamento_aeronautico
 10
-9.358765
 20
38.732552
  0
VERTEX
  8
ordenamento_aeronautico
 10
-9.358572
 20
38.732630
  0
VERTEX
  8
ordenamento_aeronautico
 10
-9.358425
 20
38.732679
  0
VERTEX
  8
ordenamento_aeronautico
 10
-9.358349
 20
38.732696
  0
VERTEX
  8
ordenamento_aeronautico
 10
-9.358198
 20
38.732721
  0
VERTEX
  8
ordenamento_aeronautico
 10
-9.358065
 20
38.732738
  0
VERTEX
  8
ordenamento_aeronautico
 10
-9.357965
 20
38.732746
  0
VERTEX
  8
ordenamento_aeronautico
 10
-9.357834
 20
38.732751
  0
VERTEX
  8
ordenamento_aeronautico
 10
-9.357718
 20
38.732754
  0
VERTEX
  8
ordenamento_aeronautico
 10
-9.357622
 20
38.732744
  0
VERTEX
  8
ordenamento_aeronautico
 10
-9.357376
 20
38.732710
  0
VERTEX
  8
ordenamento_aeronautico
 10
-9.357105
 20
38.732644
  0
VERTEX
  8
ordenamento_aeronautico
 10
-9.356788
 20
38.732508
  0
VERTEX
  8
ordenamento_aeronautico
 10
-9.356706
 20
38.732462
  0
VERTEX
  8
ordenamento_aeronautico
 10
-9.356637
 20
38.732420
  0
VERTEX
  8
ordenamento_aeronautico
 10
-9.356544
 20
38.732354
  0
VERTEX
  8
ordenamento_aeronautico
 10
-9.356450
 20
38.732277
  0
VERTEX
  8
ordenamento_aeronautico
 10
-9.356372
 20
38.732206
  0
VERTEX
  8
ordenamento_aeronautico
 10
-9.356294
 20
38.732122
  0
VERTEX
  8
ordenamento_aeronautico
 10
-9.356240
 20
38.732060
  0
VERTEX
  8
ordenamento_aeronautico
 10
-9.356190
 20
38.731991
  0
VERTEX
  8
ordenamento_aeronautico
 10
-9.356147
 20
38.731926
  0
VERTEX
  8
ordenamento_aeronautico
 10
-9.356113
 20
38.731868
  0
VERTEX
  8
ordenamento_aeronautico
 10
-9.356077
 20
38.731797
  0
VERTEX
  8
ordenamento_aeronautico
 10
-9.356072
 20
38.731785
  0
VERTEX
  8
ordenamento_aeronautico
 10
-9.356072
 20
38.731785
  0
VERTEX
  8
ordenamento_aeronautico
 10
-9.356048
 20
38.731735
  0
VERTEX
  8
ordenamento_aeronautico
 10
-9.356014
 20
38.731647
  0
VERTEX
  8
ordenamento_aeronautico
 10
-9.355985
 20
38.731552
  0
VERTEX
  8
ordenamento_aeronautico
 10
-9.355958
 20
38.731451
  0
VERTEX
  8
ordenamento_aeronautico
 10
-9.355945
 20
38.731380
  0
VERTEX
  8
ordenamento_aeronautico
 10
-9.355927
 20
38.731265
  0
VERTEX
  8
ordenamento_aeronautico
 10
-9.355905
 20
38.731111
  0
VERTEX
  8
ordenamento_aeronautico
 10
-9.355876
 20
38.730902
  0
VERTEX
  8
ordenamento_aeronautico
 10
-9.355839
 20
38.730616
  0
SEQEND
  0
POLYLINE
  8
ordenamento_aeronautico
  6
BYLAYER
 66
1
 70
1
 40
0.000000
 41
0.000000
  0
VERTEX
  8
ordenamento_aeronautico
 10
-9.357523
 20
38.733975
  0
VERTEX
  8
ordenamento_aeronautico
 10
-9.356711
 20
38.734156
  0
VERTEX
  8
ordenamento_aeronautico
 10
-9.355108
 20
38.729778
  0
VERTEX
  8
ordenamento_aeronautico
 10
-9.355674
 20
38.729644
  0
VERTEX
  8
ordenamento_aeronautico
 10
-9.355581
 20
38.728993
  0
VERTEX
  8
ordenamento_aeronautico
 10
-9.355526
 20
38.728521
  0
VERTEX
  8
ordenamento_aeronautico
 10
-9.355470
 20
38.728319
  0
VERTEX
  8
ordenamento_aeronautico
 10
-9.355367
 20
38.728097
  0
VERTEX
  8
ordenamento_aeronautico
 10
-9.355046
 20
38.727489
  0
VERTEX
  8
ordenamento_aeronautico
 10
-9.354697
 20
38.726898
  0
VERTEX
  8
ordenamento_aeronautico
 10
-9.354353
 20
38.726483
  0
VERTEX
  8
ordenamento_aeronautico
 10
-9.351693
 20
38.723584
  0
VERTEX
  8
ordenamento_aeronautico
 10
-9.352069
 20
38.723378
  0
VERTEX
  8
ordenamento_aeronautico
 10
-9.352662
 20
38.723050
  0
VERTEX
  8
ordenamento_aeronautico
 10
-9.352872
 20
38.722988
  0
VERTEX
  8
ordenamento_aeronautico
 10
-9.353418
 20
38.722840
  0
VERTEX
  8
ordenamento_aeronautico
 10
-9.353256
 20
38.722302
  0
VERTEX
  8
ordenamento_aeronautico
 10
-9.353233
 20
38.722209
  0
VERTEX
  8
ordenamento_aeronautico
 10
-9.353188
 20
38.722077
  0
VERTEX
  8
ordenamento_aeronautico
 10
-9.353020
 20
38.721630
  0
VERTEX
  8
ordenamento_aeronautico
 10
-9.352943
 20
38.721394
  0
VERTEX
  8
ordenamento_aeronautico
 10
-9.352315
 20
38.719671
  0
VERTEX
  8
ordenamento_aeronautico
 10
-9.351688
 20
38.717948
  0
VERTEX
  8
ordenamento_aeronautico
 10
-9.351816
 20
38.717919
  0
VERTEX
  8
ordenamento_aeronautico
 10
-9.351734
 20
38.717694
  0
VERTEX
  8
ordenamento_aeronautico
 10
-9.351860
 20
38.717684
  0
VERTEX
  8
ordenamento_aeronautico
 10
-9.352088
 20
38.717648
  0
VERTEX
  8
ordenamento_aeronautico
 10
-9.351526
 20
38.717069
  0
VERTEX
  8
ordenamento_aeronautico
 10
-9.351752
 20
38.716870
  0
VERTEX
  8
ordenamento_aeronautico
 10
-9.351547
 20
38.716649
  0
VERTEX
  8
ordenamento_aeronautico
 10
-9.351882
 20
38.716357
  0
VERTEX
  8
ordenamento_aeronautico
 10
-9.351554
 20
38.715924
  0
VERTEX
  8
ordenamento_aeronautico
 10
-9.351444
 20
38.714898
  0
VERTEX
  8
ordenamento_aeronautico
 10
-9.351445
 20
38.714724
  0
VERTEX
  8
ordenamento_aeronautico
 10
-9.351307
 20
38.714585
  0
VERTEX
  8
ordenamento_aeronautico
 10
-9.351605
 20
38.714486
  0
VERTEX
  8
ordenamento_aeronautico
 10
-9.351914
 20
38.715350
  0
VERTEX
  8
ordenamento_aeronautico
 10
-9.351863
 20
38.715385
  0
VERTEX
  8
ordenamento_aeronautico
 10
-9.351906
 20
38.715496
  0
VERTEX
  8
ordenamento_aeronautico
 10
-9.352054
 20
38.715461
  0
VERTEX
  8
ordenamento_aeronautico
 10
-9.352403
 20
38.716454
  0
VERTEX
  8
ordenamento_aeronautico
 10
-9.352941
 20
38.716420
  0
VERTEX
  8
ordenamento_aeronautico
 10
-9.353104
 20
38.716294
  0
VERTEX
  8
ordenamento_aeronautico
 10
-9.354352
 20
38.716211
  0
VERTEX
  8
ordenamento_aeronautico
 10
-9.354368
 20
38.716255
  0
VERTEX
  8
ordenamento_aeronautico
 10
-9.354689
 20
38.716282
  0
VERTEX
  8
ordenamento_aeronautico
 10
-9.354697
 20
38.716280
  0
VERTEX
  8
ordenamento_aeronautico
 10
-9.354706
 20
38.716277
  0
VERTEX
  8
ordenamento_aeronautico
 10
-9.354714
 20
38.716275
  0
VERTEX
  8
ordenamento_aeronautico
 10
-9.354722
 20
38.716273
  0
VERTEX
  8
ordenamento_aeronautico
 10
-9.354731
 20
38.716271
  0
VERTEX
  8
ordenamento_aeronautico
 10
-9.354739
 20
38.716269
  0
VERTEX
  8
ordenamento_aeronautico
 10
-9.354747
 20
38.716267
  0
VERTEX
  8
ordenamento_aeronautico
 10
-9.354756
 20
38.716266
  0
VERTEX
  8
ordenamento_aeronautico
 10
-9.354764
 20
38.716264
  0
VERTEX
  8
ordenamento_aeronautico
 10
-9.354773
 20
38.716263
  0
VERTEX
  8
ordenamento_aeronautico
 10
-9.354781
 20
38.716261
  0
VERTEX
  8
ordenamento_aeronautico
 10
-9.354790
 20
38.716260
  0
VERTEX
  8
ordenamento_aeronautico
 10
-9.354799
 20
38.716259
  0
VERTEX
  8
ordenamento_aeronautico
 10
-9.354807
 20
38.716257
  0
VERTEX
  8
ordenamento_aeronautico
 10
-9.354816
 20
38.716256
  0
VERTEX
  8
ordenamento_aeronautico
 10
-9.354824
 20
38.716255
  0
VERTEX
  8
ordenamento_aeronautico
 10
-9.354833
 20
38.716254
  0
VERTEX
  8
ordenamento_aeronautico
 10
-9.354842
 20
38.716254
  0
VERTEX
  8
ordenamento_aeronautico
 10
-9.354850
 20
38.716253
  0
VERTEX
  8
ordenamento_aeronautico
 10
-9.354859
 20
38.716253
  0
VERTEX
  8
ordenamento_aeronautico
 10
-9.354868
 20
38.716252
  0
VERTEX
  8
ordenamento_aeronautico
 10
-9.354877
 20
38.716252
  0
VERTEX
  8
ordenamento_aeronautico
 10
-9.354885
 20
38.716252
  0
VERTEX
  8
ordenamento_aeronautico
 10
-9.354894
 20
38.716251
  0
VERTEX
  8
ordenamento_aeronautico
 10
-9.354903
 20
38.716251
  0
VERTEX
  8
ordenamento_aeronautico
 10
-9.354912
 20
38.716251
  0
VERTEX
  8
ordenamento_aeronautico
 10
-9.354920
 20
38.716251
  0
VERTEX
  8
ordenamento_aeronautico
 10
-9.354929
 20
38.716252
  0
VERTEX
  8
ordenamento_aeronautico
 10
-9.354938
 20
38.716252
  0
VERTEX
  8
ordenamento_aeronautico
 10
-9.354960
 20
38.716251
  0
VERTEX
  8
ordenamento_aeronautico
 10
-9.354981
 20
38.716249
  0
VERTEX
  8
ordenamento_aeronautico
 10
-9.355003
 20
38.716248
  0
VERTEX
  8
ordenamento_aeronautico
 10
-9.355025
 20
38.716246
  0
VERTEX
  8
ordenamento_aeronautico
 10
-9.355047
 20
38.716245
  0
VERTEX
  8
ordenamento_aeronautico
 10
-9.355069
 20
38.716243
  0
VERTEX
  8
ordenamento_aeronautico
 10
-9.355090
 20
38.716241
  0
VERTEX
  8
ordenamento_aeronautico
 10
-9.355112
 20
38.716239
  0
VERTEX
  8
ordenamento_aeronautico
 10
-9.355134
 20
38.716237
  0
VERTEX
  8
ordenamento_aeronautico
 10
-9.355156
 20
38.716235
  0
VERTEX
  8
ordenamento_aeronautico
 10
-9.355178
 20
38.716233
  0
VERTEX
  8
ordenamento_aeronautico
 10
-9.355199
 20
38.716231
  0
VERTEX
  8
ordenamento_aeronautico
 10
-9.355221
 20
38.716229
  0
VERTEX
  8
ordenamento_aeronautico
 10
-9.355243
 20
38.716227
  0
VERTEX
  8
ordenamento_aeronautico
 10
-9.355264
 20
38.716224
  0
VERTEX
  8
ordenamento_aeronautico
 10
-9.355286
 20
38.716222
  0
VERTEX
  8
ordenamento_aeronautico
 10
-9.355308
 20
38.716219
  0
VERTEX
  8
ordenamento_aeronautico
 10
-9.355329
 20
38.716216
  0
VERTEX
  8
ordenamento_aeronautico
 10
-9.355351
 20
38.716214
  0
VERTEX
  8
ordenamento_aeronautico
 10
-9.355372
 20
38.716211
  0
VERTEX
  8
ordenamento_aeronautico
 10
-9.355394
 20
38.716208
  0
VERTEX
  8
ordenamento_aeronautico
 10
-9.355416
 20
38.716205
  0
VERTEX
  8
ordenamento_aeronautico
 10
-9.355437
 20
38.716202
  0
VERTEX
  8
ordenamento_aeronautico
 10
-9.355459
 20
38.716199
  0
VERTEX
  8
ordenamento_aeronautico
 10
-9.355480
 20
38.716196
  0
VERTEX
  8
ordenamento_aeronautico
 10
-9.355502
 20
38.716192
  0
VERTEX
  8
ordenamento_aeronautico
 10
-9.355523
 20
38.716189
  0
VERTEX
  8
ordenamento_aeronautico
 10
-9.355545
 20
38.716186
  0
VERTEX
  8
ordenamento_aeronautico
 10
-9.355566
 20
38.716182
  0
VERTEX
  8
ordenamento_aeronautico
 10
-9.355578
 20
38.716177
  0
VERTEX
  8
ordenamento_aeronautico
 10
-9.355590
 20
38.716171
  0
VERTEX
  8
ordenamento_aeronautico
 10
-9.355602
 20
38.716166
  0
VERTEX
  8
ordenamento_aeronautico
 10
-9.355615
 20
38.716161
  0
VERTEX
  8
ordenamento_aeronautico
 10
-9.355627
 20
38.716156
  0
VERTEX
  8
ordenamento_aeronautico
 10
-9.355639
 20
38.716151
  0
VERTEX
  8
ordenamento_aeronautico
 10
-9.355652
 20
38.716147
  0
VERTEX
  8
ordenamento_aeronautico
 10
-9.355665
 20
38.716142
  0
VERTEX
  8
ordenamento_aeronautico
 10
-9.355678
 20
38.716138
  0
VERTEX
  8
ordenamento_aeronautico
 10
-9.355690
 20
38.716134
  0
VERTEX
  8
ordenamento_aeronautico
 10
-9.355703
 20
38.716130
  0
VERTEX
  8
ordenamento_aeronautico
 10
-9.355716
 20
38.716126
  0
VERTEX
  8
ordenamento_aeronautico
 10
-9.355729
 20
38.716123
  0
VERTEX
  8
ordenamento_aeronautico
 10
-9.355743
 20
38.716119
  0
VERTEX
  8
ordenamento_aeronautico
 10
-9.355756
 20
38.716116
  0
VERTEX
  8
ordenamento_aeronautico
 10
-9.355769
 20
38.716113
  0
VERTEX
  8
ordenamento_aeronautico
 10
-9.355783
 20
38.716110
  0
VERTEX
  8
ordenamento_aeronautico
 10
-9.355796
 20
38.716108
  0
VERTEX
  8
ordenamento_aeronautico
 10
-9.355810
 20
38.716105
  0
VERTEX
  8
ordenamento_aeronautico
 10
-9.355823
 20
38.716103
  0
VERTEX
  8
ordenamento_aeronautico
 10
-9.355837
 20
38.716101
  0
VERTEX
  8
ordenamento_aeronautico
 10
-9.355851
 20
38.716099
  0
VERTEX
  8
ordenamento_aeronautico
 10
-9.355864
 20
38.716097
  0
VERTEX
  8
ordenamento_aeronautico
 10
-9.355878
 20
38.716095
  0
VERTEX
  8
ordenamento_aeronautico
 10
-9.355892
 20
38.716094
  0
VERTEX
  8
ordenamento_aeronautico
 10
-9.355906
 20
38.716093
  0
VERTEX
  8
ordenamento_aeronautico
 10
-9.355919
 20
38.716092
  0
VERTEX
  8
ordenamento_aeronautico
 10
-9.355933
 20
38.716091
  0
VERTEX
  8
ordenamento_aeronautico
 10
-9.355947
 20
38.716091
  0
VERTEX
  8
ordenamento_aeronautico
 10
-9.355954
 20
38.716089
  0
VERTEX
  8
ordenamento_aeronautico
 10
-9.355960
 20
38.716088
  0
VERTEX
  8
ordenamento_aeronautico
 10
-9.355967
 20
38.716087
  0
VERTEX
  8
ordenamento_aeronautico
 10
-9.355973
 20
38.716085
  0
VERTEX
  8
ordenamento_aeronautico
 10
-9.355980
 20
38.716084
  0
VERTEX
  8
ordenamento_aeronautico
 10
-9.355987
 20
38.716083
  0
VERTEX
  8
ordenamento_aeronautico
 10
-9.355993
 20
38.716081
  0
VERTEX
  8
ordenamento_aeronautico
 10
-9.356000
 20
38.716080
  0
VERTEX
  8
ordenamento_aeronautico
 10
-9.356006
 20
38.716079
  0
VERTEX
  8
ordenamento_aeronautico
 10
-9.356013
 20
38.716077
  0
VERTEX
  8
ordenamento_aeronautico
 10
-9.356019
 20
38.716076
  0
VERTEX
  8
ordenamento_aeronautico
 10
-9.356026
 20
38.716075
  0
VERTEX
  8
ordenamento_aeronautico
 10
-9.356033
 20
38.716074
  0
VERTEX
  8
ordenamento_aeronautico
 10
-9.356039
 20
38.716073
  0
VERTEX
  8
ordenamento_aeronautico
 10
-9.356046
 20
38.716071
  0
VERTEX
  8
ordenamento_aeronautico
 10
-9.356052
 20
38.716070
  0
VERTEX
  8
ordenamento_aeronautico
 10
-9.356059
 20
38.716069
  0
VERTEX
  8
ordenamento_aeronautico
 10
-9.356066
 20
38.716068
  0
VERTEX
  8
ordenamento_aeronautico
 10
-9.356072
 20
38.716067
  0
VERTEX
  8
ordenamento_aeronautico
 10
-9.356079
 20
38.716066
  0
VERTEX
  8
ordenamento_aeronautico
 10
-9.356085
 20
38.716065
  0
VERTEX
  8
ordenamento_aeronautico
 10
-9.356092
 20
38.716064
  0
VERTEX
  8
ordenamento_aeronautico
 10
-9.356099
 20
38.716063
  0
VERTEX
  8
ordenamento_aeronautico
 10
-9.356105
 20
38.716061
  0
VERTEX
  8
ordenamento_aeronautico
 10
-9.356112
 20
38.716060
  0
VERTEX
  8
ordenamento_aeronautico
 10
-9.356119
 20
38.716059
  0
VERTEX
  8
ordenamento_aeronautico
 10
-9.356125
 20
38.716058
  0
VERTEX
  8
ordenamento_aeronautico
 10
-9.356132
 20
38.716057
  0
VERTEX
  8
ordenamento_aeronautico
 10
-9.356139
 20
38.716056
  0
VERTEX
  8
ordenamento_aeronautico
 10
-9.356152
 20
38.716055
  0
VERTEX
  8
ordenamento_aeronautico
 10
-9.356165
 20
38.716053
  0
VERTEX
  8
ordenamento_aeronautico
 10
-9.356179
 20
38.716052
  0
VERTEX
  8
ordenamento_aeronautico
 10
-9.356192
 20
38.716050
  0
VERTEX
  8
ordenamento_aeronautico
 10
-9.356205
 20
38.716049
  0
VERTEX
  8
ordenamento_aeronautico
 10
-9.356219
 20
38.716048
  0
VERTEX
  8
ordenamento_aeronautico
 10
-9.356232
 20
38.716046
  0
VERTEX
  8
ordenamento_aeronautico
 10
-9.356246
 20
38.716045
  0
VERTEX
  8
ordenamento_aeronautico
 10
-9.356259
 20
38.716044
  0
VERTEX
  8
ordenamento_aeronautico
 10
-9.356272
 20
38.716042
  0
VERTEX
  8
ordenamento_aeronautico
 10
-9.356286
 20
38.716041
  0
VERTEX
  8
ordenamento_aeronautico
 10
-9.356299
 20
38.716040
  0
VERTEX
  8
ordenamento_aeronautico
 10
-9.356312
 20
38.716039
  0
VERTEX
  8
ordenamento_aeronautico
 10
-9.356326
 20
38.716038
  0
VERTEX
  8
ordenamento_aeronautico
 10
-9.356339
 20
38.716037
  0
VERTEX
  8
ordenamento_aeronautico
 10
-9.356353
 20
38.716036
  0
VERTEX
  8
ordenamento_aeronautico
 10
-9.356366
 20
38.716035
  0
VERTEX
  8
ordenamento_aeronautico
 10
-9.356380
 20
38.716034
  0
VERTEX
  8
ordenamento_aeronautico
 10
-9.356393
 20
38.716033
  0
VERTEX
  8
ordenamento_aeronautico
 10
-9.356406
 20
38.716032
  0
VERTEX
  8
ordenamento_aeronautico
 10
-9.356420
 20
38.716031
  0
VERTEX
  8
ordenamento_aeronautico
 10
-9.356433
 20
38.716030
  0
VERTEX
  8
ordenamento_aeronautico
 10
-9.356447
 20
38.716029
  0
VERTEX
  8
ordenamento_aeronautico
 10
-9.356460
 20
38.716029
  0
VERTEX
  8
ordenamento_aeronautico
 10
-9.356473
 20
38.716028
  0
VERTEX
  8
ordenamento_aeronautico
 10
-9.356487
 20
38.716027
  0
VERTEX
  8
ordenamento_aeronautico
 10
-9.356500
 20
38.716027
  0
VERTEX
  8
ordenamento_aeronautico
 10
-9.356514
 20
38.716026
  0
VERTEX
  8
ordenamento_aeronautico
 10
-9.356527
 20
38.716025
  0
VERTEX
  8
ordenamento_aeronautico
 10
-9.356537
 20
38.716025
  0
VERTEX
  8
ordenamento_aeronautico
 10
-9.356547
 20
38.716025
  0
VERTEX
  8
ordenamento_aeronautico
 10
-9.356557
 20
38.716024
  0
VERTEX
  8
ordenamento_aeronautico
 10
-9.356567
 20
38.716024
  0
VERTEX
  8
ordenamento_aeronautico
 10
-9.356577
 20
38.716023
  0
VERTEX
  8
ordenamento_aeronautico
 10
-9.356587
 20
38.716022
  0
VERTEX
  8
ordenamento_aeronautico
 10
-9.356597
 20
38.716022
  0
VERTEX
  8
ordenamento_aeronautico
 10
-9.356607
 20
38.716021
  0
VERTEX
  8
ordenamento_aeronautico
 10
-9.356617
 20
38.716020
  0
VERTEX
  8
ordenamento_aeronautico
 10
-9.356627
 20
38.716019
  0
VERTEX
  8
ordenamento_aeronautico
 10
-9.356637
 20
38.716019
  0
VERTEX
  8
ordenamento_aeronautico
 10
-9.356646
 20
38.716018
  0
VERTEX
  8
ordenamento_aeronautico
 10
-9.356656
 20
38.716017
  0
VERTEX
  8
ordenamento_aeronautico
 10
-9.356666
 20
38.716016
  0
VERTEX
  8
ordenamento_aeronautico
 10
-9.356676
 20
38.716015
  0
VERTEX
  8
ordenamento_aeronautico
 10
-9.356686
 20
38.716013
  0
VERTEX
  8
ordenamento_aeronautico
 10
-9.356696
 20
38.716012
  0
VERTEX
  8
ordenamento_aeronautico
 10
-9.356706
 20
38.716011
  0
VERTEX
  8
ordenamento_aeronautico
 10
-9.356715
 20
38.716010
  0
VERTEX
  8
ordenamento_aeronautico
 10
-9.356725
 20
38.716008
  0
VERTEX
  8
ordenamento_aeronautico
 10
-9.356735
 20
38.716007
  0
VERTEX
  8
ordenamento_aeronautico
 10
-9.356745
 20
38.716006
  0
VERTEX
  8
ordenamento_aeronautico
 10
-9.356755
 20
38.716004
  0
VERTEX
  8
ordenamento_aeronautico
 10
-9.356764
 20
38.716003
  0
VERTEX
  8
ordenamento_aeronautico
 10
-9.356774
 20
38.716001
  0
VERTEX
  8
ordenamento_aeronautico
 10
-9.356784
 20
38.715999
  0
VERTEX
  8
ordenamento_aeronautico
 10
-9.356794
 20
38.715998
  0
VERTEX
  8
ordenamento_aeronautico
 10
-9.356803
 20
38.715996
  0
VERTEX
  8
ordenamento_aeronautico
 10
-9.356813
 20
38.715994
  0
VERTEX
  8
ordenamento_aeronautico
 10
-9.356819
 20
38.715995
  0
VERTEX
  8
ordenamento_aeronautico
 10
-9.356826
 20
38.715996
  0
VERTEX
  8
ordenamento_aeronautico
 10
-9.356832
 20
38.715996
  0
VERTEX
  8
ordenamento_aeronautico
 10
-9.356838
 20
38.715997
  0
VERTEX
  8
ordenamento_aeronautico
 10
-9.356844
 20
38.715998
  0
VERTEX
  8
ordenamento_aeronautico
 10
-9.356851
 20
38.715998
  0
VERTEX
  8
ordenamento_aeronautico
 10
-9.356857
 20
38.715999
  0
VERTEX
  8
ordenamento_aeronautico
 10
-9.356863
 20
38.716000
  0
VERTEX
  8
ordenamento_aeronautico
 10
-9.356870
 20
38.716000
  0
VERTEX
  8
ordenamento_aeronautico
 10
-9.356876
 20
38.716001
  0
VERTEX
  8
ordenamento_aeronautico
 10
-9.356882
 20
38.716001
  0
VERTEX
  8
ordenamento_aeronautico
 10
-9.356888
 20
38.716002
  0
VERTEX
  8
ordenamento_aeronautico
 10
-9.356895
 20
38.716003
  0
VERTEX
  8
ordenamento_aeronautico
 10
-9.356901
 20
38.716003
  0
VERTEX
  8
ordenamento_aeronautico
 10
-9.356907
 20
38.716003
  0
VERTEX
  8
ordenamento_aeronautico
 10
-9.356914
 20
38.716004
  0
VERTEX
  8
ordenamento_aeronautico
 10
-9.356920
 20
38.716004
  0
VERTEX
  8
ordenamento_aeronautico
 10
-9.356926
 20
38.716005
  0
VERTEX
  8
ordenamento_aeronautico
 10
-9.356933
 20
38.716005
  0
VERTEX
  8
ordenamento_aeronautico
 10
-9.356939
 20
38.716006
  0
VERTEX
  8
ordenamento_aeronautico
 10
-9.356945
 20
38.716006
  0
VERTEX
  8
ordenamento_aeronautico
 10
-9.356952
 20
38.716006
  0
VERTEX
  8
ordenamento_aeronautico
 10
-9.356958
 20
38.716007
  0
VERTEX
  8
ordenamento_aeronautico
 10
-9.356964
 20
38.716007
  0
VERTEX
  8
ordenamento_aeronautico
 10
-9.356971
 20
38.716007
  0
VERTEX
  8
ordenamento_aeronautico
 10
-9.356977
 20
38.716008
  0
VERTEX
  8
ordenamento_aeronautico
 10
-9.356983
 20
38.716008
  0
VERTEX
  8
ordenamento_aeronautico
 10
-9.356990
 20
38.716008
  0
VERTEX
  8
ordenamento_aeronautico
 10
-9.356996
 20
38.716008
  0
VERTEX
  8
ordenamento_aeronautico
 10
-9.357003
 20
38.716009
  0
VERTEX
  8
ordenamento_aeronautico
 10
-9.357010
 20
38.716010
  0
VERTEX
  8
ordenamento_aeronautico
 10
-9.357017
 20
38.716011
  0
VERTEX
  8
ordenamento_aeronautico
 10
-9.357025
 20
38.716011
  0
VERTEX
  8
ordenamento_aeronautico
 10
-9.357032
 20
38.716012
  0
VERTEX
  8
ordenamento_aeronautico
 10
-9.357039
 20
38.716013
  0
VERTEX
  8
ordenamento_aeronautico
 10
-9.357046
 20
38.716014
  0
VERTEX
  8
ordenamento_aeronautico
 10
-9.357053
 20
38.716014
  0
VERTEX
  8
ordenamento_aeronautico
 10
-9.357061
 20
38.716015
  0
VERTEX
  8
ordenamento_aeronautico
 10
-9.357068
 20
38.716015
  0
VERTEX
  8
ordenamento_aeronautico
 10
-9.357075
 20
38.716016
  0
VERTEX
  8
ordenamento_aeronautico
 10
-9.357082
 20
38.716017
  0
VERTEX
  8
ordenamento_aeronautico
 10
-9.357089
 20
38.716017
  0
VERTEX
  8
ordenamento_aeronautico
 10
-9.357097
 20
38.716018
  0
VERTEX
  8
ordenamento_aeronautico
 10
-9.357104
 20
38.716019
  0
VERTEX
  8
ordenamento_aeronautico
 10
-9.357111
 20
38.716019
  0
VERTEX
  8
ordenamento_aeronautico
 10
-9.357118
 20
38.716020
  0
VERTEX
  8
ordenamento_aeronautico
 10
-9.357125
 20
38.716020
  0
VERTEX
  8
ordenamento_aeronautico
 10
-9.357133
 20
38.716021
  0
VERTEX
  8
ordenamento_aeronautico
 10
-9.357140
 20
38.716022
  0
VERTEX
  8
ordenamento_aeronautico
 10
-9.357147
 20
38.716022
  0
VERTEX
  8
ordenamento_aeronautico
 10
-9.357154
 20
38.716023
  0
VERTEX
  8
ordenamento_aeronautico
 10
-9.357161
 20
38.716023
  0
VERTEX
  8
ordenamento_aeronautico
 10
-9.357169
 20
38.716024
  0
VERTEX
  8
ordenamento_aeronautico
 10
-9.357176
 20
38.716025
  0
VERTEX
  8
ordenamento_aeronautico
 10
-9.357183
 20
38.716025
  0
VERTEX
  8
ordenamento_aeronautico
 10
-9.357190
 20
38.716026
  0
VERTEX
  8
ordenamento_aeronautico
 10
-9.357198
 20
38.716026
  0
VERTEX
  8
ordenamento_aeronautico
 10
-9.357201
 20
38.716026
  0
VERTEX
  8
ordenamento_aeronautico
 10
-9.357297
 20
38.715540
  0
VERTEX
  8
ordenamento_aeronautico
 10
-9.357799
 20
38.715420
  0
VERTEX
  8
ordenamento_aeronautico
 10
-9.357841
 20
38.715472
  0
VERTEX
  8
ordenamento_aeronautico
 10
-9.358156
 20
38.715764
  0
VERTEX
  8
ordenamento_aeronautico
 10
-9.358583
 20
38.716117
  0
VERTEX
  8
ordenamento_aeronautico
 10
-9.358031
 20
38.716557
  0
VERTEX
  8
ordenamento_aeronautico
 10
-9.357992
 20
38.716728
  0
VERTEX
  8
ordenamento_aeronautico
 10
-9.357969
 20
38.716894
  0
VERTEX
  8
ordenamento_aeronautico
 10
-9.357945
 20
38.717090
  0
VERTEX
  8
ordenamento_aeronautico
 10
-9.357945
 20
38.717090
  0
VERTEX
  8
ordenamento_aeronautico
 10
-9.357945
 20
38.717091
  0
VERTEX
  8
ordenamento_aeronautico
 10
-9.357945
 20
38.717091
  0
VERTEX
  8
ordenamento_aeronautico
 10
-9.357945
 20
38.717091
  0
VERTEX
  8
ordenamento_aeronautico
 10
-9.357945
 20
38.717092
  0
VERTEX
  8
ordenamento_aeronautico
 10
-9.357945
 20
38.717092
  0
VERTEX
  8
ordenamento_aeronautico
 10
-9.357945
 20
38.717093
  0
VERTEX
  8
ordenamento_aeronautico
 10
-9.357945
 20
38.717093
  0
VERTEX
  8
ordenamento_aeronautico
 10
-9.357945
 20
38.717093
  0
VERTEX
  8
ordenamento_aeronautico
 10
-9.357945
 20
38.717094
  0
VERTEX
  8
ordenamento_aeronautico
 10
-9.357945
 20
38.717094
  0
VERTEX
  8
ordenamento_aeronautico
 10
-9.357946
 20
38.717094
  0
VERTEX
  8
ordenamento_aeronautico
 10
-9.357946
 20
38.717095
  0
VERTEX
  8
ordenamento_aeronautico
 10
-9.357946
 20
38.717095
  0
VERTEX
  8
ordenamento_aeronautico
 10
-9.357946
 20
38.717095
  0
VERTEX
  8
ordenamento_aeronautico
 10
-9.357946
 20
38.717096
  0
VERTEX
  8
ordenamento_aeronautico
 10
-9.357946
 20
38.717096
  0
VERTEX
  8
ordenamento_aeronautico
 10
-9.357946
 20
38.717096
  0
VERTEX
  8
ordenamento_aeronautico
 10
-9.357946
 20
38.717097
  0
VERTEX
  8
ordenamento_aeronautico
 10
-9.357946
 20
38.717097
  0
VERTEX
  8
ordenamento_aeronautico
 10
-9.357946
 20
38.717097
  0
VERTEX
  8
ordenamento_aeronautico
 10
-9.357946
 20
38.717098
  0
VERTEX
  8
ordenamento_aeronautico
 10
-9.357946
 20
38.717098
  0
VERTEX
  8
ordenamento_aeronautico
 10
-9.357946
 20
38.717099
  0
VERTEX
  8
ordenamento_aeronautico
 10
-9.357946
 20
38.717099
  0
VERTEX
  8
ordenamento_aeronautico
 10
-9.357947
 20
38.717099
  0
VERTEX
  8
ordenamento_aeronautico
 10
-9.357947
 20
38.717100
  0
VERTEX
  8
ordenamento_aeronautico
 10
-9.357947
 20
38.717100
  0
VERTEX
  8
ordenamento_aeronautico
 10
-9.357947
 20
38.717100
  0
VERTEX
  8
ordenamento_aeronautico
 10
-9.357849
 20
38.717495
  0
VERTEX
  8
ordenamento_aeronautico
 10
-9.357845
 20
38.717510
  0
VERTEX
  8
ordenamento_aeronautico
 10
-9.357842
 20
38.717525
  0
VERTEX
  8
ordenamento_aeronautico
 10
-9.357840
 20
38.717541
  0
VERTEX
  8
ordenamento_aeronautico
 10
-9.357838
 20
38.717556
  0
VERTEX
  8
ordenamento_aeronautico
 10
-9.357836
 20
38.717572
  0
VERTEX
  8
ordenamento_aeronautico
 10
-9.357835
 20
38.717587
  0
VERTEX
  8
ordenamento_aeronautico
 10
-9.357834
 20
38.717603
  0
VERTEX
  8
ordenamento_aeronautico
 10
-9.357834
 20
38.717618
  0
VERTEX
  8
ordenamento_aeronautico
 10
-9.357834
 20
38.717634
  0
VERTEX
  8
ordenamento_aeronautico
 10
-9.357834
 20
38.717650
  0
VERTEX
  8
ordenamento_aeronautico
 10
-9.357835
 20
38.717665
  0
VERTEX
  8
ordenamento_aeronautico
 10
-9.357837
 20
38.717681
  0
VERTEX
  8
ordenamento_aeronautico
 10
-9.357839
 20
38.717696
  0
VERTEX
  8
ordenamento_aeronautico
 10
-9.357841
 20
38.717712
  0
VERTEX
  8
ordenamento_aeronautico
 10
-9.357844
 20
38.717727
  0
VERTEX
  8
ordenamento_aeronautico
 10
-9.357847
 20
38.717743
  0
VERTEX
  8
ordenamento_aeronautico
 10
-9.357851
 20
38.717758
  0
VERTEX
  8
ordenamento_aeronautico
 10
-9.357855
 20
38.717773
  0
VERTEX
  8
ordenamento_aeronautico
 10
-9.357860
 20
38.717788
  0
VERTEX
  8
ordenamento_aeronautico
 10
-9.357864
 20
38.717803
  0
VERTEX
  8
ordenamento_aeronautico
 10
-9.357870
 20
38.717818
  0
VERTEX
  8
ordenamento_aeronautico
 10
-9.357876
 20
38.717833
  0
VERTEX
  8
ordenamento_aeronautico
 10
-9.357882
 20
38.717848
  0
VERTEX
  8
ordenamento_aeronautico
 10
-9.357889
 20
38.717863
  0
VERTEX
  8
ordenamento_aeronautico
 10
-9.357896
 20
38.717877
  0
VERTEX
  8
ordenamento_aeronautico
 10
-9.357903
 20
38.717892
  0
VERTEX
  8
ordenamento_aeronautico
 10
-9.357911
 20
38.717906
  0
VERTEX
  8
ordenamento_aeronautico
 10
-9.357920
 20
38.717920
  0
VERTEX
  8
ordenamento_aeronautico
 10
-9.357928
 20
38.717934
  0
VERTEX
  8
ordenamento_aeronautico
 10
-9.357933
 20
38.717946
  0
VERTEX
  8
ordenamento_aeronautico
 10
-9.357939
 20
38.717958
  0
VERTEX
  8
ordenamento_aeronautico
 10
-9.357944
 20
38.717969
  0
VERTEX
  8
ordenamento_aeronautico
 10
-9.357950
 20
38.717981
  0
VERTEX
  8
ordenamento_aeronautico
 10
-9.357956
 20
38.717993
  0
VERTEX
  8
ordenamento_aeronautico
 10
-9.357962
 20
38.718004
  0
VERTEX
  8
ordenamento_aeronautico
 10
-9.357968
 20
38.718015
  0
VERTEX
  8
ordenamento_aeronautico
 10
-9.357975
 20
38.718027
  0
VERTEX
  8
ordenamento_aeronautico
 10
-9.357981
 20
38.718038
  0
VERTEX
  8
ordenamento_aeronautico
 10
-9.357988
 20
38.718049
  0
VERTEX
  8
ordenamento_aeronautico
 10
-9.357995
 20
38.718061
  0
VERTEX
  8
ordenamento_aeronautico
 10
-9.358003
 20
38.718072
  0
VERTEX
  8
ordenamento_aeronautico
 10
-9.358010
 20
38.718083
  0
VERTEX
  8
ordenamento_aeronautico
 10
-9.358018
 20
38.718094
  0
VERTEX
  8
ordenamento_aeronautico
 10
-9.358025
 20
38.718104
  0
VERTEX
  8
ordenamento_aeronautico
 10
-9.358033
 20
38.718115
  0
VERTEX
  8
ordenamento_aeronautico
 10
-9.358041
 20
38.718126
  0
VERTEX
  8
ordenamento_aeronautico
 10
-9.358050
 20
38.718137
  0
VERTEX
  8
ordenamento_aeronautico
 10
-9.358058
 20
38.718147
  0
VERTEX
  8
ordenamento_aeronautico
 10
-9.358067
 20
38.718157
  0
VERTEX
  8
ordenamento_aeronautico
 10
-9.358076
 20
38.718168
  0
VERTEX
  8
ordenamento_aeronautico
 10
-9.358085
 20
38.718178
  0
VERTEX
  8
ordenamento_aeronautico
 10
-9.358094
 20
38.718188
  0
VERTEX
  8
ordenamento_aeronautico
 10
-9.358103
 20
38.718198
  0
VERTEX
  8
ordenamento_aeronautico
 10
-9.358113
 20
38.718208
  0
VERTEX
  8
ordenamento_aeronautico
 10
-9.358122
 20
38.718218
  0
VERTEX
  8
ordenamento_aeronautico
 10
-9.358132
 20
38.718228
  0
VERTEX
  8
ordenamento_aeronautico
 10
-9.358142
 20
38.718238
  0
VERTEX
  8
ordenamento_aeronautico
 10
-9.358152
 20
38.718247
  0
VERTEX
  8
ordenamento_aeronautico
 10
-9.358157
 20
38.718256
  0
VERTEX
  8
ordenamento_aeronautico
 10
-9.358162
 20
38.718265
  0
VERTEX
  8
ordenamento_aeronautico
 10
-9.358167
 20
38.718275
  0
VERTEX
  8
ordenamento_aeronautico
 10
-9.358172
 20
38.718284
  0
VERTEX
  8
ordenamento_aeronautico
 10
-9.358178
 20
38.718293
  0
VERTEX
  8
ordenamento_aeronautico
 10
-9.358183
 20
38.718302
  0
VERTEX
  8
ordenamento_aeronautico
 10
-9.358189
 20
38.718311
  0
VERTEX
  8
ordenamento_aeronautico
 10
-9.358194
 20
38.718319
  0
VERTEX
  8
ordenamento_aeronautico
 10
-9.358200
 20
38.718328
  0
VERTEX
  8
ordenamento_aeronautico
 10
-9.358206
 20
38.718337
  0
VERTEX
  8
ordenamento_aeronautico
 10
-9.358213
 20
38.718345
  0
VERTEX
  8
ordenamento_aeronautico
 10
-9.358219
 20
38.718354
  0
VERTEX
  8
ordenamento_aeronautico
 10
-9.358225
 20
38.718363
  0
VERTEX
  8
ordenamento_aeronautico
 10
-9.358232
 20
38.718371
  0
VERTEX
  8
ordenamento_aeronautico
 10
-9.358239
 20
38.718379
  0
VERTEX
  8
ordenamento_aeronautico
 10
-9.358245
 20
38.718388
  0
VERTEX
  8
ordenamento_aeronautico
 10
-9.358253
 20
38.718396
  0
VERTEX
  8
ordenamento_aeronautico
 10
-9.358260
 20
38.718404
  0
VERTEX
  8
ordenamento_aeronautico
 10
-9.358267
 20
38.718412
  0
VERTEX
  8
ordenamento_aeronautico
 10
-9.358274
 20
38.718420
  0
VERTEX
  8
ordenamento_aeronautico
 10
-9.358282
 20
38.718428
  0
VERTEX
  8
ordenamento_aeronautico
 10
-9.358289
 20
38.718436
  0
VERTEX
  8
ordenamento_aeronautico
 10
-9.358297
 20
38.718444
  0
VERTEX
  8
ordenamento_aeronautico
 10
-9.358305
 20
38.718452
  0
VERTEX
  8
ordenamento_aeronautico
 10
-9.358313
 20
38.718460
  0
VERTEX
  8
ordenamento_aeronautico
 10
-9.358321
 20
38.718467
  0
VERTEX
  8
ordenamento_aeronautico
 10
-9.358329
 20
38.718475
  0
VERTEX
  8
ordenamento_aeronautico
 10
-9.358338
 20
38.718482
  0
VERTEX
  8
ordenamento_aeronautico
 10
-9.358346
 20
38.718489
  0
VERTEX
  8
ordenamento_aeronautico
 10
-9.358357
 20
38.718500
  0
VERTEX
  8
ordenamento_aeronautico
 10
-9.358368
 20
38.718511
  0
VERTEX
  8
ordenamento_aeronautico
 10
-9.358378
 20
38.718522
  0
VERTEX
  8
ordenamento_aeronautico
 10
-9.358388
 20
38.718533
  0
VERTEX
  8
ordenamento_aeronautico
 10
-9.358399
 20
38.718544
  0
VERTEX
  8
ordenamento_aeronautico
 10
-9.358409
 20
38.718555
  0
VERTEX
  8
ordenamento_aeronautico
 10
-9.358419
 20
38.718566
  0
VERTEX
  8
ordenamento_aeronautico
 10
-9.358429
 20
38.718577
  0
VERTEX
  8
ordenamento_aeronautico
 10
-9.358439
 20
38.718588
  0
VERTEX
  8
ordenamento_aeronautico
 10
-9.358449
 20
38.718599
  0
VERTEX
  8
ordenamento_aeronautico
 10
-9.358459
 20
38.718610
  0
VERTEX
  8
ordenamento_aeronautico
 10
-9.358468
 20
38.718622
  0
VERTEX
  8
ordenamento_aeronautico
 10
-9.358478
 20
38.718633
  0
VERTEX
  8
ordenamento_aeronautico
 10
-9.358487
 20
38.718645
  0
VERTEX
  8
ordenamento_aeronautico
 10
-9.358496
 20
38.718656
  0
VERTEX
  8
ordenamento_aeronautico
 10
-9.358506
 20
38.718668
  0
VERTEX
  8
ordenamento_aeronautico
 10
-9.358515
 20
38.718679
  0
VERTEX
  8
ordenamento_aeronautico
 10
-9.358524
 20
38.718691
  0
VERTEX
  8
ordenamento_aeronautico
 10
-9.358533
 20
38.718702
  0
VERTEX
  8
ordenamento_aeronautico
 10
-9.358541
 20
38.718714
  0
VERTEX
  8
ordenamento_aeronautico
 10
-9.358550
 20
38.718726
  0
VERTEX
  8
ordenamento_aeronautico
 10
-9.358559
 20
38.718738
  0
VERTEX
  8
ordenamento_aeronautico
 10
-9.358567
 20
38.718750
  0
VERTEX
  8
ordenamento_aeronautico
 10
-9.358576
 20
38.718762
  0
VERTEX
  8
ordenamento_aeronautico
 10
-9.358584
 20
38.718774
  0
VERTEX
  8
ordenamento_aeronautico
 10
-9.358592
 20
38.718786
  0
VERTEX
  8
ordenamento_aeronautico
 10
-9.358600
 20
38.718797
  0
VERTEX
  8
ordenamento_aeronautico
 10
-9.358608
 20
38.718810
  0
VERTEX
  8
ordenamento_aeronautico
 10
-9.358616
 20
38.718822
  0
VERTEX
  8
ordenamento_aeronautico
 10
-9.358639
 20
38.718858
  0
VERTEX
  8
ordenamento_aeronautico
 10
-9.358661
 20
38.718895
  0
VERTEX
  8
ordenamento_aeronautico
 10
-9.358683
 20
38.718932
  0
VERTEX
  8
ordenamento_aeronautico
 10
-9.358703
 20
38.718969
  0
VERTEX
  8
ordenamento_aeronautico
 10
-9.358724
 20
38.719006
  0
VERTEX
  8
ordenamento_aeronautico
 10
-9.358744
 20
38.719043
  0
VERTEX
  8
ordenamento_aeronautico
 10
-9.358763
 20
38.719081
  0
VERTEX
  8
ordenamento_aeronautico
 10
-9.358781
 20
38.719119
  0
VERTEX
  8
ordenamento_aeronautico
 10
-9.358799
 20
38.719157
  0
VERTEX
  8
ordenamento_aeronautico
 10
-9.358817
 20
38.719195
  0
VERTEX
  8
ordenamento_aeronautico
 10
-9.358834
 20
38.719234
  0
VERTEX
  8
ordenamento_aeronautico
 10
-9.358850
 20
38.719272
  0
VERTEX
  8
ordenamento_aeronautico
 10
-9.358865
 20
38.719311
  0
VERTEX
  8
ordenamento_aeronautico
 10
-9.358880
 20
38.719350
  0
VERTEX
  8
ordenamento_aeronautico
 10
-9.358894
 20
38.719389
  0
VERTEX
  8
ordenamento_aeronautico
 10
-9.358908
 20
38.719428
  0
VERTEX
  8
ordenamento_aeronautico
 10
-9.358921
 20
38.719467
  0
VERTEX
  8
ordenamento_aeronautico
 10
-9.358933
 20
38.719506
  0
VERTEX
  8
ordenamento_aeronautico
 10
-9.358945
 20
38.719546
  0
VERTEX
  8
ordenamento_aeronautico
 10
-9.358956
 20
38.719585
  0
VERTEX
  8
ordenamento_aeronautico
 10
-9.358966
 20
38.719625
  0
VERTEX
  8
ordenamento_aeronautico
 10
-9.358976
 20
38.719665
  0
VERTEX
  8
ordenamento_aeronautico
 10
-9.358986
 20
38.719705
  0
VERTEX
  8
ordenamento_aeronautico
 10
-9.358994
 20
38.719745
  0
VERTEX
  8
ordenamento_aeronautico
 10
-9.359002
 20
38.719785
  0
VERTEX
  8
ordenamento_aeronautico
 10
-9.359009
 20
38.719825
  0
VERTEX
  8
ordenamento_aeronautico
 10
-9.359016
 20
38.719865
  0
VERTEX
  8
ordenamento_aeronautico
 10
-9.359022
 20
38.719906
  0
VERTEX
  8
ordenamento_aeronautico
 10
-9.359027
 20
38.719946
  0
VERTEX
  8
ordenamento_aeronautico
 10
-9.359098
 20
38.721181
  0
VERTEX
  8
ordenamento_aeronautico
 10
-9.359211
 20
38.722239
  0
VERTEX
  8
ordenamento_aeronautico
 10
-9.359248
 20
38.722587
  0
VERTEX
  8
ordenamento_aeronautico
 10
-9.359301
 20
38.723065
  0
VERTEX
  8
ordenamento_aeronautico
 10
-9.359428
 20
38.723443
  0
VERTEX
  8
ordenamento_aeronautico
 10
-9.359861
 20
38.723526
  0
VERTEX
  8
ordenamento_aeronautico
 10
-9.360019
 20
38.724001
  0
VERTEX
  8
ordenamento_aeronautico
 10
-9.359720
 20
38.724297
  0
VERTEX
  8
ordenamento_aeronautico
 10
-9.359174
 20
38.724441
  0
VERTEX
  8
ordenamento_aeronautico
 10
-9.359194
 20
38.724490
  0
VERTEX
  8
ordenamento_aeronautico
 10
-9.359198
 20
38.724500
  0
VERTEX
  8
ordenamento_aeronautico
 10
-9.359202
 20
38.724509
  0
VERTEX
  8
ordenamento_aeronautico
 10
-9.359207
 20
38.724519
  0
VERTEX
  8
ordenamento_aeronautico
 10
-9.359211
 20
38.724529
  0
VERTEX
  8
ordenamento_aeronautico
 10
-9.359215
 20
38.724539
  0
VERTEX
  8
ordenamento_aeronautico
 10
-9.359219
 20
38.724549
  0
VERTEX
  8
ordenamento_aeronautico
 10
-9.359223
 20
38.724559
  0
VERTEX
  8
ordenamento_aeronautico
 10
-9.359227
 20
38.724568
  0
VERTEX
  8
ordenamento_aeronautico
 10
-9.359231
 20
38.724578
  0
VERTEX
  8
ordenamento_aeronautico
 10
-9.359236
 20
38.724588
  0
VERTEX
  8
ordenamento_aeronautico
 10
-9.359240
 20
38.724598
  0
VERTEX
  8
ordenamento_aeronautico
 10
-9.359244
 20
38.724607
  0
VERTEX
  8
ordenamento_aeronautico
 10
-9.359249
 20
38.724617
  0
VERTEX
  8
ordenamento_aeronautico
 10
-9.359253
 20
38.724627
  0
VERTEX
  8
ordenamento_aeronautico
 10
-9.359257
 20
38.724637
  0
VERTEX
  8
ordenamento_aeronautico
 10
-9.359262
 20
38.724646
  0
VERTEX
  8
ordenamento_aeronautico
 10
-9.359266
 20
38.724656
  0
VERTEX
  8
ordenamento_aeronautico
 10
-9.359271
 20
38.724666
  0
VERTEX
  8
ordenamento_aeronautico
 10
-9.359275
 20
38.724676
  0
VERTEX
  8
ordenamento_aeronautico
 10
-9.359279
 20
38.724685
  0
VERTEX
  8
ordenamento_aeronautico
 10
-9.359284
 20
38.724695
  0
VERTEX
  8
ordenamento_aeronautico
 10
-9.359289
 20
38.724705
  0
VERTEX
  8
ordenamento_aeronautico
 10
-9.359293
 20
38.724715
  0
VERTEX
  8
ordenamento_aeronautico
 10
-9.359298
 20
38.724724
  0
VERTEX
  8
ordenamento_aeronautico
 10
-9.359344
 20
38.724824
  0
VERTEX
  8
ordenamento_aeronautico
 10
-9.358930
 20
38.724927
  0
VERTEX
  8
ordenamento_aeronautico
 10
-9.359086
 20
38.725209
  0
VERTEX
  8
ordenamento_aeronautico
 10
-9.358836
 20
38.725265
  0
VERTEX
  8
ordenamento_aeronautico
 10
-9.359004
 20
38.725585
  0
VERTEX
  8
ordenamento_aeronautico
 10
-9.358736
 20
38.725654
  0
VERTEX
  8
ordenamento_aeronautico
 10
-9.358466
 20
38.725723
  0
VERTEX
  8
ordenamento_aeronautico
 10
-9.358457
 20
38.725725
  0
VERTEX
  8
ordenamento_aeronautico
 10
-9.358457
 20
38.725725
  0
VERTEX
  8
ordenamento_aeronautico
 10
-9.358509
 20
38.725895
  0
VERTEX
  8
ordenamento_aeronautico
 10
-9.358450
 20
38.725905
  0
VERTEX
  8
ordenamento_aeronautico
 10
-9.358403
 20
38.726037
  0
VERTEX
  8
ordenamento_aeronautico
 10
-9.358384
 20
38.726221
  0
VERTEX
  8
ordenamento_aeronautico
 10
-9.358093
 20
38.726297
  0
VERTEX
  8
ordenamento_aeronautico
 10
-9.358108
 20
38.726384
  0
VERTEX
  8
ordenamento_aeronautico
 10
-9.358108
 20
38.726384
  0
VERTEX
  8
ordenamento_aeronautico
 10
-9.358135
 20
38.726631
  0
VERTEX
  8
ordenamento_aeronautico
 10
-9.358131
 20
38.726710
  0
VERTEX
  8
ordenamento_aeronautico
 10
-9.358081
 20
38.726950
  0
VERTEX
  8
ordenamento_aeronautico
 10
-9.358047
 20
38.727150
  0
VERTEX
  8
ordenamento_aeronautico
 10
-9.358044
 20
38.727232
  0
VERTEX
  8
ordenamento_aeronautico
 10
-9.358050
 20
38.727478
  0
VERTEX
  8
ordenamento_aeronautico
 10
-9.358069
 20
38.727713
  0
VERTEX
  8
ordenamento_aeronautico
 10
-9.358106
 20
38.727927
  0
VERTEX
  8
ordenamento_aeronautico
 10
-9.358158
 20
38.728170
  0
VERTEX
  8
ordenamento_aeronautico
 10
-9.358245
 20
38.728578
  0
VERTEX
  8
ordenamento_aeronautico
 10
-9.358246
 20
38.728624
  0
VERTEX
  8
ordenamento_aeronautico
 10
-9.357637
 20
38.728612
  0
VERTEX
  8
ordenamento_aeronautico
 10
-9.357588
 20
38.728618
  0
VERTEX
  8
ordenamento_aeronautico
 10
-9.357680
 20
38.729025
  0
VERTEX
  8
ordenamento_aeronautico
 10
-9.357771
 20
38.729419
  0
VERTEX
  8
ordenamento_aeronautico
 10
-9.357974
 20
38.730289
  0
VERTEX
  8
ordenamento_aeronautico
 10
-9.358332
 20
38.731271
  0
VERTEX
  8
ordenamento_aeronautico
 10
-9.358690
 20
38.732254
  0
VERTEX
  8
ordenamento_aeronautico
 10
-9.359158
 20
38.732213
  0
VERTEX
  8
ordenamento_aeronautico
 10
-9.359576
 20
38.732120
  0
VERTEX
  8
ordenamento_aeronautico
 10
-9.360046
 20
38.733412
  0
VERTEX
  8
ordenamento_aeronautico
 10
-9.359182
 20
38.733605
  0
VERTEX
  8
ordenamento_aeronautico
 10
-9.359632
 20
38.734841
  0
VERTEX
  8
ordenamento_aeronautico
 10
-9.357973
 20
38.735212
  0
VERTEX
  8
ordenamento_aeronautico
 10
-9.357523
 20
38.733975
  0
SEQEND
  0
POLYLINE
  8
ordenamento_aeronautico
  6
BYLAYER
 66
1
 70
1
 40
0.000000
 41
0.000000
  0
VERTEX
  8
ordenamento_aeronautico
 10
-9.344157
 20
38.704644
  0
VERTEX
  8
ordenamento_aeronautico
 10
-9.350790
 20
38.703163
  0
VERTEX
  8
ordenamento_aeronautico
 10
-9.366150
 20
38.745346
  0
VERTEX
  8
ordenamento_aeronautico
 10
-9.359514
 20
38.746829
  0
VERTEX
  8
ordenamento_aeronautico
 10
-9.344157
 20
38.704644
  0
SEQEND
  0
POLYLINE
  8
ordenamento_aeronautico
  6
BYLAYER
 66
1
 70
1
 40
0.000000
 41
0.000000
  0
VERTEX
  8
ordenamento_aeronautico
 10
-9.413218
 20
38.843153
  0
VERTEX
  8
ordenamento_aeronautico
 10
-9.385533
 20
38.849339
  0
VERTEX
  8
ordenamento_aeronautico
 10
-9.297278
 20
38.606805
  0
VERTEX
  8
ordenamento_aeronautico
 10
-9.324878
 20
38.600640
  0
VERTEX
  8
ordenamento_aeronautico
 10
-9.413218
 20
38.843153
  0
SEQEND
  0
POLYLINE
  8
ordenamento_aeronautico
  6
BYLAYER
 66
1
 70
1
 40
0.000000
 41
0.000000
  0
VERTEX
  8
ordenamento_aeronautico
 10
-9.357523
 20
38.733975
  0
VERTEX
  8
ordenamento_aeronautico
 10
-9.356711
 20
38.734156
  0
VERTEX
  8
ordenamento_aeronautico
 10
-9.355108
 20
38.729778
  0
VERTEX
  8
ordenamento_aeronautico
 10
-9.355674
 20
38.729644
  0
VERTEX
  8
ordenamento_aeronautico
 10
-9.355581
 20
38.728993
  0
VERTEX
  8
ordenamento_aeronautico
 10
-9.355526
 20
38.728521
  0
VERTEX
  8
ordenamento_aeronautico
 10
-9.355470
 20
38.728319
  0
VERTEX
  8
ordenamento_aeronautico
 10
-9.355367
 20
38.728097
  0
VERTEX
  8
ordenamento_aeronautico
 10
-9.355046
 20
38.727489
  0
VERTEX
  8
ordenamento_aeronautico
 10
-9.354697
 20
38.726898
  0
VERTEX
  8
ordenamento_aeronautico
 10
-9.354353
 20
38.726483
  0
VERTEX
  8
ordenamento_aeronautico
 10
-9.351693
 20
38.723584
  0
VERTEX
  8
ordenamento_aeronautico
 10
-9.352069
 20
38.723378
  0
VERTEX
  8
ordenamento_aeronautico
 10
-9.352662
 20
38.723050
  0
VERTEX
  8
ordenamento_aeronautico
 10
-9.352872
 20
38.722988
  0
VERTEX
  8
ordenamento_aeronautico
 10
-9.353418
 20
38.722840
  0
VERTEX
  8
ordenamento_aeronautico
 10
-9.353256
 20
38.722302
  0
VERTEX
  8
ordenamento_aeronautico
 10
-9.353233
 20
38.722209
  0
VERTEX
  8
ordenamento_aeronautico
 10
-9.353188
 20
38.722077
  0
VERTEX
  8
ordenamento_aeronautico
 10
-9.353020
 20
38.721630
  0
VERTEX
  8
ordenamento_aeronautico
 10
-9.352943
 20
38.721394
  0
VERTEX
  8
ordenamento_aeronautico
 10
-9.352315
 20
38.719671
  0
VERTEX
  8
ordenamento_aeronautico
 10
-9.351688
 20
38.717948
  0
VERTEX
  8
ordenamento_aeronautico
 10
-9.351816
 20
38.717919
  0
VERTEX
  8
ordenamento_aeronautico
 10
-9.351734
 20
38.717694
  0
VERTEX
  8
ordenamento_aeronautico
 10
-9.351860
 20
38.717684
  0
VERTEX
  8
ordenamento_aeronautico
 10
-9.352088
 20
38.717648
  0
VERTEX
  8
ordenamento_aeronautico
 10
-9.351526
 20
38.717069
  0
VERTEX
  8
ordenamento_aeronautico
 10
-9.351752
 20
38.716870
  0
VERTEX
  8
ordenamento_aeronautico
 10
-9.351547
 20
38.716649
  0
VERTEX
  8
ordenamento_aeronautico
 10
-9.351882
 20
38.716357
  0
VERTEX
  8
ordenamento_aeronautico
 10
-9.351554
 20
38.715924
  0
VERTEX
  8
ordenamento_aeronautico
 10
-9.351444
 20
38.714898
  0
VERTEX
  8
ordenamento_aeronautico
 10
-9.351445
 20
38.714724
  0
VERTEX
  8
ordenamento_aeronautico
 10
-9.351307
 20
38.714585
  0
VERTEX
  8
ordenamento_aeronautico
 10
-9.351605
 20
38.714486
  0
VERTEX
  8
ordenamento_aeronautico
 10
-9.351914
 20
38.715350
  0
VERTEX
  8
ordenamento_aeronautico
 10
-9.351863
 20
38.715385
  0
VERTEX
  8
ordenamento_aeronautico
 10
-9.351906
 20
38.715496
  0
VERTEX
  8
ordenamento_aeronautico
 10
-9.352054
 20
38.715461
  0
VERTEX
  8
ordenamento_aeronautico
 10
-9.352403
 20
38.716454
  0
VERTEX
  8
ordenamento_aeronautico
 10
-9.352941
 20
38.716420
  0
VERTEX
  8
ordenamento_aeronautico
 10
-9.353104
 20
38.716294
  0
VERTEX
  8
ordenamento_aeronautico
 10
-9.354352
 20
38.716211
  0
VERTEX
  8
ordenamento_aeronautico
 10
-9.354368
 20
38.716255
  0
VERTEX
  8
ordenamento_aeronautico
 10
-9.354689
 20
38.716282
  0
VERTEX
  8
ordenamento_aeronautico
 10
-9.354697
 20
38.716280
  0
VERTEX
  8
ordenamento_aeronautico
 10
-9.354706
 20
38.716277
  0
VERTEX
  8
ordenamento_aeronautico
 10
-9.354714
 20
38.716275
  0
VERTEX
  8
ordenamento_aeronautico
 10
-9.354722
 20
38.716273
  0
VERTEX
  8
ordenamento_aeronautico
 10
-9.354731
 20
38.716271
  0
VERTEX
  8
ordenamento_aeronautico
 10
-9.354739
 20
38.716269
  0
VERTEX
  8
ordenamento_aeronautico
 10
-9.354747
 20
38.716267
  0
VERTEX
  8
ordenamento_aeronautico
 10
-9.354756
 20
38.716266
  0
VERTEX
  8
ordenamento_aeronautico
 10
-9.354764
 20
38.716264
  0
VERTEX
  8
ordenamento_aeronautico
 10
-9.354773
 20
38.716263
  0
VERTEX
  8
ordenamento_aeronautico
 10
-9.354781
 20
38.716261
  0
VERTEX
  8
ordenamento_aeronautico
 10
-9.354790
 20
38.716260
  0
VERTEX
  8
ordenamento_aeronautico
 10
-9.354799
 20
38.716259
  0
VERTEX
  8
ordenamento_aeronautico
 10
-9.354807
 20
38.716257
  0
VERTEX
  8
ordenamento_aeronautico
 10
-9.354816
 20
38.716256
  0
VERTEX
  8
ordenamento_aeronautico
 10
-9.354824
 20
38.716255
  0
VERTEX
  8
ordenamento_aeronautico
 10
-9.354833
 20
38.716254
  0
VERTEX
  8
ordenamento_aeronautico
 10
-9.354842
 20
38.716254
  0
VERTEX
  8
ordenamento_aeronautico
 10
-9.354850
 20
38.716253
  0
VERTEX
  8
ordenamento_aeronautico
 10
-9.354859
 20
38.716253
  0
VERTEX
  8
ordenamento_aeronautico
 10
-9.354868
 20
38.716252
  0
VERTEX
  8
ordenamento_aeronautico
 10
-9.354877
 20
38.716252
  0
VERTEX
  8
ordenamento_aeronautico
 10
-9.354885
 20
38.716252
  0
VERTEX
  8
ordenamento_aeronautico
 10
-9.354894
 20
38.716251
  0
VERTEX
  8
ordenamento_aeronautico
 10
-9.354903
 20
38.716251
  0
VERTEX
  8
ordenamento_aeronautico
 10
-9.354912
 20
38.716251
  0
VERTEX
  8
ordenamento_aeronautico
 10
-9.354920
 20
38.716251
  0
VERTEX
  8
ordenamento_aeronautico
 10
-9.354929
 20
38.716252
  0
VERTEX
  8
ordenamento_aeronautico
 10
-9.354938
 20
38.716252
  0
VERTEX
  8
ordenamento_aeronautico
 10
-9.354960
 20
38.716251
  0
VERTEX
  8
ordenamento_aeronautico
 10
-9.354981
 20
38.716249
  0
VERTEX
  8
ordenamento_aeronautico
 10
-9.355003
 20
38.716248
  0
VERTEX
  8
ordenamento_aeronautico
 10
-9.355025
 20
38.716246
  0
VERTEX
  8
ordenamento_aeronautico
 10
-9.355047
 20
38.716245
  0
VERTEX
  8
ordenamento_aeronautico
 10
-9.355069
 20
38.716243
  0
VERTEX
  8
ordenamento_aeronautico
 10
-9.355090
 20
38.716241
  0
VERTEX
  8
ordenamento_aeronautico
 10
-9.355112
 20
38.716239
  0
VERTEX
  8
ordenamento_aeronautico
 10
-9.355134
 20
38.716237
  0
VERTEX
  8
ordenamento_aeronautico
 10
-9.355156
 20
38.716235
  0
VERTEX
  8
ordenamento_aeronautico
 10
-9.355178
 20
38.716233
  0
VERTEX
  8
ordenamento_aeronautico
 10
-9.355199
 20
38.716231
  0
VERTEX
  8
ordenamento_aeronautico
 10
-9.355221
 20
38.716229
  0
VERTEX
  8
ordenamento_aeronautico
 10
-9.355243
 20
38.716227
  0
VERTEX
  8
ordenamento_aeronautico
 10
-9.355264
 20
38.716224
  0
VERTEX
  8
ordenamento_aeronautico
 10
-9.355286
 20
38.716222
  0
VERTEX
  8
ordenamento_aeronautico
 10
-9.355308
 20
38.716219
  0
VERTEX
  8
ordenamento_aeronautico
 10
-9.355329
 20
38.716216
  0
VERTEX
  8
ordenamento_aeronautico
 10
-9.355351
 20
38.716214
  0
VERTEX
  8
ordenamento_aeronautico
 10
-9.355372
 20
38.716211
  0
VERTEX
  8
ordenamento_aeronautico
 10
-9.355394
 20
38.716208
  0
VERTEX
  8
ordenamento_aeronautico
 10
-9.355416
 20
38.716205
  0
VERTEX
  8
ordenamento_aeronautico
 10
-9.355437
 20
38.716202
  0
VERTEX
  8
ordenamento_aeronautico
 10
-9.355459
 20
38.716199
  0
VERTEX
  8
ordenamento_aeronautico
 10
-9.355480
 20
38.716196
  0
VERTEX
  8
ordenamento_aeronautico
 10
-9.355502
 20
38.716192
  0
VERTEX
  8
ordenamento_aeronautico
 10
-9.355523
 20
38.716189
  0
VERTEX
  8
ordenamento_aeronautico
 10
-9.355545
 20
38.716186
  0
VERTEX
  8
ordenamento_aeronautico
 10
-9.355566
 20
38.716182
  0
VERTEX
  8
ordenamento_aeronautico
 10
-9.355578
 20
38.716177
  0
VERTEX
  8
ordenamento_aeronautico
 10
-9.355590
 20
38.716171
  0
VERTEX
  8
ordenamento_aeronautico
 10
-9.355602
 20
38.716166
  0
VERTEX
  8
ordenamento_aeronautico
 10
-9.355615
 20
38.716161
  0
VERTEX
  8
ordenamento_aeronautico
 10
-9.355627
 20
38.716156
  0
VERTEX
  8
ordenamento_aeronautico
 10
-9.355639
 20
38.716151
  0
VERTEX
  8
ordenamento_aeronautico
 10
-9.355652
 20
38.716147
  0
VERTEX
  8
ordenamento_aeronautico
 10
-9.355665
 20
38.716142
  0
VERTEX
  8
ordenamento_aeronautico
 10
-9.355678
 20
38.716138
  0
VERTEX
  8
ordenamento_aeronautico
 10
-9.355690
 20
38.716134
  0
VERTEX
  8
ordenamento_aeronautico
 10
-9.355703
 20
38.716130
  0
VERTEX
  8
ordenamento_aeronautico
 10
-9.355716
 20
38.716126
  0
VERTEX
  8
ordenamento_aeronautico
 10
-9.355729
 20
38.716123
  0
VERTEX
  8
ordenamento_aeronautico
 10
-9.355743
 20
38.716119
  0
VERTEX
  8
ordenamento_aeronautico
 10
-9.355756
 20
38.716116
  0
VERTEX
  8
ordenamento_aeronautico
 10
-9.355769
 20
38.716113
  0
VERTEX
  8
ordenamento_aeronautico
 10
-9.355783
 20
38.716110
  0
VERTEX
  8
ordenamento_aeronautico
 10
-9.355796
 20
38.716108
  0
VERTEX
  8
ordenamento_aeronautico
 10
-9.355810
 20
38.716105
  0
VERTEX
  8
ordenamento_aeronautico
 10
-9.355823
 20
38.716103
  0
VERTEX
  8
ordenamento_aeronautico
 10
-9.355837
 20
38.716101
  0
VERTEX
  8
ordenamento_aeronautico
 10
-9.355851
 20
38.716099
  0
VERTEX
  8
ordenamento_aeronautico
 10
-9.355864
 20
38.716097
  0
VERTEX
  8
ordenamento_aeronautico
 10
-9.355878
 20
38.716095
  0
VERTEX
  8
ordenamento_aeronautico
 10
-9.355892
 20
38.716094
  0
VERTEX
  8
ordenamento_aeronautico
 10
-9.355906
 20
38.716093
  0
VERTEX
  8
ordenamento_aeronautico
 10
-9.355919
 20
38.716092
  0
VERTEX
  8
ordenamento_aeronautico
 10
-9.355933
 20
38.716091
  0
VERTEX
  8
ordenamento_aeronautico
 10
-9.355947
 20
38.716091
  0
VERTEX
  8
ordenamento_aeronautico
 10
-9.355954
 20
38.716089
  0
VERTEX
  8
ordenamento_aeronautico
 10
-9.355960
 20
38.716088
  0
VERTEX
  8
ordenamento_aeronautico
 10
-9.355967
 20
38.716087
  0
VERTEX
  8
ordenamento_aeronautico
 10
-9.355973
 20
38.716085
  0
VERTEX
  8
ordenamento_aeronautico
 10
-9.355980
 20
38.716084
  0
VERTEX
  8
ordenamento_aeronautico
 10
-9.355987
 20
38.716083
  0
VERTEX
  8
ordenamento_aeronautico
 10
-9.355993
 20
38.716081
  0
VERTEX
  8
ordenamento_aeronautico
 10
-9.356000
 20
38.716080
  0
VERTEX
  8
ordenamento_aeronautico
 10
-9.356006
 20
38.716079
  0
VERTEX
  8
ordenamento_aeronautico
 10
-9.356013
 20
38.716077
  0
VERTEX
  8
ordenamento_aeronautico
 10
-9.356019
 20
38.716076
  0
VERTEX
  8
ordenamento_aeronautico
 10
-9.356026
 20
38.716075
  0
VERTEX
  8
ordenamento_aeronautico
 10
-9.356033
 20
38.716074
  0
VERTEX
  8
ordenamento_aeronautico
 10
-9.356039
 20
38.716073
  0
VERTEX
  8
ordenamento_aeronautico
 10
-9.356046
 20
38.716071
  0
VERTEX
  8
ordenamento_aeronautico
 10
-9.356052
 20
38.716070
  0
VERTEX
  8
ordenamento_aeronautico
 10
-9.356059
 20
38.716069
  0
VERTEX
  8
ordenamento_aeronautico
 10
-9.356066
 20
38.716068
  0
VERTEX
  8
ordenamento_aeronautico
 10
-9.356072
 20
38.716067
  0
VERTEX
  8
ordenamento_aeronautico
 10
-9.356079
 20
38.716066
  0
VERTEX
  8
ordenamento_aeronautico
 10
-9.356085
 20
38.716065
  0
VERTEX
  8
ordenamento_aeronautico
 10
-9.356092
 20
38.716064
  0
VERTEX
  8
ordenamento_aeronautico
 10
-9.356099
 20
38.716063
  0
VERTEX
  8
ordenamento_aeronautico
 10
-9.356105
 20
38.716061
  0
VERTEX
  8
ordenamento_aeronautico
 10
-9.356112
 20
38.716060
  0
VERTEX
  8
ordenamento_aeronautico
 10
-9.356119
 20
38.716059
  0
VERTEX
  8
ordenamento_aeronautico
 10
-9.356125
 20
38.716058
  0
VERTEX
  8
ordenamento_aeronautico
 10
-9.356132
 20
38.716057
  0
VERTEX
  8
ordenamento_aeronautico
 10
-9.356139
 20
38.716056
  0
VERTEX
  8
ordenamento_aeronautico
 10
-9.356152
 20
38.716055
  0
VERTEX
  8
ordenamento_aeronautico
 10
-9.356165
 20
38.716053
  0
VERTEX
  8
ordenamento_aeronautico
 10
-9.356179
 20
38.716052
  0
VERTEX
  8
ordenamento_aeronautico
 10
-9.356192
 20
38.716050
  0
VERTEX
  8
ordenamento_aeronautico
 10
-9.356205
 20
38.716049
  0
VERTEX
  8
ordenamento_aeronautico
 10
-9.356219
 20
38.716048
  0
VERTEX
  8
ordenamento_aeronautico
 10
-9.356232
 20
38.716046
  0
VERTEX
  8
ordenamento_aeronautico
 10
-9.356246
 20
38.716045
  0
VERTEX
  8
ordenamento_aeronautico
 10
-9.356259
 20
38.716044
  0
VERTEX
  8
ordenamento_aeronautico
 10
-9.356272
 20
38.716042
  0
VERTEX
  8
ordenamento_aeronautico
 10
-9.356286
 20
38.716041
  0
VERTEX
  8
ordenamento_aeronautico
 10
-9.356299
 20
38.716040
  0
VERTEX
  8
ordenamento_aeronautico
 10
-9.356312
 20
38.716039
  0
VERTEX
  8
ordenamento_aeronautico
 10
-9.356326
 20
38.716038
  0
VERTEX
  8
ordenamento_aeronautico
 10
-9.356339
 20
38.716037
  0
VERTEX
  8
ordenamento_aeronautico
 10
-9.356353
 20
38.716036
  0
VERTEX
  8
ordenamento_aeronautico
 10
-9.356366
 20
38.716035
  0
VERTEX
  8
ordenamento_aeronautico
 10
-9.356380
 20
38.716034
  0
VERTEX
  8
ordenamento_aeronautico
 10
-9.356393
 20
38.716033
  0
VERTEX
  8
ordenamento_aeronautico
 10
-9.356406
 20
38.716032
  0
VERTEX
  8
ordenamento_aeronautico
 10
-9.356420
 20
38.716031
  0
VERTEX
  8
ordenamento_aeronautico
 10
-9.356433
 20
38.716030
  0
VERTEX
  8
ordenamento_aeronautico
 10
-9.356447
 20
38.716029
  0
VERTEX
  8
ordenamento_aeronautico
 10
-9.356460
 20
38.716029
  0
VERTEX
  8
ordenamento_aeronautico
 10
-9.356473
 20
38.716028
  0
VERTEX
  8
ordenamento_aeronautico
 10
-9.356487
 20
38.716027
  0
VERTEX
  8
ordenamento_aeronautico
 10
-9.356500
 20
38.716027
  0
VERTEX
  8
ordenamento_aeronautico
 10
-9.356514
 20
38.716026
  0
VERTEX
  8
ordenamento_aeronautico
 10
-9.356527
 20
38.716025
  0
VERTEX
  8
ordenamento_aeronautico
 10
-9.356537
 20
38.716025
  0
VERTEX
  8
ordenamento_aeronautico
 10
-9.356547
 20
38.716025
  0
VERTEX
  8
ordenamento_aeronautico
 10
-9.356557
 20
38.716024
  0
VERTEX
  8
ordenamento_aeronautico
 10
-9.356567
 20
38.716024
  0
VERTEX
  8
ordenamento_aeronautico
 10
-9.356577
 20
38.716023
  0
VERTEX
  8
ordenamento_aeronautico
 10
-9.356587
 20
38.716022
  0
VERTEX
  8
ordenamento_aeronautico
 10
-9.356597
 20
38.716022
  0
VERTEX
  8
ordenamento_aeronautico
 10
-9.356607
 20
38.716021
  0
VERTEX
  8
ordenamento_aeronautico
 10
-9.356617
 20
38.716020
  0
VERTEX
  8
ordenamento_aeronautico
 10
-9.356627
 20
38.716019
  0
VERTEX
  8
ordenamento_aeronautico
 10
-9.356637
 20
38.716019
  0
VERTEX
  8
ordenamento_aeronautico
 10
-9.356646
 20
38.716018
  0
VERTEX
  8
ordenamento_aeronautico
 10
-9.356656
 20
38.716017
  0
VERTEX
  8
ordenamento_aeronautico
 10
-9.356666
 20
38.716016
  0
VERTEX
  8
ordenamento_aeronautico
 10
-9.356676
 20
38.716015
  0
VERTEX
  8
ordenamento_aeronautico
 10
-9.356686
 20
38.716013
  0
VERTEX
  8
ordenamento_aeronautico
 10
-9.356696
 20
38.716012
  0
VERTEX
  8
ordenamento_aeronautico
 10
-9.356706
 20
38.716011
  0
VERTEX
  8
ordenamento_aeronautico
 10
-9.356715
 20
38.716010
  0
VERTEX
  8
ordenamento_aeronautico
 10
-9.356725
 20
38.716008
  0
VERTEX
  8
ordenamento_aeronautico
 10
-9.356735
 20
38.716007
  0
VERTEX
  8
ordenamento_aeronautico
 10
-9.356745
 20
38.716006
  0
VERTEX
  8
ordenamento_aeronautico
 10
-9.356755
 20
38.716004
  0
VERTEX
  8
ordenamento_aeronautico
 10
-9.356764
 20
38.716003
  0
VERTEX
  8
ordenamento_aeronautico
 10
-9.356774
 20
38.716001
  0
VERTEX
  8
ordenamento_aeronautico
 10
-9.356784
 20
38.715999
  0
VERTEX
  8
ordenamento_aeronautico
 10
-9.356794
 20
38.715998
  0
VERTEX
  8
ordenamento_aeronautico
 10
-9.356803
 20
38.715996
  0
VERTEX
  8
ordenamento_aeronautico
 10
-9.356813
 20
38.715994
  0
VERTEX
  8
ordenamento_aeronautico
 10
-9.356819
 20
38.715995
  0
VERTEX
  8
ordenamento_aeronautico
 10
-9.356826
 20
38.715996
  0
VERTEX
  8
ordenamento_aeronautico
 10
-9.356832
 20
38.715996
  0
VERTEX
  8
ordenamento_aeronautico
 10
-9.356838
 20
38.715997
  0
VERTEX
  8
ordenamento_aeronautico
 10
-9.356844
 20
38.715998
  0
VERTEX
  8
ordenamento_aeronautico
 10
-9.356851
 20
38.715998
  0
VERTEX
  8
ordenamento_aeronautico
 10
-9.356857
 20
38.715999
  0
VERTEX
  8
ordenamento_aeronautico
 10
-9.356863
 20
38.716000
  0
VERTEX
  8
ordenamento_aeronautico
 10
-9.356870
 20
38.716000
  0
VERTEX
  8
ordenamento_aeronautico
 10
-9.356876
 20
38.716001
  0
VERTEX
  8
ordenamento_aeronautico
 10
-9.356882
 20
38.716001
  0
VERTEX
  8
ordenamento_aeronautico
 10
-9.356888
 20
38.716002
  0
VERTEX
  8
ordenamento_aeronautico
 10
-9.356895
 20
38.716003
  0
VERTEX
  8
ordenamento_aeronautico
 10
-9.356901
 20
38.716003
  0
VERTEX
  8
ordenamento_aeronautico
 10
-9.356907
 20
38.716003
  0
VERTEX
  8
ordenamento_aeronautico
 10
-9.356914
 20
38.716004
  0
VERTEX
  8
ordenamento_aeronautico
 10
-9.356920
 20
38.716004
  0
VERTEX
  8
ordenamento_aeronautico
 10
-9.356926
 20
38.716005
  0
VERTEX
  8
ordenamento_aeronautico
 10
-9.356933
 20
38.716005
  0
VERTEX
  8
ordenamento_aeronautico
 10
-9.356939
 20
38.716006
  0
VERTEX
  8
ordenamento_aeronautico
 10
-9.356945
 20
38.716006
  0
VERTEX
  8
ordenamento_aeronautico
 10
-9.356952
 20
38.716006
  0
VERTEX
  8
ordenamento_aeronautico
 10
-9.356958
 20
38.716007
  0
VERTEX
  8
ordenamento_aeronautico
 10
-9.356964
 20
38.716007
  0
VERTEX
  8
ordenamento_aeronautico
 10
-9.356971
 20
38.716007
  0
VERTEX
  8
ordenamento_aeronautico
 10
-9.356977
 20
38.716008
  0
VERTEX
  8
ordenamento_aeronautico
 10
-9.356983
 20
38.716008
  0
VERTEX
  8
ordenamento_aeronautico
 10
-9.356990
 20
38.716008
  0
VERTEX
  8
ordenamento_aeronautico
 10
-9.356996
 20
38.716008
  0
VERTEX
  8
ordenamento_aeronautico
 10
-9.357003
 20
38.716009
  0
VERTEX
  8
ordenamento_aeronautico
 10
-9.357010
 20
38.716010
  0
VERTEX
  8
ordenamento_aeronautico
 10
-9.357017
 20
38.716011
  0
VERTEX
  8
ordenamento_aeronautico
 10
-9.357025
 20
38.716011
  0
VERTEX
  8
ordenamento_aeronautico
 10
-9.357032
 20
38.716012
  0
VERTEX
  8
ordenamento_aeronautico
 10
-9.357039
 20
38.716013
  0
VERTEX
  8
ordenamento_aeronautico
 10
-9.357046
 20
38.716014
  0
VERTEX
  8
ordenamento_aeronautico
 10
-9.357053
 20
38.716014
  0
VERTEX
  8
ordenamento_aeronautico
 10
-9.357061
 20
38.716015
  0
VERTEX
  8
ordenamento_aeronautico
 10
-9.357068
 20
38.716015
  0
VERTEX
  8
ordenamento_aeronautico
 10
-9.357075
 20
38.716016
  0
VERTEX
  8
ordenamento_aeronautico
 10
-9.357082
 20
38.716017
  0
VERTEX
  8
ordenamento_aeronautico
 10
-9.357089
 20
38.716017
  0
VERTEX
  8
ordenamento_aeronautico
 10
-9.357097
 20
38.716018
  0
VERTEX
  8
ordenamento_aeronautico
 10
-9.357104
 20
38.716019
  0
VERTEX
  8
ordenamento_aeronautico
 10
-9.357111
 20
38.716019
  0
VERTEX
  8
ordenamento_aeronautico
 10
-9.357118
 20
38.716020
  0
VERTEX
  8
ordenamento_aeronautico
 10
-9.357125
 20
38.716020
  0
VERTEX
  8
ordenamento_aeronautico
 10
-9.357133
 20
38.716021
  0
VERTEX
  8
ordenamento_aeronautico
 10
-9.357140
 20
38.716022
  0
VERTEX
  8
ordenamento_aeronautico
 10
-9.357147
 20
38.716022
  0
VERTEX
  8
ordenamento_aeronautico
 10
-9.357154
 20
38.716023
  0
VERTEX
  8
ordenamento_aeronautico
 10
-9.357161
 20
38.716023
  0
VERTEX
  8
ordenamento_aeronautico
 10
-9.357169
 20
38.716024
  0
VERTEX
  8
ordenamento_aeronautico
 10
-9.357176
 20
38.716025
  0
VERTEX
  8
ordenamento_aeronautico
 10
-9.357183
 20
38.716025
  0
VERTEX
  8
ordenamento_aeronautico
 10
-9.357190
 20
38.716026
  0
VERTEX
  8
ordenamento_aeronautico
 10
-9.357198
 20
38.716026
  0
VERTEX
  8
ordenamento_aeronautico
 10
-9.357201
 20
38.716026
  0
VERTEX
  8
ordenamento_aeronautico
 10
-9.357297
 20
38.715540
  0
VERTEX
  8
ordenamento_aeronautico
 10
-9.357799
 20
38.715420
  0
VERTEX
  8
ordenamento_aeronautico
 10
-9.357841
 20
38.715472
  0
VERTEX
  8
ordenamento_aeronautico
 10
-9.358156
 20
38.715764
  0
VERTEX
  8
ordenamento_aeronautico
 10
-9.358583
 20
38.716117
  0
VERTEX
  8
ordenamento_aeronautico
 10
-9.358031
 20
38.716557
  0
VERTEX
  8
ordenamento_aeronautico
 10
-9.357992
 20
38.716728
  0
VERTEX
  8
ordenamento_aeronautico
 10
-9.357969
 20
38.716894
  0
VERTEX
  8
ordenamento_aeronautico
 10
-9.357945
 20
38.717090
  0
VERTEX
  8
ordenamento_aeronautico
 10
-9.357945
 20
38.717090
  0
VERTEX
  8
ordenamento_aeronautico
 10
-9.357945
 20
38.717091
  0
VERTEX
  8
ordenamento_aeronautico
 10
-9.357945
 20
38.717091
  0
VERTEX
  8
ordenamento_aeronautico
 10
-9.357945
 20
38.717091
  0
VERTEX
  8
ordenamento_aeronautico
 10
-9.357945
 20
38.717092
  0
VERTEX
  8
ordenamento_aeronautico
 10
-9.357945
 20
38.717092
  0
VERTEX
  8
ordenamento_aeronautico
 10
-9.357945
 20
38.717093
  0
VERTEX
  8
ordenamento_aeronautico
 10
-9.357945
 20
38.717093
  0
VERTEX
  8
ordenamento_aeronautico
 10
-9.357945
 20
38.717093
  0
VERTEX
  8
ordenamento_aeronautico
 10
-9.357945
 20
38.717094
  0
VERTEX
  8
ordenamento_aeronautico
 10
-9.357945
 20
38.717094
  0
VERTEX
  8
ordenamento_aeronautico
 10
-9.357946
 20
38.717094
  0
VERTEX
  8
ordenamento_aeronautico
 10
-9.357946
 20
38.717095
  0
VERTEX
  8
ordenamento_aeronautico
 10
-9.357946
 20
38.717095
  0
VERTEX
  8
ordenamento_aeronautico
 10
-9.357946
 20
38.717095
  0
VERTEX
  8
ordenamento_aeronautico
 10
-9.357946
 20
38.717096
  0
VERTEX
  8
ordenamento_aeronautico
 10
-9.357946
 20
38.717096
  0
VERTEX
  8
ordenamento_aeronautico
 10
-9.357946
 20
38.717096
  0
VERTEX
  8
ordenamento_aeronautico
 10
-9.357946
 20
38.717097
  0
VERTEX
  8
ordenamento_aeronautico
 10
-9.357946
 20
38.717097
  0
VERTEX
  8
ordenamento_aeronautico
 10
-9.357946
 20
38.717097
  0
VERTEX
  8
ordenamento_aeronautico
 10
-9.357946
 20
38.717098
  0
VERTEX
  8
ordenamento_aeronautico
 10
-9.357946
 20
38.717098
  0
VERTEX
  8
ordenamento_aeronautico
 10
-9.357946
 20
38.717099
  0
VERTEX
  8
ordenamento_aeronautico
 10
-9.357946
 20
38.717099
  0
VERTEX
  8
ordenamento_aeronautico
 10
-9.357947
 20
38.717099
  0
VERTEX
  8
ordenamento_aeronautico
 10
-9.357947
 20
38.717100
  0
VERTEX
  8
ordenamento_aeronautico
 10
-9.357947
 20
38.717100
  0
VERTEX
  8
ordenamento_aeronautico
 10
-9.357947
 20
38.717100
  0
VERTEX
  8
ordenamento_aeronautico
 10
-9.357849
 20
38.717495
  0
VERTEX
  8
ordenamento_aeronautico
 10
-9.357845
 20
38.717510
  0
VERTEX
  8
ordenamento_aeronautico
 10
-9.357842
 20
38.717525
  0
VERTEX
  8
ordenamento_aeronautico
 10
-9.357840
 20
38.717541
  0
VERTEX
  8
ordenamento_aeronautico
 10
-9.357838
 20
38.717556
  0
VERTEX
  8
ordenamento_aeronautico
 10
-9.357836
 20
38.717572
  0
VERTEX
  8
ordenamento_aeronautico
 10
-9.357835
 20
38.717587
  0
VERTEX
  8
ordenamento_aeronautico
 10
-9.357834
 20
38.717603
  0
VERTEX
  8
ordenamento_aeronautico
 10
-9.357834
 20
38.717618
  0
VERTEX
  8
ordenamento_aeronautico
 10
-9.357834
 20
38.717634
  0
VERTEX
  8
ordenamento_aeronautico
 10
-9.357834
 20
38.717650
  0
VERTEX
  8
ordenamento_aeronautico
 10
-9.357835
 20
38.717665
  0
VERTEX
  8
ordenamento_aeronautico
 10
-9.357837
 20
38.717681
  0
VERTEX
  8
ordenamento_aeronautico
 10
-9.357839
 20
38.717696
  0
VERTEX
  8
ordenamento_aeronautico
 10
-9.357841
 20
38.717712
  0
VERTEX
  8
ordenamento_aeronautico
 10
-9.357844
 20
38.717727
  0
VERTEX
  8
ordenamento_aeronautico
 10
-9.357847
 20
38.717743
  0
VERTEX
  8
ordenamento_aeronautico
 10
-9.357851
 20
38.717758
  0
VERTEX
  8
ordenamento_aeronautico
 10
-9.357855
 20
38.717773
  0
VERTEX
  8
ordenamento_aeronautico
 10
-9.357860
 20
38.717788
  0
VERTEX
  8
ordenamento_aeronautico
 10
-9.357864
 20
38.717803
  0
VERTEX
  8
ordenamento_aeronautico
 10
-9.357870
 20
38.717818
  0
VERTEX
  8
ordenamento_aeronautico
 10
-9.357876
 20
38.717833
  0
VERTEX
  8
ordenamento_aeronautico
 10
-9.357882
 20
38.717848
  0
VERTEX
  8
ordenamento_aeronautico
 10
-9.357889
 20
38.717863
  0
VERTEX
  8
ordenamento_aeronautico
 10
-9.357896
 20
38.717877
  0
VERTEX
  8
ordenamento_aeronautico
 10
-9.357903
 20
38.717892
  0
VERTEX
  8
ordenamento_aeronautico
 10
-9.357911
 20
38.717906
  0
VERTEX
  8
ordenamento_aeronautico
 10
-9.357920
 20
38.717920
  0
VERTEX
  8
ordenamento_aeronautico
 10
-9.357928
 20
38.717934
  0
VERTEX
  8
ordenamento_aeronautico
 10
-9.357933
 20
38.717946
  0
VERTEX
  8
ordenamento_aeronautico
 10
-9.357939
 20
38.717958
  0
VERTEX
  8
ordenamento_aeronautico
 10
-9.357944
 20
38.717969
  0
VERTEX
  8
ordenamento_aeronautico
 10
-9.357950
 20
38.717981
  0
VERTEX
  8
ordenamento_aeronautico
 10
-9.357956
 20
38.717993
  0
VERTEX
  8
ordenamento_aeronautico
 10
-9.357962
 20
38.718004
  0
VERTEX
  8
ordenamento_aeronautico
 10
-9.357968
 20
38.718015
  0
VERTEX
  8
ordenamento_aeronautico
 10
-9.357975
 20
38.718027
  0
VERTEX
  8
ordenamento_aeronautico
 10
-9.357981
 20
38.718038
  0
VERTEX
  8
ordenamento_aeronautico
 10
-9.357988
 20
38.718049
  0
VERTEX
  8
ordenamento_aeronautico
 10
-9.357995
 20
38.718061
  0
VERTEX
  8
ordenamento_aeronautico
 10
-9.358003
 20
38.718072
  0
VERTEX
  8
ordenamento_aeronautico
 10
-9.358010
 20
38.718083
  0
VERTEX
  8
ordenamento_aeronautico
 10
-9.358018
 20
38.718094
  0
VERTEX
  8
ordenamento_aeronautico
 10
-9.358025
 20
38.718104
  0
VERTEX
  8
ordenamento_aeronautico
 10
-9.358033
 20
38.718115
  0
VERTEX
  8
ordenamento_aeronautico
 10
-9.358041
 20
38.718126
  0
VERTEX
  8
ordenamento_aeronautico
 10
-9.358050
 20
38.718137
  0
VERTEX
  8
ordenamento_aeronautico
 10
-9.358058
 20
38.718147
  0
VERTEX
  8
ordenamento_aeronautico
 10
-9.358067
 20
38.718157
  0
VERTEX
  8
ordenamento_aeronautico
 10
-9.358076
 20
38.718168
  0
VERTEX
  8
ordenamento_aeronautico
 10
-9.358085
 20
38.718178
  0
VERTEX
  8
ordenamento_aeronautico
 10
-9.358094
 20
38.718188
  0
VERTEX
  8
ordenamento_aeronautico
 10
-9.358103
 20
38.718198
  0
VERTEX
  8
ordenamento_aeronautico
 10
-9.358113
 20
38.718208
  0
VERTEX
  8
ordenamento_aeronautico
 10
-9.358122
 20
38.718218
  0
VERTEX
  8
ordenamento_aeronautico
 10
-9.358132
 20
38.718228
  0
VERTEX
  8
ordenamento_aeronautico
 10
-9.358142
 20
38.718238
  0
VERTEX
  8
ordenamento_aeronautico
 10
-9.358152
 20
38.718247
  0
VERTEX
  8
ordenamento_aeronautico
 10
-9.358157
 20
38.718256
  0
VERTEX
  8
ordenamento_aeronautico
 10
-9.358162
 20
38.718265
  0
VERTEX
  8
ordenamento_aeronautico
 10
-9.358167
 20
38.718275
  0
VERTEX
  8
ordenamento_aeronautico
 10
-9.358172
 20
38.718284
  0
VERTEX
  8
ordenamento_aeronautico
 10
-9.358178
 20
38.718293
  0
VERTEX
  8
ordenamento_aeronautico
 10
-9.358183
 20
38.718302
  0
VERTEX
  8
ordenamento_aeronautico
 10
-9.358189
 20
38.718311
  0
VERTEX
  8
ordenamento_aeronautico
 10
-9.358194
 20
38.718319
  0
VERTEX
  8
ordenamento_aeronautico
 10
-9.358200
 20
38.718328
  0
VERTEX
  8
ordenamento_aeronautico
 10
-9.358206
 20
38.718337
  0
VERTEX
  8
ordenamento_aeronautico
 10
-9.358213
 20
38.718345
  0
VERTEX
  8
ordenamento_aeronautico
 10
-9.358219
 20
38.718354
  0
VERTEX
  8
ordenamento_aeronautico
 10
-9.358225
 20
38.718363
  0
VERTEX
  8
ordenamento_aeronautico
 10
-9.358232
 20
38.718371
  0
VERTEX
  8
ordenamento_aeronautico
 10
-9.358239
 20
38.718379
  0
VERTEX
  8
ordenamento_aeronautico
 10
-9.358245
 20
38.718388
  0
VERTEX
  8
ordenamento_aeronautico
 10
-9.358253
 20
38.718396
  0
VERTEX
  8
ordenamento_aeronautico
 10
-9.358260
 20
38.718404
  0
VERTEX
  8
ordenamento_aeronautico
 10
-9.358267
 20
38.718412
  0
VERTEX
  8
ordenamento_aeronautico
 10
-9.358274
 20
38.718420
  0
VERTEX
  8
ordenamento_aeronautico
 10
-9.358282
 20
38.718428
  0
VERTEX
  8
ordenamento_aeronautico
 10
-9.358289
 20
38.718436
  0
VERTEX
  8
ordenamento_aeronautico
 10
-9.358297
 20
38.718444
  0
VERTEX
  8
ordenamento_aeronautico
 10
-9.358305
 20
38.718452
  0
VERTEX
  8
ordenamento_aeronautico
 10
-9.358313
 20
38.718460
  0
VERTEX
  8
ordenamento_aeronautico
 10
-9.358321
 20
38.718467
  0
VERTEX
  8
ordenamento_aeronautico
 10
-9.358329
 20
38.718475
  0
VERTEX
  8
ordenamento_aeronautico
 10
-9.358338
 20
38.718482
  0
VERTEX
  8
ordenamento_aeronautico
 10
-9.358346
 20
38.718489
  0
VERTEX
  8
ordenamento_aeronautico
 10
-9.358357
 20
38.718500
  0
VERTEX
  8
ordenamento_aeronautico
 10
-9.358368
 20
38.718511
  0
VERTEX
  8
ordenamento_aeronautico
 10
-9.358378
 20
38.718522
  0
VERTEX
  8
ordenamento_aeronautico
 10
-9.358388
 20
38.718533
  0
VERTEX
  8
ordenamento_aeronautico
 10
-9.358399
 20
38.718544
  0
VERTEX
  8
ordenamento_aeronautico
 10
-9.358409
 20
38.718555
  0
VERTEX
  8
ordenamento_aeronautico
 10
-9.358419
 20
38.718566
  0
VERTEX
  8
ordenamento_aeronautico
 10
-9.358429
 20
38.718577
  0
VERTEX
  8
ordenamento_aeronautico
 10
-9.358439
 20
38.718588
  0
VERTEX
  8
ordenamento_aeronautico
 10
-9.358449
 20
38.718599
  0
VERTEX
  8
ordenamento_aeronautico
 10
-9.358459
 20
38.718610
  0
VERTEX
  8
ordenamento_aeronautico
 10
-9.358468
 20
38.718622
  0
VERTEX
  8
ordenamento_aeronautico
 10
-9.358478
 20
38.718633
  0
VERTEX
  8
ordenamento_aeronautico
 10
-9.358487
 20
38.718645
  0
VERTEX
  8
ordenamento_aeronautico
 10
-9.358496
 20
38.718656
  0
VERTEX
  8
ordenamento_aeronautico
 10
-9.358506
 20
38.718668
  0
VERTEX
  8
ordenamento_aeronautico
 10
-9.358515
 20
38.718679
  0
VERTEX
  8
ordenamento_aeronautico
 10
-9.358524
 20
38.718691
  0
VERTEX
  8
ordenamento_aeronautico
 10
-9.358533
 20
38.718702
  0
VERTEX
  8
ordenamento_aeronautico
 10
-9.358541
 20
38.718714
  0
VERTEX
  8
ordenamento_aeronautico
 10
-9.358550
 20
38.718726
  0
VERTEX
  8
ordenamento_aeronautico
 10
-9.358559
 20
38.718738
  0
VERTEX
  8
ordenamento_aeronautico
 10
-9.358567
 20
38.718750
  0
VERTEX
  8
ordenamento_aeronautico
 10
-9.358576
 20
38.718762
  0
VERTEX
  8
ordenamento_aeronautico
 10
-9.358584
 20
38.718774
  0
VERTEX
  8
ordenamento_aeronautico
 10
-9.358592
 20
38.718786
  0
VERTEX
  8
ordenamento_aeronautico
 10
-9.358600
 20
38.718797
  0
VERTEX
  8
ordenamento_aeronautico
 10
-9.358608
 20
38.718810
  0
VERTEX
  8
ordenamento_aeronautico
 10
-9.358616
 20
38.718822
  0
VERTEX
  8
ordenamento_aeronautico
 10
-9.358639
 20
38.718858
  0
VERTEX
  8
ordenamento_aeronautico
 10
-9.358661
 20
38.718895
  0
VERTEX
  8
ordenamento_aeronautico
 10
-9.358683
 20
38.718932
  0
VERTEX
  8
ordenamento_aeronautico
 10
-9.358703
 20
38.718969
  0
VERTEX
  8
ordenamento_aeronautico
 10
-9.358724
 20
38.719006
  0
VERTEX
  8
ordenamento_aeronautico
 10
-9.358744
 20
38.719043
  0
VERTEX
  8
ordenamento_aeronautico
 10
-9.358763
 20
38.719081
  0
VERTEX
  8
ordenamento_aeronautico
 10
-9.358781
 20
38.719119
  0
VERTEX
  8
ordenamento_aeronautico
 10
-9.358799
 20
38.719157
  0
VERTEX
  8
ordenamento_aeronautico
 10
-9.358817
 20
38.719195
  0
VERTEX
  8
ordenamento_aeronautico
 10
-9.358834
 20
38.719234
  0
VERTEX
  8
ordenamento_aeronautico
 10
-9.358850
 20
38.719272
  0
VERTEX
  8
ordenamento_aeronautico
 10
-9.358865
 20
38.719311
  0
VERTEX
  8
ordenamento_aeronautico
 10
-9.358880
 20
38.719350
  0
VERTEX
  8
ordenamento_aeronautico
 10
-9.358894
 20
38.719389
  0
VERTEX
  8
ordenamento_aeronautico
 10
-9.358908
 20
38.719428
  0
VERTEX
  8
ordenamento_aeronautico
 10
-9.358921
 20
38.719467
  0
VERTEX
  8
ordenamento_aeronautico
 10
-9.358933
 20
38.719506
  0
VERTEX
  8
ordenamento_aeronautico
 10
-9.358945
 20
38.719546
  0
VERTEX
  8
ordenamento_aeronautico
 10
-9.358956
 20
38.719585
  0
VERTEX
  8
ordenamento_aeronautico
 10
-9.358966
 20
38.719625
  0
VERTEX
  8
ordenamento_aeronautico
 10
-9.358976
 20
38.719665
  0
VERTEX
  8
ordenamento_aeronautico
 10
-9.358986
 20
38.719705
  0
VERTEX
  8
ordenamento_aeronautico
 10
-9.358994
 20
38.719745
  0
VERTEX
  8
ordenamento_aeronautico
 10
-9.359002
 20
38.719785
  0
VERTEX
  8
ordenamento_aeronautico
 10
-9.359009
 20
38.719825
  0
VERTEX
  8
ordenamento_aeronautico
 10
-9.359016
 20
38.719865
  0
VERTEX
  8
ordenamento_aeronautico
 10
-9.359022
 20
38.719906
  0
VERTEX
  8
ordenamento_aeronautico
 10
-9.359027
 20
38.719946
  0
VERTEX
  8
ordenamento_aeronautico
 10
-9.359098
 20
38.721181
  0
VERTEX
  8
ordenamento_aeronautico
 10
-9.359211
 20
38.722239
  0
VERTEX
  8
ordenamento_aeronautico
 10
-9.359248
 20
38.722587
  0
VERTEX
  8
ordenamento_aeronautico
 10
-9.359301
 20
38.723065
  0
VERTEX
  8
ordenamento_aeronautico
 10
-9.359428
 20
38.723443
  0
VERTEX
  8
ordenamento_aeronautico
 10
-9.359861
 20
38.723526
  0
VERTEX
  8
ordenamento_aeronautico
 10
-9.360019
 20
38.724001
  0
VERTEX
  8
ordenamento_aeronautico
 10
-9.359720
 20
38.724297
  0
VERTEX
  8
ordenamento_aeronautico
 10
-9.359174
 20
38.724441
  0
VERTEX
  8
ordenamento_aeronautico
 10
-9.359194
 20
38.724490
  0
VERTEX
  8
ordenamento_aeronautico
 10
-9.359198
 20
38.724500
  0
VERTEX
  8
ordenamento_aeronautico
 10
-9.359202
 20
38.724509
  0
VERTEX
  8
ordenamento_aeronautico
 10
-9.359207
 20
38.724519
  0
VERTEX
  8
ordenamento_aeronautico
 10
-9.359211
 20
38.724529
  0
VERTEX
  8
ordenamento_aeronautico
 10
-9.359215
 20
38.724539
  0
VERTEX
  8
ordenamento_aeronautico
 10
-9.359219
 20
38.724549
  0
VERTEX
  8
ordenamento_aeronautico
 10
-9.359223
 20
38.724559
  0
VERTEX
  8
ordenamento_aeronautico
 10
-9.359227
 20
38.724568
  0
VERTEX
  8
ordenamento_aeronautico
 10
-9.359231
 20
38.724578
  0
VERTEX
  8
ordenamento_aeronautico
 10
-9.359236
 20
38.724588
  0
VERTEX
  8
ordenamento_aeronautico
 10
-9.359240
 20
38.724598
  0
VERTEX
  8
ordenamento_aeronautico
 10
-9.359244
 20
38.724607
  0
VERTEX
  8
ordenamento_aeronautico
 10
-9.359249
 20
38.724617
  0
VERTEX
  8
ordenamento_aeronautico
 10
-9.359253
 20
38.724627
  0
VERTEX
  8
ordenamento_aeronautico
 10
-9.359257
 20
38.724637
  0
VERTEX
  8
ordenamento_aeronautico
 10
-9.359262
 20
38.724646
  0
VERTEX
  8
ordenamento_aeronautico
 10
-9.359266
 20
38.724656
  0
VERTEX
  8
ordenamento_aeronautico
 10
-9.359271
 20
38.724666
  0
VERTEX
  8
ordenamento_aeronautico
 10
-9.359275
 20
38.724676
  0
VERTEX
  8
ordenamento_aeronautico
 10
-9.359279
 20
38.724685
  0
VERTEX
  8
ordenamento_aeronautico
 10
-9.359284
 20
38.724695
  0
VERTEX
  8
ordenamento_aeronautico
 10
-9.359289
 20
38.724705
  0
VERTEX
  8
ordenamento_aeronautico
 10
-9.359293
 20
38.724715
  0
VERTEX
  8
ordenamento_aeronautico
 10
-9.359298
 20
38.724724
  0
VERTEX
  8
ordenamento_aeronautico
 10
-9.359344
 20
38.724824
  0
VERTEX
  8
ordenamento_aeronautico
 10
-9.358930
 20
38.724927
  0
VERTEX
  8
ordenamento_aeronautico
 10
-9.359086
 20
38.725209
  0
VERTEX
  8
ordenamento_aeronautico
 10
-9.358836
 20
38.725265
  0
VERTEX
  8
ordenamento_aeronautico
 10
-9.359004
 20
38.725585
  0
VERTEX
  8
ordenamento_aeronautico
 10
-9.358736
 20
38.725654
  0
VERTEX
  8
ordenamento_aeronautico
 10
-9.358466
 20
38.725723
  0
VERTEX
  8
ordenamento_aeronautico
 10
-9.358457
 20
38.725725
  0
VERTEX
  8
ordenamento_aeronautico
 10
-9.358457
 20
38.725725
  0
VERTEX
  8
ordenamento_aeronautico
 10
-9.358509
 20
38.725895
  0
VERTEX
  8
ordenamento_aeronautico
 10
-9.358450
 20
38.725905
  0
VERTEX
  8
ordenamento_aeronautico
 10
-9.358403
 20
38.726037
  0
VERTEX
  8
ordenamento_aeronautico
 10
-9.358384
 20
38.726221
  0
VERTEX
  8
ordenamento_aeronautico
 10
-9.358093
 20
38.726297
  0
VERTEX
  8
ordenamento_aeronautico
 10
-9.358108
 20
38.726384
  0
VERTEX
  8
ordenamento_aeronautico
 10
-9.358108
 20
38.726384
  0
VERTEX
  8
ordenamento_aeronautico
 10
-9.358135
 20
38.726631
  0
VERTEX
  8
ordenamento_aeronautico
 10
-9.358131
 20
38.726710
  0
VERTEX
  8
ordenamento_aeronautico
 10
-9.358081
 20
38.726950
  0
VERTEX
  8
ordenamento_aeronautico
 10
-9.358047
 20
38.727150
  0
VERTEX
  8
ordenamento_aeronautico
 10
-9.358044
 20
38.727232
  0
VERTEX
  8
ordenamento_aeronautico
 10
-9.358050
 20
38.727478
  0
VERTEX
  8
ordenamento_aeronautico
 10
-9.358069
 20
38.727713
  0
VERTEX
  8
ordenamento_aeronautico
 10
-9.358106
 20
38.727927
  0
VERTEX
  8
ordenamento_aeronautico
 10
-9.358158
 20
38.728170
  0
VERTEX
  8
ordenamento_aeronautico
 10
-9.358245
 20
38.728578
  0
VERTEX
  8
ordenamento_aeronautico
 10
-9.358246
 20
38.728624
  0
VERTEX
  8
ordenamento_aeronautico
 10
-9.357637
 20
38.728612
  0
VERTEX
  8
ordenamento_aeronautico
 10
-9.357588
 20
38.728618
  0
VERTEX
  8
ordenamento_aeronautico
 10
-9.357680
 20
38.729025
  0
VERTEX
  8
ordenamento_aeronautico
 10
-9.357771
 20
38.729419
  0
VERTEX
  8
ordenamento_aeronautico
 10
-9.357974
 20
38.730289
  0
VERTEX
  8
ordenamento_aeronautico
 10
-9.358332
 20
38.731271
  0
VERTEX
  8
ordenamento_aeronautico
 10
-9.358690
 20
38.732254
  0
VERTEX
  8
ordenamento_aeronautico
 10
-9.359158
 20
38.732213
  0
VERTEX
  8
ordenamento_aeronautico
 10
-9.359576
 20
38.732120
  0
VERTEX
  8
ordenamento_aeronautico
 10
-9.360046
 20
38.733412
  0
VERTEX
  8
ordenamento_aeronautico
 10
-9.359182
 20
38.733605
  0
VERTEX
  8
ordenamento_aeronautico
 10
-9.359632
 20
38.734841
  0
VERTEX
  8
ordenamento_aeronautico
 10
-9.357973
 20
38.735212
  0
VERTEX
  8
ordenamento_aeronautico
 10
-9.357523
 20
38.733975
  0
SEQEND
  0
POLYLINE
  8
ordenamento_aeronautico
  6
BYLAYER
 66
1
 70
1
 40
0.000000
 41
0.000000
  0
VERTEX
  8
ordenamento_aeronautico
 10
-9.329526
 20
38.718048
  0
VERTEX
  8
ordenamento_aeronautico
 10
-9.329582
 20
38.716477
  0
VERTEX
  8
ordenamento_aeronautico
 10
-9.329813
 20
38.714916
  0
VERTEX
  8
ordenamento_aeronautico
 10
-9.330216
 20
38.713377
  0
VERTEX
  8
ordenamento_aeronautico
 10
-9.330789
 20
38.711871
  0
VERTEX
  8
ordenamento_aeronautico
 10
-9.331527
 20
38.710409
  0
VERTEX
  8
ordenamento_aeronautico
 10
-9.332425
 20
38.709004
  0
VERTEX
  8
ordenamento_aeronautico
 10
-9.333476
 20
38.707666
  0
VERTEX
  8
ordenamento_aeronautico
 10
-9.334672
 20
38.706404
  0
VERTEX
  8
ordenamento_aeronautico
 10
-9.336003
 20
38.705229
  0
VERTEX
  8
ordenamento_aeronautico
 10
-9.337460
 20
38.704149
  0
VERTEX
  8
ordenamento_aeronautico
 10
-9.339032
 20
38.703172
  0
VERTEX
  8
ordenamento_aeronautico
 10
-9.340706
 20
38.702307
  0
VERTEX
  8
ordenamento_aeronautico
 10
-9.342470
 20
38.701560
  0
VERTEX
  8
ordenamento_aeronautico
 10
-9.344310
 20
38.700935
  0
VERTEX
  8
ordenamento_aeronautico
 10
-9.346213
 20
38.700439
  0
VERTEX
  8
ordenamento_aeronautico
 10
-9.348164
 20
38.700074
  0
VERTEX
  8
ordenamento_aeronautico
 10
-9.350148
 20
38.699844
  0
VERTEX
  8
ordenamento_aeronautico
 10
-9.352149
 20
38.699751
  0
VERTEX
  8
ordenamento_aeronautico
 10
-9.354154
 20
38.699794
  0
VERTEX
  8
ordenamento_aeronautico
 10
-9.356146
 20
38.699974
  0
VERTEX
  8
ordenamento_aeronautico
 10
-9.358111
 20
38.700290
  0
VERTEX
  8
ordenamento_aeronautico
 10
-9.360033
 20
38.700738
  0
VERTEX
  8
ordenamento_aeronautico
 10
-9.361898
 20
38.701316
  0
VERTEX
  8
ordenamento_aeronautico
 10
-9.363691
 20
38.702019
  0
VERTEX
  8
ordenamento_aeronautico
 10
-9.365400
 20
38.702842
  0
VERTEX
  8
ordenamento_aeronautico
 10
-9.367011
 20
38.703779
  0
VERTEX
  8
ordenamento_aeronautico
 10
-9.368511
 20
38.704821
  0
VERTEX
  8
ordenamento_aeronautico
 10
-9.369889
 20
38.705963
  0
VERTEX
  8
ordenamento_aeronautico
 10
-9.371136
 20
38.707194
  0
VERTEX
  8
ordenamento_aeronautico
 10
-9.372241
 20
38.708505
  0
VERTEX
  8
ordenamento_aeronautico
 10
-9.373196
 20
38.709887
  0
VERTEX
  8
ordenamento_aeronautico
 10
-9.373993
 20
38.711329
  0
VERTEX
  8
ordenamento_aeronautico
 10
-9.374627
 20
38.712820
  0
VERTEX
  8
ordenamento_aeronautico
 10
-9.379899
 20
38.727286
  0
VERTEX
  8
ordenamento_aeronautico
 10
-9.380365
 20
38.728815
  0
VERTEX
  8
ordenamento_aeronautico
 10
-9.380659
 20
38.730369
  0
VERTEX
  8
ordenamento_aeronautico
 10
-9.380779
 20
38.731938
  0
VERTEX
  8
ordenamento_aeronautico
 10
-9.380724
 20
38.733509
  0
VERTEX
  8
ordenamento_aeronautico
 10
-9.380495
 20
38.735070
  0
VERTEX
  8
ordenamento_aeronautico
 10
-9.380093
 20
38.736610
  0
VERTEX
  8
ordenamento_aeronautico
 10
-9.379521
 20
38.738116
  0
VERTEX
  8
ordenamento_aeronautico
 10
-9.378783
 20
38.739577
  0
VERTEX
  8
ordenamento_aeronautico
 10
-9.377886
 20
38.740983
  0
VERTEX
  8
ordenamento_aeronautico
 10
-9.376835
 20
38.742322
  0
VERTEX
  8
ordenamento_aeronautico
 10
-9.375640
 20
38.743584
  0
VERTEX
  8
ordenamento_aeronautico
 10
-9.374308
 20
38.744760
  0
VERTEX
  8
ordenamento_aeronautico
 10
-9.372851
 20
38.745840
  0
VERTEX
  8
ordenamento_aeronautico
 10
-9.371279
 20
38.746817
  0
VERTEX
  8
ordenamento_aeronautico
 10
-9.369604
 20
38.747683
  0
VERTEX
  8
ordenamento_aeronautico
 10
-9.367839
 20
38.748431
  0
VERTEX
  8
ordenamento_aeronautico
 10
-9.365998
 20
38.749056
  0
VERTEX
  8
ordenamento_aeronautico
 10
-9.364094
 20
38.749552
  0
VERTEX
  8
ordenamento_aeronautico
 10
-9.362142
 20
38.749917
  0
VERTEX
  8
ordenamento_aeronautico
 10
-9.360157
 20
38.750147
  0
VERTEX
  8
ordenamento_aeronautico
 10
-9.358154
 20
38.750241
  0
VERTEX
  8
ordenamento_aeronautico
 10
-9.356148
 20
38.750198
  0
VERTEX
  8
ordenamento_aeronautico
 10
-9.354154
 20
38.750018
  0
VERTEX
  8
ordenamento_aeronautico
 10
-9.352188
 20
38.749702
  0
VERTEX
  8
ordenamento_aeronautico
 10
-9.350265
 20
38.749253
  0
VERTEX
  8
ordenamento_aeronautico
 10
-9.348399
 20
38.748675
  0
VERTEX
  8
ordenamento_aeronautico
 10
-9.346604
 20
38.747972
  0
VERTEX
  8
ordenamento_aeronautico
 10
-9.344895
 20
38.747149
  0
VERTEX
  8
ordenamento_aeronautico
 10
-9.343283
 20
38.746212
  0
VERTEX
  8
ordenamento_aeronautico
 10
-9.341783
 20
38.745169
  0
VERTEX
  8
ordenamento_aeronautico
 10
-9.340404
 20
38.744027
  0
VERTEX
  8
ordenamento_aeronautico
 10
-9.339157
 20
38.742796
  0
VERTEX
  8
ordenamento_aeronautico
 10
-9.338052
 20
38.741484
  0
VERTEX
  8
ordenamento_aeronautico
 10
-9.337097
 20
38.740102
  0
VERTEX
  8
ordenamento_aeronautico
 10
-9.336300
 20
38.738660
  0
VERTEX
  8
ordenamento_aeronautico
 10
-9.335667
 20
38.737168
  0
VERTEX
  8
ordenamento_aeronautico
 10
-9.330404
 20
38.722700
  0
VERTEX
  8
ordenamento_aeronautico
 10
-9.329939
 20
38.721171
  0
VERTEX
  8
ordenamento_aeronautico
 10
-9.329645
 20
38.719617
  0
VERTEX
  8
ordenamento_aeronautico
 10
-9.329526
 20
38.718048
  0
SEQEND
  0
POLYLINE
  8
ordenamento_aeronautico
  6
BYLAYER
 66
1
 70
1
 40
0.000000
 41
0.000000
  0
VERTEX
  8
ordenamento_aeronautico
 10
-9.396495
 20
38.759256
  0
VERTEX
  8
ordenamento_aeronautico
 10
-9.340872
 20
38.771683
  0
VERTEX
  8
ordenamento_aeronautico
 10
-9.318149
 20
38.709217
  0
VERTEX
  8
ordenamento_aeronautico
 10
-9.373728
 20
38.696801
  0
VERTEX
  8
ordenamento_aeronautico
 10
-9.396495
 20
38.759256
  0
SEQEND
  0
POLYLINE
  8
ordenamento_aeronautico
  6
BYLAYER
 66
1
 70
1
 40
0.000000
 41
0.000000
  0
VERTEX
  8
ordenamento_aeronautico
 10
-9.353072
 20
38.724795
  0
VERTEX
  8
ordenamento_aeronautico
 10
-9.353073
 20
38.724757
  0
VERTEX
  8
ordenamento_aeronautico
 10
-9.353077
 20
38.724719
  0
VERTEX
  8
ordenamento_aeronautico
 10
-9.353084
 20
38.724681
  0
VERTEX
  8
ordenamento_aeronautico
 10
-9.353094
 20
38.724644
  0
VERTEX
  8
ordenamento_aeronautico
 10
-9.353107
 20
38.724607
  0
VERTEX
  8
ordenamento_aeronautico
 10
-9.353122
 20
38.724570
  0
VERTEX
  8
ordenamento_aeronautico
 10
-9.353141
 20
38.724535
  0
VERTEX
  8
ordenamento_aeronautico
 10
-9.353162
 20
38.724501
  0
VERTEX
  8
ordenamento_aeronautico
 10
-9.353186
 20
38.724467
  0
VERTEX
  8
ordenamento_aeronautico
 10
-9.353212
 20
38.724435
  0
VERTEX
  8
ordenamento_aeronautico
 10
-9.353241
 20
38.724404
  0
VERTEX
  8
ordenamento_aeronautico
 10
-9.353273
 20
38.724375
  0
VERTEX
  8
ordenamento_aeronautico
 10
-9.353306
 20
38.724347
  0
VERTEX
  8
ordenamento_aeronautico
 10
-9.353342
 20
38.724321
  0
VERTEX
  8
ordenamento_aeronautico
 10
-9.353380
 20
38.724296
  0
VERTEX
  8
ordenamento_aeronautico
 10
-9.353419
 20
38.724274
  0
VERTEX
  8
ordenamento_aeronautico
 10
-9.353460
 20
38.724253
  0
VERTEX
  8
ordenamento_aeronautico
 10
-9.353503
 20
38.724235
  0
VERTEX
  8
ordenamento_aeronautico
 10
-9.353547
 20
38.724218
  0
VERTEX
  8
ordenamento_aeronautico
 10
-9.353592
 20
38.724204
  0
VERTEX
  8
ordenamento_aeronautico
 10
-9.353639
 20
38.724192
  0
VERTEX
  8
ordenamento_aeronautico
 10
-9.353686
 20
38.724182
  0
VERTEX
  8
ordenamento_aeronautico
 10
-9.353734
 20
38.724175
  0
VERTEX
  8
ordenamento_aeronautico
 10
-9.353782
 20
38.724169
  0
VERTEX
  8
ordenamento_aeronautico
 10
-9.353831
 20
38.724167
  0
VERTEX
  8
ordenamento_aeronautico
 10
-9.353880
 20
38.724166
  0
VERTEX
  8
ordenamento_aeronautico
 10
-9.353929
 20
38.724168
  0
VERTEX
  8
ordenamento_aeronautico
 10
-9.353977
 20
38.724172
  0
VERTEX
  8
ordenamento_aeronautico
 10
-9.354025
 20
38.724179
  0
VERTEX
  8
ordenamento_aeronautico
 10
-9.354073
 20
38.724188
  0
VERTEX
  8
ordenamento_aeronautico
 10
-9.354120
 20
38.724199
  0
VERTEX
  8
ordenamento_aeronautico
 10
-9.354166
 20
38.724212
  0
VERTEX
  8
ordenamento_aeronautico
 10
-9.354210
 20
38.724228
  0
VERTEX
  8
ordenamento_aeronautico
 10
-9.354253
 20
38.724245
  0
VERTEX
  8
ordenamento_aeronautico
 10
-9.354295
 20
38.724265
  0
VERTEX
  8
ordenamento_aeronautico
 10
-9.354337
 20
38.724288
  0
VERTEX
  8
ordenamento_aeronautico
 10
-9.414086
 20
38.758640
  0
VERTEX
  8
ordenamento_aeronautico
 10
-9.442200
 20
38.774782
  0
VERTEX
  8
ordenamento_aeronautico
 10
-9.442913
 20
38.776733
  0
VERTEX
  8
ordenamento_aeronautico
 10
-9.434014
 20
38.771625
  0
VERTEX
  8
ordenamento_aeronautico
 10
-9.432681
 20
38.770860
  0
VERTEX
  8
ordenamento_aeronautico
 10
-9.412879
 20
38.759489
  0
VERTEX
  8
ordenamento_aeronautico
 10
-9.353396
 20
38.725288
  0
VERTEX
  8
ordenamento_aeronautico
 10
-9.353357
 20
38.725265
  0
VERTEX
  8
ordenamento_aeronautico
 10
-9.353321
 20
38.725239
  0
VERTEX
  8
ordenamento_aeronautico
 10
-9.353286
 20
38.725212
  0
VERTEX
  8
ordenamento_aeronautico
 10
-9.353254
 20
38.725183
  0
VERTEX
  8
ordenamento_aeronautico
 10
-9.353224
 20
38.725153
  0
VERTEX
  8
ordenamento_aeronautico
 10
-9.353196
 20
38.725121
  0
VERTEX
  8
ordenamento_aeronautico
 10
-9.353171
 20
38.725088
  0
VERTEX
  8
ordenamento_aeronautico
 10
-9.353149
 20
38.725054
  0
VERTEX
  8
ordenamento_aeronautico
 10
-9.353130
 20
38.725019
  0
VERTEX
  8
ordenamento_aeronautico
 10
-9.353113
 20
38.724983
  0
VERTEX
  8
ordenamento_aeronautico
 10
-9.353099
 20
38.724947
  0
VERTEX
  8
ordenamento_aeronautico
 10
-9.353088
 20
38.724909
  0
VERTEX
  8
ordenamento_aeronautico
 10
-9.353080
 20
38.724872
  0
VERTEX
  8
ordenamento_aeronautico
 10
-9.353074
 20
38.724834
  0
VERTEX
  8
ordenamento_aeronautico
 10
-9.353072
 20
38.724795
  0
SEQEND
  0
POLYLINE
  8
ordenamento_aeronautico
  6
BYLAYER
 66
1
 70
1
 40
0.000000
 41
0.000000
  0
VERTEX
  8
ordenamento_aeronautico
 10
-9.349267
 20
38.724836
  0
VERTEX
  8
ordenamento_aeronautico
 10
-9.349272
 20
38.724611
  0
VERTEX
  8
ordenamento_aeronautico
 10
-9.349295
 20
38.724388
  0
VERTEX
  8
ordenamento_aeronautico
 10
-9.349335
 20
38.724166
  0
VERTEX
  8
ordenamento_aeronautico
 10
-9.349394
 20
38.723947
  0
VERTEX
  8
ordenamento_aeronautico
 10
-9.349469
 20
38.723731
  0
VERTEX
  8
ordenamento_aeronautico
 10
-9.349561
 20
38.723519
  0
VERTEX
  8
ordenamento_aeronautico
 10
-9.349670
 20
38.723311
  0
VERTEX
  8
ordenamento_aeronautico
 10
-9.349796
 20
38.723110
  0
VERTEX
  8
ordenamento_aeronautico
 10
-9.349937
 20
38.722915
  0
VERTEX
  8
ordenamento_aeronautico
 10
-9.350093
 20
38.722727
  0
VERTEX
  8
ordenamento_aeronautico
 10
-9.350264
 20
38.722548
  0
VERTEX
  8
ordenamento_aeronautico
 10
-9.350448
 20
38.722376
  0
VERTEX
  8
ordenamento_aeronautico
 10
-9.350646
 20
38.722215
  0
VERTEX
  8
ordenamento_aeronautico
 10
-9.350857
 20
38.722063
  0
VERTEX
  8
ordenamento_aeronautico
 10
-9.351079
 20
38.721922
  0
VERTEX
  8
ordenamento_aeronautico
 10
-9.351312
 20
38.721791
  0
VERTEX
  8
ordenamento_aeronautico
 10
-9.351554
 20
38.721673
  0
VERTEX
  8
ordenamento_aeronautico
 10
-9.351806
 20
38.721566
  0
VERTEX
  8
ordenamento_aeronautico
 10
-9.352066
 20
38.721472
  0
VERTEX
  8
ordenamento_aeronautico
 10
-9.352332
 20
38.721391
  0
VERTEX
  8
ordenamento_aeronautico
 10
-9.352605
 20
38.721323
  0
VERTEX
  8
ordenamento_aeronautico
 10
-9.352882
 20
38.721268
  0
VERTEX
  8
ordenamento_aeronautico
 10
-9.353163
 20
38.721227
  0
VERTEX
  8
ordenamento_aeronautico
 10
-9.353447
 20
38.721200
  0
VERTEX
  8
ordenamento_aeronautico
 10
-9.353733
 20
38.721186
  0
VERTEX
  8
ordenamento_aeronautico
 10
-9.354019
 20
38.721187
  0
VERTEX
  8
ordenamento_aeronautico
 10
-9.354304
 20
38.721201
  0
VERTEX
  8
ordenamento_aeronautico
 10
-9.354588
 20
38.721230
  0
VERTEX
  8
ordenamento_aeronautico
 10
-9.354869
 20
38.721272
  0
VERTEX
  8
ordenamento_aeronautico
 10
-9.355146
 20
38.721327
  0
VERTEX
  8
ordenamento_aeronautico
 10
-9.355418
 20
38.721396
  0
VERTEX
  8
ordenamento_aeronautico
 10
-9.355684
 20
38.721479
  0
VERTEX
  8
ordenamento_aeronautico
 10
-9.355944
 20
38.721574
  0
VERTEX
  8
ordenamento_aeronautico
 10
-9.356195
 20
38.721681
  0
VERTEX
  8
ordenamento_aeronautico
 10
-9.356437
 20
38.721800
  0
VERTEX
  8
ordenamento_aeronautico
 10
-9.356669
 20
38.721931
  0
VERTEX
  8
ordenamento_aeronautico
 10
-9.356890
 20
38.722073
  0
VERTEX
  8
ordenamento_aeronautico
 10
-9.357100
 20
38.722226
  0
VERTEX
  8
ordenamento_aeronautico
 10
-9.357297
 20
38.722388
  0
VERTEX
  8
ordenamento_aeronautico
 10
-9.357480
 20
38.722560
  0
VERTEX
  8
ordenamento_aeronautico
 10
-9.357650
 20
38.722740
  0
VERTEX
  8
ordenamento_aeronautico
 10
-9.357805
 20
38.722929
  0
VERTEX
  8
ordenamento_aeronautico
 10
-9.357945
 20
38.723124
  0
VERTEX
  8
ordenamento_aeronautico
 10
-9.358069
 20
38.723326
  0
VERTEX
  8
ordenamento_aeronautico
 10
-9.358177
 20
38.723534
  0
VERTEX
  8
ordenamento_aeronautico
 10
-9.358268
 20
38.723746
  0
VERTEX
  8
ordenamento_aeronautico
 10
-9.358343
 20
38.723963
  0
VERTEX
  8
ordenamento_aeronautico
 10
-9.358399
 20
38.724182
  0
VERTEX
  8
ordenamento_aeronautico
 10
-9.358439
 20
38.724404
  0
VERTEX
  8
ordenamento_aeronautico
 10
-9.358460
 20
38.724627
  0
VERTEX
  8
ordenamento_aeronautico
 10
-9.358464
 20
38.724852
  0
VERTEX
  8
ordenamento_aeronautico
 10
-9.358450
 20
38.725075
  0
VERTEX
  8
ordenamento_aeronautico
 10
-9.358418
 20
38.725298
  0
VERTEX
  8
ordenamento_aeronautico
 10
-9.358369
 20
38.725519
  0
VERTEX
  8
ordenamento_aeronautico
 10
-9.358302
 20
38.725737
  0
VERTEX
  8
ordenamento_aeronautico
 10
-9.358218
 20
38.725951
  0
VERTEX
  8
ordenamento_aeronautico
 10
-9.358118
 20
38.726161
  0
VERTEX
  8
ordenamento_aeronautico
 10
-9.358001
 20
38.726365
  0
VERTEX
  8
ordenamento_aeronautico
 10
-9.357867
 20
38.726564
  0
VERTEX
  8
ordenamento_aeronautico
 10
-9.357719
 20
38.726755
  0
VERTEX
  8
ordenamento_aeronautico
 10
-9.357555
 20
38.726939
  0
VERTEX
  8
ordenamento_aeronautico
 10
-9.357377
 20
38.727114
  0
VERTEX
  8
ordenamento_aeronautico
 10
-9.357186
 20
38.727281
  0
VERTEX
  8
ordenamento_aeronautico
 10
-9.356981
 20
38.727438
  0
VERTEX
  8
ordenamento_aeronautico
 10
-9.356765
 20
38.727584
  0
VERTEX
  8
ordenamento_aeronautico
 10
-9.356537
 20
38.727720
  0
VERTEX
  8
ordenamento_aeronautico
 10
-9.356300
 20
38.727845
  0
VERTEX
  8
ordenamento_aeronautico
 10
-9.356052
 20
38.727957
  0
VERTEX
  8
ordenamento_aeronautico
 10
-9.355796
 20
38.728058
  0
VERTEX
  8
ordenamento_aeronautico
 10
-9.355533
 20
38.728145
  0
VERTEX
  8
ordenamento_aeronautico
 10
-9.355264
 20
38.728220
  0
VERTEX
  8
ordenamento_aeronautico
 10
-9.354988
 20
38.728281
  0
VERTEX
  8
ordenamento_aeronautico
 10
-9.354709
 20
38.728329
  0
VERTEX
  8
ordenamento_aeronautico
 10
-9.354426
 20
38.728364
  0
VERTEX
  8
ordenamento_aeronautico
 10
-9.354141
 20
38.728384
  0
VERTEX
  8
ordenamento_aeronautico
 10
-9.353855
 20
38.728390
  0
VERTEX
  8
ordenamento_aeronautico
 10
-9.353570
 20
38.728383
  0
VERTEX
  8
ordenamento_aeronautico
 10
-9.353285
 20
38.728361
  0
VERTEX
  8
ordenamento_aeronautico
 10
-9.353002
 20
38.728326
  0
VERTEX
  8
ordenamento_aeronautico
 10
-9.352723
 20
38.728277
  0
VERTEX
  8
ordenamento_aeronautico
 10
-9.352448
 20
38.728215
  0
VERTEX
  8
ordenamento_aeronautico
 10
-9.352179
 20
38.728139
  0
VERTEX
  8
ordenamento_aeronautico
 10
-9.351916
 20
38.728051
  0
VERTEX
  8
ordenamento_aeronautico
 10
-9.351661
 20
38.727949
  0
VERTEX
  8
ordenamento_aeronautico
 10
-9.351414
 20
38.727836
  0
VERTEX
  8
ordenamento_aeronautico
 10
-9.351177
 20
38.727711
  0
VERTEX
  8
ordenamento_aeronautico
 10
-9.350950
 20
38.727574
  0
VERTEX
  8
ordenamento_aeronautico
 10
-9.350735
 20
38.727427
  0
VERTEX
  8
ordenamento_aeronautico
 10
-9.350531
 20
38.727269
  0
VERTEX
  8
ordenamento_aeronautico
 10
-9.350341
 20
38.727102
  0
VERTEX
  8
ordenamento_aeronautico
 10
-9.350164
 20
38.726926
  0
VERTEX
  8
ordenamento_aeronautico
 10
-9.350001
 20
38.726742
  0
VERTEX
  8
ordenamento_aeronautico
 10
-9.349854
 20
38.726549
  0
VERTEX
  8
ordenamento_aeronautico
 10
-9.349722
 20
38.726351
  0
VERTEX
  8
ordenamento_aeronautico
 10
-9.349606
 20
38.726146
  0
VERTEX
  8
ordenamento_aeronautico
 10
-9.349506
 20
38.725936
  0
VERTEX
  8
ordenamento_aeronautico
 10
-9.349424
 20
38.725721
  0
VERTEX
  8
ordenamento_aeronautico
 10
-9.349358
 20
38.725503
  0
VERTEX
  8
ordenamento_aeronautico
 10
-9.349310
 20
38.725282
  0
VERTEX
  8
ordenamento_aeronautico
 10
-9.349280
 20
38.725059
  0
VERTEX
  8
ordenamento_aeronautico
 10
-9.349267
 20
38.724836
  0
SEQEND
  0
POLYLINE
  8
ordenamento_aeronautico
  6
BYLAYER
 66
1
 70
1
 40
0.000000
 41
0.000000
  0
VERTEX
  8
ordenamento_aeronautico
 10
-9.349611
 20
38.694996
  0
VERTEX
  8
ordenamento_aeronautico
 10
-9.353346
 20
38.717577
  0
VERTEX
  8
ordenamento_aeronautico
 10
-9.351688
 20
38.717948
  0
VERTEX
  8
ordenamento_aeronautico
 10
-9.339575
 20
38.697238
  0
VERTEX
  8
ordenamento_aeronautico
 10
-9.349611
 20
38.694996
  0
SEQEND
  0
POLYLINE
  8
ordenamento_aeronautico
  6
BYLAYER
 66
1
 70
1
 40
0.000000
 41
0.000000
  0
VERTEX
  8
ordenamento_aeronautico
 10
-9.352047
 20
38.717785
  0
VERTEX
  8
ordenamento_aeronautico
 10
-9.341405
 20
38.696748
  0
VERTEX
  8
ordenamento_aeronautico
 10
-9.347815
 20
38.695316
  0
VERTEX
  8
ordenamento_aeronautico
 10
-9.352932
 20
38.717588
  0
VERTEX
  8
ordenamento_aeronautico
 10
-9.352047
 20
38.717785
  0
SEQEND
  0
POLYLINE
  8
ordenamento_aeronautico
  6
BYLAYER
 66
1
 70
1
 40
0.000000
 41
0.000000
  0
VERTEX
  8
ordenamento_aeronautico
 10
-9.369267
 20
38.753080
  0
VERTEX
  8
ordenamento_aeronautico
 10
-9.362077
 20
38.754686
  0
VERTEX
  8
ordenamento_aeronautico
 10
-9.356955
 20
38.732415
  0
VERTEX
  8
ordenamento_aeronautico
 10
-9.358614
 20
38.732044
  0
VERTEX
  8
ordenamento_aeronautico
 10
-9.369267
 20
38.753080
  0
SEQEND
  0
POLYLINE
  8
ordenamento_aeronautico
  6
BYLAYER
 66
1
 70
1
 40
0.000000
 41
0.000000
  0
VERTEX
  8
ordenamento_aeronautico
 10
-9.358478
 20
38.739041
  0
VERTEX
  8
ordenamento_aeronautico
 10
-9.355310
 20
38.732782
  0
VERTEX
  8
ordenamento_aeronautico
 10
-9.349117
 20
38.718522
  0
VERTEX
  8
ordenamento_aeronautico
 10
-9.344922
 20
38.706380
  0
VERTEX
  8
ordenamento_aeronautico
 10
-9.351688
 20
38.717948
  0
VERTEX
  8
ordenamento_aeronautico
 10
-9.356954
 20
38.732415
  0
VERTEX
  8
ordenamento_aeronautico
 10
-9.358478
 20
38.739041
  0
SEQEND
  0
POLYLINE
  8
ordenamento_aeronautico
  6
BYLAYER
 66
1
 70
1
 40
0.000000
 41
0.000000
  0
VERTEX
  8
ordenamento_aeronautico
 10
-9.351260
 20
38.704964
  0
VERTEX
  8
ordenamento_aeronautico
 10
-9.355917
 20
38.717003
  0
VERTEX
  8
ordenamento_aeronautico
 10
-9.360258
 20
38.731677
  0
VERTEX
  8
ordenamento_aeronautico
 10
-9.361782
 20
38.738302
  0
VERTEX
  8
ordenamento_aeronautico
 10
-9.358616
 20
38.732044
  0
VERTEX
  8
ordenamento_aeronautico
 10
-9.353346
 20
38.717577
  0
VERTEX
  8
ordenamento_aeronautico
 10
-9.351260
 20
38.704964
  0
SEQEND
  0
POLYLINE
  8
ordenamento_aeronautico
  6
BYLAYER
 66
1
 70
1
 40
0.000000
 41
0.000000
  0
VERTEX
  8
ordenamento_aeronautico
 10
-9.309989
 20
38.718472
  0
VERTEX
  8
ordenamento_aeronautico
 10
-9.310067
 20
38.715627
  0
VERTEX
  8
ordenamento_aeronautico
 10
-9.310455
 20
38.712798
  0
VERTEX
  8
ordenamento_aeronautico
 10
-9.311150
 20
38.710004
  0
VERTEX
  8
ordenamento_aeronautico
 10
-9.312146
 20
38.707268
  0
VERTEX
  8
ordenamento_aeronautico
 10
-9.313437
 20
38.704608
  0
VERTEX
  8
ordenamento_aeronautico
 10
-9.315012
 20
38.702044
  0
VERTEX
  8
ordenamento_aeronautico
 10
-9.316861
 20
38.699594
  0
VERTEX
  8
ordenamento_aeronautico
 10
-9.318969
 20
38.697277
  0
VERTEX
  8
ordenamento_aeronautico
 10
-9.321322
 20
38.695110
  0
VERTEX
  8
ordenamento_aeronautico
 10
-9.323902
 20
38.693107
  0
VERTEX
  8
ordenamento_aeronautico
 10
-9.326691
 20
38.691285
  0
VERTEX
  8
ordenamento_aeronautico
 10
-9.329667
 20
38.689655
  0
VERTEX
  8
ordenamento_aeronautico
 10
-9.332810
 20
38.688230
  0
VERTEX
  8
ordenamento_aeronautico
 10
-9.326587
 20
38.671106
  0
VERTEX
  8
ordenamento_aeronautico
 10
-9.343160
 20
38.667404
  0
VERTEX
  8
ordenamento_aeronautico
 10
-9.349388
 20
38.684527
  0
VERTEX
  8
ordenamento_aeronautico
 10
-9.353016
 20
38.684439
  0
VERTEX
  8
ordenamento_aeronautico
 10
-9.356642
 20
38.684594
  0
VERTEX
  8
ordenamento_aeronautico
 10
-9.360237
 20
38.684990
  0
VERTEX
  8
ordenamento_aeronautico
 10
-9.363776
 20
38.685626
  0
VERTEX
  8
ordenamento_aeronautico
 10
-9.367233
 20
38.686495
  0
VERTEX
  8
ordenamento_aeronautico
 10
-9.370583
 20
38.687593
  0
VERTEX
  8
ordenamento_aeronautico
 10
-9.373801
 20
38.688910
  0
VERTEX
  8
ordenamento_aeronautico
 10
-9.376865
 20
38.690438
  0
VERTEX
  8
ordenamento_aeronautico
 10
-9.379751
 20
38.692165
  0
VERTEX
  8
ordenamento_aeronautico
 10
-9.382438
 20
38.694079
  0
VERTEX
  8
ordenamento_aeronautico
 10
-9.384908
 20
38.696165
  0
VERTEX
  8
ordenamento_aeronautico
 10
-9.387141
 20
38.698408
  0
VERTEX
  8
ordenamento_aeronautico
 10
-9.389123
 20
38.700793
  0
VERTEX
  8
ordenamento_aeronautico
 10
-9.390838
 20
38.703302
  0
VERTEX
  8
ordenamento_aeronautico
 10
-9.392273
 20
38.705916
  0
VERTEX
  8
ordenamento_aeronautico
 10
-9.393419
 20
38.708616
  0
VERTEX
  8
ordenamento_aeronautico
 10
-9.398693
 20
38.723081
  0
VERTEX
  8
ordenamento_aeronautico
 10
-9.399541
 20
38.725849
  0
VERTEX
  8
ordenamento_aeronautico
 10
-9.400085
 20
38.728662
  0
VERTEX
  8
ordenamento_aeronautico
 10
-9.400320
 20
38.731502
  0
VERTEX
  8
ordenamento_aeronautico
 10
-9.400245
 20
38.734347
  0
VERTEX
  8
ordenamento_aeronautico
 10
-9.399860
 20
38.737177
  0
VERTEX
  8
ordenamento_aeronautico
 10
-9.399169
 20
38.739970
  0
VERTEX
  8
ordenamento_aeronautico
 10
-9.398176
 20
38.742708
  0
VERTEX
  8
ordenamento_aeronautico
 10
-9.396888
 20
38.745369
  0
VERTEX
  8
ordenamento_aeronautico
 10
-9.395314
 20
38.747934
  0
VERTEX
  8
ordenamento_aeronautico
 10
-9.393467
 20
38.750384
  0
VERTEX
  8
ordenamento_aeronautico
 10
-9.391360
 20
38.752703
  0
VERTEX
  8
ordenamento_aeronautico
 10
-9.389007
 20
38.754872
  0
VERTEX
  8
ordenamento_aeronautico
 10
-9.386427
 20
38.756876
  0
VERTEX
  8
ordenamento_aeronautico
 10
-9.383637
 20
38.758700
  0
VERTEX
  8
ordenamento_aeronautico
 10
-9.380659
 20
38.760331
  0
VERTEX
  8
ordenamento_aeronautico
 10
-9.377514
 20
38.761757
  0
VERTEX
  8
ordenamento_aeronautico
 10
-9.383758
 20
38.778877
  0
VERTEX
  8
ordenamento_aeronautico
 10
-9.367161
 20
38.782586
  0
VERTEX
  8
ordenamento_aeronautico
 10
-9.360920
 20
38.765464
  0
VERTEX
  8
ordenamento_aeronautico
 10
-9.357287
 20
38.765553
  0
VERTEX
  8
ordenamento_aeronautico
 10
-9.353658
 20
38.765398
  0
VERTEX
  8
ordenamento_aeronautico
 10
-9.350059
 20
38.765001
  0
VERTEX
  8
ordenamento_aeronautico
 10
-9.346516
 20
38.764366
  0
VERTEX
  8
ordenamento_aeronautico
 10
-9.343055
 20
38.763495
  0
VERTEX
  8
ordenamento_aeronautico
 10
-9.339702
 20
38.762397
  0
VERTEX
  8
ordenamento_aeronautico
 10
-9.336481
 20
38.761079
  0
VERTEX
  8
ordenamento_aeronautico
 10
-9.333416
 20
38.759550
  0
VERTEX
  8
ordenamento_aeronautico
 10
-9.330528
 20
38.757822
  0
VERTEX
  8
ordenamento_aeronautico
 10
-9.327839
 20
38.755907
  0
VERTEX
  8
ordenamento_aeronautico
 10
-9.325369
 20
38.753820
  0
VERTEX
  8
ordenamento_aeronautico
 10
-9.323136
 20
38.751575
  0
VERTEX
  8
ordenamento_aeronautico
 10
-9.321155
 20
38.749189
  0
VERTEX
  8
ordenamento_aeronautico
 10
-9.319441
 20
38.746680
  0
VERTEX
  8
ordenamento_aeronautico
 10
-9.318008
 20
38.744065
  0
VERTEX
  8
ordenamento_aeronautico
 10
-9.316864
 20
38.741363
  0
VERTEX
  8
ordenamento_aeronautico
 10
-9.311605
 20
38.726894
  0
VERTEX
  8
ordenamento_aeronautico
 10
-9.310760
 20
38.724126
  0
VERTEX
  8
ordenamento_aeronautico
 10
-9.310220
 20
38.721312
  0
VERTEX
  8
ordenamento_aeronautico
 10
-9.309989
 20
38.718472
  0
SEQEND
  0
POLYLINE
  8
ordenamento_aeronautico
  6
BYLAYER
 66
1
 70
1
 40
0.000000
 41
0.000000
  0
VERTEX
  8
ordenamento_aeronautico
 10
-9.356528
 20
38.730084
  0
VERTEX
  8
ordenamento_aeronautico
 10
-9.356966
 20
38.729983
  0
VERTEX
  8
ordenamento_aeronautico
 10
-9.357402
 20
38.729884
  0
VERTEX
  8
ordenamento_aeronautico
 10
-9.357962
 20
38.730914
  0
VERTEX
  8
ordenamento_aeronautico
 10
-9.358567
 20
38.731917
  0
VERTEX
  8
ordenamento_aeronautico
 10
-9.359224
 20
38.732895
  0
VERTEX
  8
ordenamento_aeronautico
 10
-9.359931
 20
38.733848
  0
VERTEX
  8
ordenamento_aeronautico
 10
-9.360682
 20
38.734768
  0
VERTEX
  8
ordenamento_aeronautico
 10
-9.361481
 20
38.735661
  0
VERTEX
  8
ordenamento_aeronautico
 10
-9.362324
 20
38.736523
  0
VERTEX
  8
ordenamento_aeronautico
 10
-9.363211
 20
38.737353
  0
VERTEX
  8
ordenamento_aeronautico
 10
-9.364134
 20
38.738149
  0
VERTEX
  8
ordenamento_aeronautico
 10
-9.365098
 20
38.738910
  0
VERTEX
  8
ordenamento_aeronautico
 10
-9.366097
 20
38.739636
  0
VERTEX
  8
ordenamento_aeronautico
 10
-9.367130
 20
38.740324
  0
VERTEX
  8
ordenamento_aeronautico
 10
-9.368194
 20
38.740975
  0
VERTEX
  8
ordenamento_aeronautico
 10
-9.369289
 20
38.741587
  0
VERTEX
  8
ordenamento_aeronautico
 10
-9.370410
 20
38.742159
  0
VERTEX
  8
ordenamento_aeronautico
 10
-9.371556
 20
38.742692
  0
VERTEX
  8
ordenamento_aeronautico
 10
-9.372724
 20
38.743183
  0
VERTEX
  8
ordenamento_aeronautico
 10
-9.373913
 20
38.743633
  0
VERTEX
  8
ordenamento_aeronautico
 10
-9.375120
 20
38.744042
  0
VERTEX
  8
ordenamento_aeronautico
 10
-9.376342
 20
38.744408
  0
VERTEX
  8
ordenamento_aeronautico
 10
-9.374889
 20
38.746759
  0
VERTEX
  8
ordenamento_aeronautico
 10
-9.373413
 20
38.749101
  0
VERTEX
  8
ordenamento_aeronautico
 10
-9.372079
 20
38.748437
  0
VERTEX
  8
ordenamento_aeronautico
 10
-9.370787
 20
38.747731
  0
VERTEX
  8
ordenamento_aeronautico
 10
-9.369539
 20
38.746987
  0
VERTEX
  8
ordenamento_aeronautico
 10
-9.368338
 20
38.746204
  0
VERTEX
  8
ordenamento_aeronautico
 10
-9.367183
 20
38.745386
  0
VERTEX
  8
ordenamento_aeronautico
 10
-9.366079
 20
38.744533
  0
VERTEX
  8
ordenamento_aeronautico
 10
-9.365025
 20
38.743648
  0
VERTEX
  8
ordenamento_aeronautico
 10
-9.364025
 20
38.742733
  0
VERTEX
  8
ordenamento_aeronautico
 10
-9.363078
 20
38.741788
  0
VERTEX
  8
ordenamento_aeronautico
 10
-9.362187
 20
38.740817
  0
VERTEX
  8
ordenamento_aeronautico
 10
-9.361352
 20
38.739822
  0
VERTEX
  8
ordenamento_aeronautico
 10
-9.360579
 20
38.738804
  0
VERTEX
  8
ordenamento_aeronautico
 10
-9.359857
 20
38.737764
  0
VERTEX
  8
ordenamento_aeronautico
 10
-9.359198
 20
38.736706
  0
VERTEX
  8
ordenamento_aeronautico
 10
-9.358599
 20
38.735632
  0
VERTEX
  8
ordenamento_aeronautico
 10
-9.358061
 20
38.734543
  0
VERTEX
  8
ordenamento_aeronautico
 10
-9.357589
 20
38.733440
  0
VERTEX
  8
ordenamento_aeronautico
 10
-9.357169
 20
38.732330
  0
VERTEX
  8
ordenamento_aeronautico
 10
-9.356815
 20
38.731214
  0
VERTEX
  8
ordenamento_aeronautico
 10
-9.356528
 20
38.730084
  0
SEQEND
  0
POLYLINE
  8
ordenamento_aeronautico
  6
BYLAYER
 66
1
 70
1
 40
0.000000
 41
0.000000
  0
VERTEX
  8
ordenamento_aeronautico
 10
-9.298489
 20
38.718427
  0
VERTEX
  8
ordenamento_aeronautico
 10
-9.298622
 20
38.714735
  0
VERTEX
  8
ordenamento_aeronautico
 10
-9.299165
 20
38.711067
  0
VERTEX
  8
ordenamento_aeronautico
 10
-9.300114
 20
38.707449
  0
VERTEX
  8
ordenamento_aeronautico
 10
-9.301462
 20
38.703910
  0
VERTEX
  8
ordenamento_aeronautico
 10
-9.303198
 20
38.700477
  0
VERTEX
  8
ordenamento_aeronautico
 10
-9.305309
 20
38.697175
  0
VERTEX
  8
ordenamento_aeronautico
 10
-9.307779
 20
38.694030
  0
VERTEX
  8
ordenamento_aeronautico
 10
-9.310590
 20
38.691066
  0
VERTEX
  8
ordenamento_aeronautico
 10
-9.313719
 20
38.688304
  0
VERTEX
  8
ordenamento_aeronautico
 10
-9.317143
 20
38.685767
  0
VERTEX
  8
ordenamento_aeronautico
 10
-9.320836
 20
38.683474
  0
VERTEX
  8
ordenamento_aeronautico
 10
-9.324769
 20
38.681441
  0
VERTEX
  8
ordenamento_aeronautico
 10
-9.328913
 20
38.679684
  0
VERTEX
  8
ordenamento_aeronautico
 10
-9.333237
 20
38.678217
  0
VERTEX
  8
ordenamento_aeronautico
 10
-9.337708
 20
38.677051
  0
VERTEX
  8
ordenamento_aeronautico
 10
-9.342290
 20
38.676195
  0
VERTEX
  8
ordenamento_aeronautico
 10
-9.346951
 20
38.675655
  0
VERTEX
  8
ordenamento_aeronautico
 10
-9.351654
 20
38.675435
  0
VERTEX
  8
ordenamento_aeronautico
 10
-9.356363
 20
38.675537
  0
VERTEX
  8
ordenamento_aeronautico
 10
-9.361043
 20
38.675960
  0
VERTEX
  8
ordenamento_aeronautico
 10
-9.365658
 20
38.676701
  0
VERTEX
  8
ordenamento_aeronautico
 10
-9.370174
 20
38.677755
  0
VERTEX
  8
ordenamento_aeronautico
 10
-9.374555
 20
38.679113
  0
VERTEX
  8
ordenamento_aeronautico
 10
-9.378769
 20
38.680764
  0
VERTEX
  8
ordenamento_aeronautico
 10
-9.382783
 20
38.682698
  0
VERTEX
  8
ordenamento_aeronautico
 10
-9.386568
 20
38.684898
  0
VERTEX
  8
ordenamento_aeronautico
 10
-9.390093
 20
38.687348
  0
VERTEX
  8
ordenamento_aeronautico
 10
-9.393333
 20
38.690029
  0
VERTEX
  8
ordenamento_aeronautico
 10
-9.396263
 20
38.692922
  0
VERTEX
  8
ordenamento_aeronautico
 10
-9.398860
 20
38.696003
  0
VERTEX
  8
ordenamento_aeronautico
 10
-9.401105
 20
38.699250
  0
VERTEX
  8
ordenamento_aeronautico
 10
-9.402980
 20
38.702638
  0
VERTEX
  8
ordenamento_aeronautico
 10
-9.404471
 20
38.706142
  0
VERTEX
  8
ordenamento_aeronautico
 10
-9.409748
 20
38.720607
  0
VERTEX
  8
ordenamento_aeronautico
 10
-9.410845
 20
38.724198
  0
VERTEX
  8
ordenamento_aeronautico
 10
-9.411538
 20
38.727851
  0
VERTEX
  8
ordenamento_aeronautico
 10
-9.411822
 20
38.731537
  0
VERTEX
  8
ordenamento_aeronautico
 10
-9.411694
 20
38.735229
  0
VERTEX
  8
ordenamento_aeronautico
 10
-9.411157
 20
38.738898
  0
VERTEX
  8
ordenamento_aeronautico
 10
-9.410213
 20
38.742516
  0
VERTEX
  8
ordenamento_aeronautico
 10
-9.408870
 20
38.746056
  0
VERTEX
  8
ordenamento_aeronautico
 10
-9.407138
 20
38.749491
  0
VERTEX
  8
ordenamento_aeronautico
 10
-9.405030
 20
38.752795
  0
VERTEX
  8
ordenamento_aeronautico
 10
-9.402562
 20
38.755942
  0
VERTEX
  8
ordenamento_aeronautico
 10
-9.399753
 20
38.758908
  0
VERTEX
  8
ordenamento_aeronautico
 10
-9.396625
 20
38.761672
  0
VERTEX
  8
ordenamento_aeronautico
 10
-9.393200
 20
38.764211
  0
VERTEX
  8
ordenamento_aeronautico
 10
-9.389505
 20
38.766507
  0
VERTEX
  8
ordenamento_aeronautico
 10
-9.385569
 20
38.768542
  0
VERTEX
  8
ordenamento_aeronautico
 10
-9.381421
 20
38.770301
  0
VERTEX
  8
ordenamento_aeronautico
 10
-9.377093
 20
38.771770
  0
VERTEX
  8
ordenamento_aeronautico
 10
-9.372617
 20
38.772937
  0
VERTEX
  8
ordenamento_aeronautico
 10
-9.368029
 20
38.773795
  0
VERTEX
  8
ordenamento_aeronautico
 10
-9.363362
 20
38.774336
  0
VERTEX
  8
ordenamento_aeronautico
 10
-9.358653
 20
38.774556
  0
VERTEX
  8
ordenamento_aeronautico
 10
-9.353937
 20
38.774455
  0
VERTEX
  8
ordenamento_aeronautico
 10
-9.349250
 20
38.774031
  0
VERTEX
  8
ordenamento_aeronautico
 10
-9.344629
 20
38.773289
  0
VERTEX
  8
ordenamento_aeronautico
 10
-9.340108
 20
38.772235
  0
VERTEX
  8
ordenamento_aeronautico
 10
-9.335721
 20
38.770876
  0
VERTEX
  8
ordenamento_aeronautico
 10
-9.331503
 20
38.769223
  0
VERTEX
  8
ordenamento_aeronautico
 10
-9.327485
 20
38.767288
  0
VERTEX
  8
ordenamento_aeronautico
 10
-9.323698
 20
38.765086
  0
VERTEX
  8
ordenamento_aeronautico
 10
-9.320171
 20
38.762634
  0
VERTEX
  8
ordenamento_aeronautico
 10
-9.316930
 20
38.759950
  0
VERTEX
  8
ordenamento_aeronautico
 10
-9.314001
 20
38.757056
  0
VERTEX
  8
ordenamento_aeronautico
 10
-9.311405
 20
38.753973
  0
VERTEX
  8
ordenamento_aeronautico
 10
-9.309163
 20
38.750724
  0
VERTEX
  8
ordenamento_aeronautico
 10
-9.307291
 20
38.747334
  0
VERTEX
  8
ordenamento_aeronautico
 10
-9.305803
 20
38.743830
  0
VERTEX
  8
ordenamento_aeronautico
 10
-9.300546
 20
38.729360
  0
VERTEX
  8
ordenamento_aeronautico
 10
-9.299454
 20
38.725767
  0
VERTEX
  8
ordenamento_aeronautico
 10
-9.298767
 20
38.722114
  0
VERTEX
  8
ordenamento_aeronautico
 10
-9.298489
 20
38.718427
  0
SEQEND
  0
POLYLINE
  8
ordenamento_aeronautico
  6
BYLAYER
 66
1
 70
1
 40
0.000000
 41
0.000000
  0
VERTEX
  8
ordenamento_aeronautico
 10
-9.344727
 20
38.762046
  0
VERTEX
  8
ordenamento_aeronautico
 10
-9.344623
 20
38.762021
  0
VERTEX
  8
ordenamento_aeronautico
 10
-9.341357
 20
38.761009
  0
VERTEX
  8
ordenamento_aeronautico
 10
-9.338216
 20
38.759778
  0
VERTEX
  8
ordenamento_aeronautico
 10
-9.335224
 20
38.758337
  0
VERTEX
  8
ordenamento_aeronautico
 10
-9.332404
 20
38.756698
  0
VERTEX
  8
ordenamento_aeronautico
 10
-9.329777
 20
38.754872
  0
VERTEX
  8
ordenamento_aeronautico
 10
-9.327364
 20
38.752874
  0
VERTEX
  8
ordenamento_aeronautico
 10
-9.325183
 20
38.750719
  0
VERTEX
  8
ordenamento_aeronautico
 10
-9.323249
 20
38.748423
  0
VERTEX
  8
ordenamento_aeronautico
 10
-9.321579
 20
38.746004
  0
VERTEX
  8
ordenamento_aeronautico
 10
-9.320185
 20
38.743480
  0
VERTEX
  8
ordenamento_aeronautico
 10
-9.319077
 20
38.740870
  0
VERTEX
  8
ordenamento_aeronautico
 10
-9.313816
 20
38.726401
  0
VERTEX
  8
ordenamento_aeronautico
 10
-9.313003
 20
38.723726
  0
VERTEX
  8
ordenamento_aeronautico
 10
-9.312491
 20
38.721005
  0
VERTEX
  8
ordenamento_aeronautico
 10
-9.312283
 20
38.718259
  0
VERTEX
  8
ordenamento_aeronautico
 10
-9.312382
 20
38.715510
  0
VERTEX
  8
ordenamento_aeronautico
 10
-9.312786
 20
38.712778
  0
VERTEX
  8
ordenamento_aeronautico
 10
-9.313492
 20
38.710085
  0
VERTEX
  8
ordenamento_aeronautico
 10
-9.314495
 20
38.707449
  0
VERTEX
  8
ordenamento_aeronautico
 10
-9.315788
 20
38.704892
  0
VERTEX
  8
ordenamento_aeronautico
 10
-9.317360
 20
38.702433
  0
VERTEX
  8
ordenamento_aeronautico
 10
-9.319199
 20
38.700091
  0
VERTEX
  8
ordenamento_aeronautico
 10
-9.321292
 20
38.697883
  0
VERTEX
  8
ordenamento_aeronautico
 10
-9.321353
 20
38.697829
  0
VERTEX
  8
ordenamento_aeronautico
 10
-9.344727
 20
38.762046
  0
SEQEND
  0
POLYLINE
  8
ordenamento_aeronautico
  6
BYLAYER
 66
1
 70
1
 40
0.000000
 41
0.000000
  0
VERTEX
  8
ordenamento_aeronautico
 10
-9.365560
 20
38.687945
  0
VERTEX
  8
ordenamento_aeronautico
 10
-9.388971
 20
38.752155
  0
VERTEX
  8
ordenamento_aeronautico
 10
-9.386705
 20
38.754156
  0
VERTEX
  8
ordenamento_aeronautico
 10
-9.384155
 20
38.756047
  0
VERTEX
  8
ordenamento_aeronautico
 10
-9.381403
 20
38.757756
  0
VERTEX
  8
ordenamento_aeronautico
 10
-9.378472
 20
38.759272
  0
VERTEX
  8
ordenamento_aeronautico
 10
-9.375384
 20
38.760581
  0
VERTEX
  8
ordenamento_aeronautico
 10
-9.372161
 20
38.761675
  0
VERTEX
  8
ordenamento_aeronautico
 10
-9.368828
 20
38.762544
  0
VERTEX
  8
ordenamento_aeronautico
 10
-9.365412
 20
38.763183
  0
VERTEX
  8
ordenamento_aeronautico
 10
-9.361937
 20
38.763585
  0
VERTEX
  8
ordenamento_aeronautico
 10
-9.358431
 20
38.763750
  0
VERTEX
  8
ordenamento_aeronautico
 10
-9.354920
 20
38.763674
  0
VERTEX
  8
ordenamento_aeronautico
 10
-9.351430
 20
38.763359
  0
VERTEX
  8
ordenamento_aeronautico
 10
-9.347989
 20
38.762806
  0
VERTEX
  8
ordenamento_aeronautico
 10
-9.344727
 20
38.762046
  0
VERTEX
  8
ordenamento_aeronautico
 10
-9.321353
 20
38.697829
  0
VERTEX
  8
ordenamento_aeronautico
 10
-9.323622
 20
38.695827
  0
VERTEX
  8
ordenamento_aeronautico
 10
-9.326171
 20
38.693937
  0
VERTEX
  8
ordenamento_aeronautico
 10
-9.328921
 20
38.692229
  0
VERTEX
  8
ordenamento_aeronautico
 10
-9.331851
 20
38.690715
  0
VERTEX
  8
ordenamento_aeronautico
 10
-9.334938
 20
38.689407
  0
VERTEX
  8
ordenamento_aeronautico
 10
-9.338158
 20
38.688314
  0
VERTEX
  8
ordenamento_aeronautico
 10
-9.341487
 20
38.687446
  0
VERTEX
  8
ordenamento_aeronautico
 10
-9.344900
 20
38.686808
  0
VERTEX
  8
ordenamento_aeronautico
 10
-9.348371
 20
38.686406
  0
VERTEX
  8
ordenamento_aeronautico
 10
-9.351874
 20
38.686242
  0
VERTEX
  8
ordenamento_aeronautico
 10
-9.355381
 20
38.686318
  0
VERTEX
  8
ordenamento_aeronautico
 10
-9.358867
 20
38.686633
  0
VERTEX
  8
ordenamento_aeronautico
 10
-9.362305
 20
38.687185
  0
VERTEX
  8
ordenamento_aeronautico
 10
-9.365560
 20
38.687945
  0
SEQEND
  0
POLYLINE
  8
ordenamento_aeronautico
  6
BYLAYER
 66
1
 70
1
 40
0.000000
 41
0.000000
  0
VERTEX
  8
ordenamento_aeronautico
 10
-9.365560
 20
38.687945
  0
VERTEX
  8
ordenamento_aeronautico
 10
-9.365562
 20
38.687945
  0
VERTEX
  8
ordenamento_aeronautico
 10
-9.365668
 20
38.687970
  0
VERTEX
  8
ordenamento_aeronautico
 10
-9.368931
 20
38.688981
  0
VERTEX
  8
ordenamento_aeronautico
 10
-9.372069
 20
38.690211
  0
VERTEX
  8
ordenamento_aeronautico
 10
-9.375059
 20
38.691651
  0
VERTEX
  8
ordenamento_aeronautico
 10
-9.377877
 20
38.693290
  0
VERTEX
  8
ordenamento_aeronautico
 10
-9.380502
 20
38.695114
  0
VERTEX
  8
ordenamento_aeronautico
 10
-9.382915
 20
38.697111
  0
VERTEX
  8
ordenamento_aeronautico
 10
-9.385097
 20
38.699265
  0
VERTEX
  8
ordenamento_aeronautico
 10
-9.387030
 20
38.701560
  0
VERTEX
  8
ordenamento_aeronautico
 10
-9.388702
 20
38.703979
  0
VERTEX
  8
ordenamento_aeronautico
 10
-9.390098
 20
38.706502
  0
VERTEX
  8
ordenamento_aeronautico
 10
-9.391208
 20
38.709111
  0
VERTEX
  8
ordenamento_aeronautico
 10
-9.396482
 20
38.723576
  0
VERTEX
  8
ordenamento_aeronautico
 10
-9.397299
 20
38.726251
  0
VERTEX
  8
ordenamento_aeronautico
 10
-9.397814
 20
38.728971
  0
VERTEX
  8
ordenamento_aeronautico
 10
-9.398025
 20
38.731717
  0
VERTEX
  8
ordenamento_aeronautico
 10
-9.397930
 20
38.734466
  0
VERTEX
  8
ordenamento_aeronautico
 10
-9.397529
 20
38.737198
  0
VERTEX
  8
ordenamento_aeronautico
 10
-9.396826
 20
38.739892
  0
VERTEX
  8
ordenamento_aeronautico
 10
-9.395825
 20
38.742528
  0
VERTEX
  8
ordenamento_aeronautico
 10
-9.394535
 20
38.745086
  0
VERTEX
  8
ordenamento_aeronautico
 10
-9.392965
 20
38.747546
  0
VERTEX
  8
ordenamento_aeronautico
 10
-9.391127
 20
38.749889
  0
VERTEX
  8
ordenamento_aeronautico
 10
-9.389035
 20
38.752098
  0
VERTEX
  8
ordenamento_aeronautico
 10
-9.388972
 20
38.752154
  0
VERTEX
  8
ordenamento_aeronautico
 10
-9.388971
 20
38.752155
  0
VERTEX
  8
ordenamento_aeronautico
 10
-9.388970
 20
38.752152
  0
VERTEX
  8
ordenamento_aeronautico
 10
-9.365560
 20
38.687945
  0
SEQEND
  0
POLYLINE
  8
ordenamento_aeronautico
  6
BYLAYER
 66
1
 70
1
 40
0.000000
 41
0.000000
  0
VERTEX
  8
ordenamento_aeronautico
 10
-9.418772
 20
38.728821
  0
VERTEX
  8
ordenamento_aeronautico
 10
-9.418772
 20
38.728810
  0
VERTEX
  8
ordenamento_aeronautico
 10
-9.418773
 20
38.728800
  0
VERTEX
  8
ordenamento_aeronautico
 10
-9.418775
 20
38.728790
  0
VERTEX
  8
ordenamento_aeronautico
 10
-9.418778
 20
38.728779
  0
VERTEX
  8
ordenamento_aeronautico
 10
-9.418781
 20
38.728769
  0
VERTEX
  8
ordenamento_aeronautico
 10
-9.418786
 20
38.728759
  0
VERTEX
  8
ordenamento_aeronautico
 10
-9.418791
 20
38.728750
  0
VERTEX
  8
ordenamento_aeronautico
 10
-9.418797
 20
38.728740
  0
VERTEX
  8
ordenamento_aeronautico
 10
-9.418803
 20
38.728731
  0
VERTEX
  8
ordenamento_aeronautico
 10
-9.418810
 20
38.728722
  0
VERTEX
  8
ordenamento_aeronautico
 10
-9.418818
 20
38.728714
  0
VERTEX
  8
ordenamento_aeronautico
 10
-9.418827
 20
38.728706
  0
VERTEX
  8
ordenamento_aeronautico
 10
-9.418836
 20
38.728698
  0
VERTEX
  8
ordenamento_aeronautico
 10
-9.418846
 20
38.728691
  0
VERTEX
  8
ordenamento_aeronautico
 10
-9.418856
 20
38.728685
  0
VERTEX
  8
ordenamento_aeronautico
 10
-9.418867
 20
38.728678
  0
VERTEX
  8
ordenamento_aeronautico
 10
-9.418879
 20
38.728673
  0
VERTEX
  8
ordenamento_aeronautico
 10
-9.418890
 20
38.728668
  0
VERTEX
  8
ordenamento_aeronautico
 10
-9.418903
 20
38.728664
  0
VERTEX
  8
ordenamento_aeronautico
 10
-9.418915
 20
38.728660
  0
VERTEX
  8
ordenamento_aeronautico
 10
-9.418928
 20
38.728657
  0
VERTEX
  8
ordenamento_aeronautico
 10
-9.418941
 20
38.728654
  0
VERTEX
  8
ordenamento_aeronautico
 10
-9.418954
 20
38.728652
  0
VERTEX
  8
ordenamento_aeronautico
 10
-9.418967
 20
38.728651
  0
VERTEX
  8
ordenamento_aeronautico
 10
-9.418981
 20
38.728650
  0
VERTEX
  8
ordenamento_aeronautico
 10
-9.418994
 20
38.728650
  0
VERTEX
  8
ordenamento_aeronautico
 10
-9.419007
 20
38.728651
  0
VERTEX
  8
ordenamento_aeronautico
 10
-9.419020
 20
38.728652
  0
VERTEX
  8
ordenamento_aeronautico
 10
-9.419034
 20
38.728654
  0
VERTEX
  8
ordenamento_aeronautico
 10
-9.419047
 20
38.728657
  0
VERTEX
  8
ordenamento_aeronautico
 10
-9.419059
 20
38.728660
  0
VERTEX
  8
ordenamento_aeronautico
 10
-9.419072
 20
38.728664
  0
VERTEX
  8
ordenamento_aeronautico
 10
-9.419084
 20
38.728668
  0
VERTEX
  8
ordenamento_aeronautico
 10
-9.419096
 20
38.728673
  0
VERTEX
  8
ordenamento_aeronautico
 10
-9.419107
 20
38.728679
  0
VERTEX
  8
ordenamento_aeronautico
 10
-9.419118
 20
38.728685
  0
VERTEX
  8
ordenamento_aeronautico
 10
-9.419128
 20
38.728692
  0
VERTEX
  8
ordenamento_aeronautico
 10
-9.419138
 20
38.728699
  0
VERTEX
  8
ordenamento_aeronautico
 10
-9.419147
 20
38.728706
  0
VERTEX
  8
ordenamento_aeronautico
 10
-9.419156
 20
38.728714
  0
VERTEX
  8
ordenamento_aeronautico
 10
-9.419164
 20
38.728723
  0
VERTEX
  8
ordenamento_aeronautico
 10
-9.419171
 20
38.728731
  0
VERTEX
  8
ordenamento_aeronautico
 10
-9.419178
 20
38.728741
  0
VERTEX
  8
ordenamento_aeronautico
 10
-9.419183
 20
38.728750
  0
VERTEX
  8
ordenamento_aeronautico
 10
-9.419188
 20
38.728760
  0
VERTEX
  8
ordenamento_aeronautico
 10
-9.419193
 20
38.728770
  0
VERTEX
  8
ordenamento_aeronautico
 10
-9.419196
 20
38.728780
  0
VERTEX
  8
ordenamento_aeronautico
 10
-9.419199
 20
38.728790
  0
VERTEX
  8
ordenamento_aeronautico
 10
-9.419201
 20
38.728800
  0
VERTEX
  8
ordenamento_aeronautico
 10
-9.419202
 20
38.728811
  0
VERTEX
  8
ordenamento_aeronautico
 10
-9.419202
 20
38.728821
  0
VERTEX
  8
ordenamento_aeronautico
 10
-9.419201
 20
38.728832
  0
VERTEX
  8
ordenamento_aeronautico
 10
-9.419200
 20
38.728842
  0
VERTEX
  8
ordenamento_aeronautico
 10
-9.419197
 20
38.728852
  0
VERTEX
  8
ordenamento_aeronautico
 10
-9.419194
 20
38.728863
  0
VERTEX
  8
ordenamento_aeronautico
 10
-9.419190
 20
38.728873
  0
VERTEX
  8
ordenamento_aeronautico
 10
-9.419186
 20
38.728882
  0
VERTEX
  8
ordenamento_aeronautico
 10
-9.419180
 20
38.728892
  0
VERTEX
  8
ordenamento_aeronautico
 10
-9.419174
 20
38.728901
  0
VERTEX
  8
ordenamento_aeronautico
 10
-9.419167
 20
38.728910
  0
VERTEX
  8
ordenamento_aeronautico
 10
-9.419160
 20
38.728919
  0
VERTEX
  8
ordenamento_aeronautico
 10
-9.419151
 20
38.728927
  0
VERTEX
  8
ordenamento_aeronautico
 10
-9.419142
 20
38.728935
  0
VERTEX
  8
ordenamento_aeronautico
 10
-9.419133
 20
38.728942
  0
VERTEX
  8
ordenamento_aeronautico
 10
-9.419123
 20
38.728949
  0
VERTEX
  8
ordenamento_aeronautico
 10
-9.419112
 20
38.728955
  0
VERTEX
  8
ordenamento_aeronautico
 10
-9.419101
 20
38.728961
  0
VERTEX
  8
ordenamento_aeronautico
 10
-9.419089
 20
38.728966
  0
VERTEX
  8
ordenamento_aeronautico
 10
-9.419077
 20
38.728971
  0
VERTEX
  8
ordenamento_aeronautico
 10
-9.419065
 20
38.728975
  0
VERTEX
  8
ordenamento_aeronautico
 10
-9.419052
 20
38.728979
  0
VERTEX
  8
ordenamento_aeronautico
 10
-9.419040
 20
38.728982
  0
VERTEX
  8
ordenamento_aeronautico
 10
-9.419026
 20
38.728984
  0
VERTEX
  8
ordenamento_aeronautico
 10
-9.419013
 20
38.728985
  0
VERTEX
  8
ordenamento_aeronautico
 10
-9.419000
 20
38.728986
  0
VERTEX
  8
ordenamento_aeronautico
 10
-9.418987
 20
38.728987
  0
VERTEX
  8
ordenamento_aeronautico
 10
-9.418973
 20
38.728986
  0
VERTEX
  8
ordenamento_aeronautico
 10
-9.418960
 20
38.728985
  0
VERTEX
  8
ordenamento_aeronautico
 10
-9.418947
 20
38.728984
  0
VERTEX
  8
ordenamento_aeronautico
 10
-9.418934
 20
38.728982
  0
VERTEX
  8
ordenamento_aeronautico
 10
-9.418921
 20
38.728979
  0
VERTEX
  8
ordenamento_aeronautico
 10
-9.418908
 20
38.728975
  0
VERTEX
  8
ordenamento_aeronautico
 10
-9.418896
 20
38.728971
  0
VERTEX
  8
ordenamento_aeronautico
 10
-9.418884
 20
38.728966
  0
VERTEX
  8
ordenamento_aeronautico
 10
-9.418872
 20
38.728961
  0
VERTEX
  8
ordenamento_aeronautico
 10
-9.418861
 20
38.728955
  0
VERTEX
  8
ordenamento_aeronautico
 10
-9.418851
 20
38.728949
  0
VERTEX
  8
ordenamento_aeronautico
 10
-9.418841
 20
38.728942
  0
VERTEX
  8
ordenamento_aeronautico
 10
-9.418831
 20
38.728934
  0
VERTEX
  8
ordenamento_aeronautico
 10
-9.418822
 20
38.728927
  0
VERTEX
  8
ordenamento_aeronautico
 10
-9.418814
 20
38.728918
  0
VERTEX
  8
ordenamento_aeronautico
 10
-9.418806
 20
38.728910
  0
VERTEX
  8
ordenamento_aeronautico
 10
-9.418800
 20
38.728901
  0
VERTEX
  8
ordenamento_aeronautico
 10
-9.418793
 20
38.728892
  0
VERTEX
  8
ordenamento_aeronautico
 10
-9.418788
 20
38.728882
  0
VERTEX
  8
ordenamento_aeronautico
 10
-9.418783
 20
38.728872
  0
VERTEX
  8
ordenamento_aeronautico
 10
-9.418779
 20
38.728862
  0
VERTEX
  8
ordenamento_aeronautico
 10
-9.418776
 20
38.728852
  0
VERTEX
  8
ordenamento_aeronautico
 10
-9.418774
 20
38.728842
  0
VERTEX
  8
ordenamento_aeronautico
 10
-9.418773
 20
38.728831
  0
VERTEX
  8
ordenamento_aeronautico
 10
-9.418772
 20
38.728821
  0
SEQEND
  0
POLYLINE
  8
ordenamento_aeronautico
  6
BYLAYER
 66
1
 70
1
 40
0.000000
 41
0.000000
  0
VERTEX
  8
ordenamento_aeronautico
 10
-9.205686
 20
38.726463
  0
VERTEX
  8
ordenamento_aeronautico
 10
-9.205866
 20
38.719181
  0
VERTEX
  8
ordenamento_aeronautico
 10
-9.206624
 20
38.711922
  0
VERTEX
  8
ordenamento_aeronautico
 10
-9.207956
 20
38.704714
  0
VERTEX
  8
ordenamento_aeronautico
 10
-9.209857
 20
38.697585
  0
VERTEX
  8
ordenamento_aeronautico
 10
-9.212320
 20
38.690562
  0
VERTEX
  8
ordenamento_aeronautico
 10
-9.215334
 20
38.683672
  0
VERTEX
  8
ordenamento_aeronautico
 10
-9.218888
 20
38.676943
  0
VERTEX
  8
ordenamento_aeronautico
 10
-9.222969
 20
38.670400
  0
VERTEX
  8
ordenamento_aeronautico
 10
-9.227560
 20
38.664068
  0
VERTEX
  8
ordenamento_aeronautico
 10
-9.232643
 20
38.657972
  0
VERTEX
  8
ordenamento_aeronautico
 10
-9.238199
 20
38.652135
  0
VERTEX
  8
ordenamento_aeronautico
 10
-9.244205
 20
38.646581
  0
VERTEX
  8
ordenamento_aeronautico
 10
-9.250640
 20
38.641329
  0
VERTEX
  8
ordenamento_aeronautico
 10
-9.257478
 20
38.636401
  0
VERTEX
  8
ordenamento_aeronautico
 10
-9.264692
 20
38.631815
  0
VERTEX
  8
ordenamento_aeronautico
 10
-9.272254
 20
38.627590
  0
VERTEX
  8
ordenamento_aeronautico
 10
-9.280136
 20
38.623741
  0
VERTEX
  8
ordenamento_aeronautico
 10
-9.288307
 20
38.620283
  0
VERTEX
  8
ordenamento_aeronautico
 10
-9.296736
 20
38.617230
  0
VERTEX
  8
ordenamento_aeronautico
 10
-9.305389
 20
38.614594
  0
VERTEX
  8
ordenamento_aeronautico
 10
-9.314235
 20
38.612384
  0
VERTEX
  8
ordenamento_aeronautico
 10
-9.323237
 20
38.610609
  0
VERTEX
  8
ordenamento_aeronautico
 10
-9.332363
 20
38.609275
  0
VERTEX
  8
ordenamento_aeronautico
 10
-9.341576
 20
38.608389
  0
VERTEX
  8
ordenamento_aeronautico
 10
-9.350841
 20
38.607953
  0
VERTEX
  8
ordenamento_aeronautico
 10
-9.360123
 20
38.607970
  0
VERTEX
  8
ordenamento_aeronautico
 10
-9.369386
 20
38.608438
  0
VERTEX
  8
ordenamento_aeronautico
 10
-9.378594
 20
38.609357
  0
VERTEX
  8
ordenamento_aeronautico
 10
-9.387712
 20
38.610722
  0
VERTEX
  8
ordenamento_aeronautico
 10
-9.396704
 20
38.612528
  0
VERTEX
  8
ordenamento_aeronautico
 10
-9.405536
 20
38.614769
  0
VERTEX
  8
ordenamento_aeronautico
 10
-9.414174
 20
38.617436
  0
VERTEX
  8
ordenamento_aeronautico
 10
-9.422585
 20
38.620519
  0
VERTEX
  8
ordenamento_aeronautico
 10
-9.430736
 20
38.624005
  0
VERTEX
  8
ordenamento_aeronautico
 10
-9.438596
 20
38.627881
  0
VERTEX
  8
ordenamento_aeronautico
 10
-9.446134
 20
38.632133
  0
VERTEX
  8
ordenamento_aeronautico
 10
-9.453322
 20
38.636744
  0
VERTEX
  8
ordenamento_aeronautico
 10
-9.460131
 20
38.641695
  0
VERTEX
  8
ordenamento_aeronautico
 10
-9.466536
 20
38.646969
  0
VERTEX
  8
ordenamento_aeronautico
 10
-9.472510
 20
38.652545
  0
VERTEX
  8
ordenamento_aeronautico
 10
-9.478033
 20
38.658400
  0
VERTEX
  8
ordenamento_aeronautico
 10
-9.483081
 20
38.664514
  0
VERTEX
  8
ordenamento_aeronautico
 10
-9.487636
 20
38.670861
  0
VERTEX
  8
ordenamento_aeronautico
 10
-9.491679
 20
38.677418
  0
VERTEX
  8
ordenamento_aeronautico
 10
-9.495195
 20
38.684159
  0
VERTEX
  8
ordenamento_aeronautico
 10
-9.498170
 20
38.691058
  0
VERTEX
  8
ordenamento_aeronautico
 10
-9.500592
 20
38.698089
  0
VERTEX
  8
ordenamento_aeronautico
 10
-9.502453
 20
38.705225
  0
VERTEX
  8
ordenamento_aeronautico
 10
-9.503744
 20
38.712437
  0
VERTEX
  8
ordenamento_aeronautico
 10
-9.504461
 20
38.719698
  0
VERTEX
  8
ordenamento_aeronautico
 10
-9.504600
 20
38.726980
  0
VERTEX
  8
ordenamento_aeronautico
 10
-9.504161
 20
38.734254
  0
VERTEX
  8
ordenamento_aeronautico
 10
-9.503146
 20
38.741493
  0
VERTEX
  8
ordenamento_aeronautico
 10
-9.501557
 20
38.748669
  0
VERTEX
  8
ordenamento_aeronautico
 10
-9.499401
 20
38.755753
  0
VERTEX
  8
ordenamento_aeronautico
 10
-9.496687
 20
38.762719
  0
VERTEX
  8
ordenamento_aeronautico
 10
-9.493424
 20
38.769539
  0
VERTEX
  8
ordenamento_aeronautico
 10
-9.489626
 20
38.776187
  0
VERTEX
  8
ordenamento_aeronautico
 10
-9.485306
 20
38.782637
  0
VERTEX
  8
ordenamento_aeronautico
 10
-9.480481
 20
38.788864
  0
VERTEX
  8
ordenamento_aeronautico
 10
-9.475170
 20
38.794844
  0
VERTEX
  8
ordenamento_aeronautico
 10
-9.469393
 20
38.800554
  0
VERTEX
  8
ordenamento_aeronautico
 10
-9.463173
 20
38.805971
  0
VERTEX
  8
ordenamento_aeronautico
 10
-9.456534
 20
38.811076
  0
VERTEX
  8
ordenamento_aeronautico
 10
-9.449501
 20
38.815846
  0
VERTEX
  8
ordenamento_aeronautico
 10
-9.442102
 20
38.820265
  0
VERTEX
  8
ordenamento_aeronautico
 10
-9.434365
 20
38.824316
  0
VERTEX
  8
ordenamento_aeronautico
 10
-9.426320
 20
38.827981
  0
VERTEX
  8
ordenamento_aeronautico
 10
-9.417998
 20
38.831248
  0
VERTEX
  8
ordenamento_aeronautico
 10
-9.409432
 20
38.834103
  0
VERTEX
  8
ordenamento_aeronautico
 10
-9.400656
 20
38.836535
  0
VERTEX
  8
ordenamento_aeronautico
 10
-9.391702
 20
38.838535
  0
VERTEX
  8
ordenamento_aeronautico
 10
-9.382607
 20
38.840095
  0
VERTEX
  8
ordenamento_aeronautico
 10
-9.373404
 20
38.841209
  0
VERTEX
  8
ordenamento_aeronautico
 10
-9.364131
 20
38.841873
  0
VERTEX
  8
ordenamento_aeronautico
 10
-9.354822
 20
38.842084
  0
VERTEX
  8
ordenamento_aeronautico
 10
-9.345515
 20
38.841842
  0
VERTEX
  8
ordenamento_aeronautico
 10
-9.336245
 20
38.841146
  0
VERTEX
  8
ordenamento_aeronautico
 10
-9.327049
 20
38.840001
  0
VERTEX
  8
ordenamento_aeronautico
 10
-9.317962
 20
38.838409
  0
VERTEX
  8
ordenamento_aeronautico
 10
-9.309019
 20
38.836379
  0
VERTEX
  8
ordenamento_aeronautico
 10
-9.300256
 20
38.833916
  0
VERTEX
  8
ordenamento_aeronautico
 10
-9.291706
 20
38.831032
  0
VERTEX
  8
ordenamento_aeronautico
 10
-9.283403
 20
38.827737
  0
VERTEX
  8
ordenamento_aeronautico
 10
-9.275378
 20
38.824044
  0
VERTEX
  8
ordenamento_aeronautico
 10
-9.267664
 20
38.819967
  0
VERTEX
  8
ordenamento_aeronautico
 10
-9.260289
 20
38.815523
  0
VERTEX
  8
ordenamento_aeronautico
 10
-9.253282
 20
38.810728
  0
VERTEX
  8
ordenamento_aeronautico
 10
-9.246671
 20
38.805601
  0
VERTEX
  8
ordenamento_aeronautico
 10
-9.240481
 20
38.800162
  0
VERTEX
  8
ordenamento_aeronautico
 10
-9.234736
 20
38.794432
  0
VERTEX
  8
ordenamento_aeronautico
 10
-9.229459
 20
38.788434
  0
VERTEX
  8
ordenamento_aeronautico
 10
-9.224669
 20
38.782190
  0
VERTEX
  8
ordenamento_aeronautico
 10
-9.220385
 20
38.775724
  0
VERTEX
  8
ordenamento_aeronautico
 10
-9.216623
 20
38.769063
  0
VERTEX
  8
ordenamento_aeronautico
 10
-9.213398
 20
38.762231
  0
VERTEX
  8
ordenamento_aeronautico
 10
-9.210723
 20
38.755256
  0
VERTEX
  8
ordenamento_aeronautico
 10
-9.208607
 20
38.748164
  0
VERTEX
  8
ordenamento_aeronautico
 10
-9.207059
 20
38.740982
  0
VERTEX
  8
ordenamento_aeronautico
 10
-9.206084
 20
38.733739
  0
VERTEX
  8
ordenamento_aeronautico
 10
-9.205686
 20
38.726463
  0
SEQEND
  0
POLYLINE
  8
ordenamento_aeronautico
  6
BYLAYER
 66
1
 70
1
 40
0.000000
 41
0.000000
  0
VERTEX
  8
ordenamento_aeronautico
 10
-9.324962
 20
38.725086
  0
VERTEX
  8
ordenamento_aeronautico
 10
-9.324995
 20
38.723678
  0
VERTEX
  8
ordenamento_aeronautico
 10
-9.325139
 20
38.722274
  0
VERTEX
  8
ordenamento_aeronautico
 10
-9.325395
 20
38.720880
  0
VERTEX
  8
ordenamento_aeronautico
 10
-9.325760
 20
38.719501
  0
VERTEX
  8
ordenamento_aeronautico
 10
-9.326234
 20
38.718142
  0
VERTEX
  8
ordenamento_aeronautico
 10
-9.326815
 20
38.716809
  0
VERTEX
  8
ordenamento_aeronautico
 10
-9.327501
 20
38.715507
  0
VERTEX
  8
ordenamento_aeronautico
 10
-9.328289
 20
38.714241
  0
VERTEX
  8
ordenamento_aeronautico
 10
-9.329175
 20
38.713016
  0
VERTEX
  8
ordenamento_aeronautico
 10
-9.330157
 20
38.711836
  0
VERTEX
  8
ordenamento_aeronautico
 10
-9.331231
 20
38.710707
  0
VERTEX
  8
ordenamento_aeronautico
 10
-9.332392
 20
38.709632
  0
VERTEX
  8
ordenamento_aeronautico
 10
-9.333636
 20
38.708615
  0
VERTEX
  8
ordenamento_aeronautico
 10
-9.334959
 20
38.707661
  0
VERTEX
  8
ordenamento_aeronautico
 10
-9.336354
 20
38.706774
  0
VERTEX
  8
ordenamento_aeronautico
 10
-9.337818
 20
38.705956
  0
VERTEX
  8
ordenamento_aeronautico
 10
-9.339343
 20
38.705210
  0
VERTEX
  8
ordenamento_aeronautico
 10
-9.340924
 20
38.704541
  0
VERTEX
  8
ordenamento_aeronautico
 10
-9.342556
 20
38.703950
  0
VERTEX
  8
ordenamento_aeronautico
 10
-9.344231
 20
38.703439
  0
VERTEX
  8
ordenamento_aeronautico
 10
-9.345943
 20
38.703011
  0
VERTEX
  8
ordenamento_aeronautico
 10
-9.347686
 20
38.702668
  0
VERTEX
  8
ordenamento_aeronautico
 10
-9.349453
 20
38.702410
  0
VERTEX
  8
ordenamento_aeronautico
 10
-9.351237
 20
38.702238
  0
VERTEX
  8
ordenamento_aeronautico
 10
-9.353031
 20
38.702154
  0
VERTEX
  8
ordenamento_aeronautico
 10
-9.354829
 20
38.702157
  0
VERTEX
  8
ordenamento_aeronautico
 10
-9.356622
 20
38.702247
  0
VERTEX
  8
ordenamento_aeronautico
 10
-9.358405
 20
38.702425
  0
VERTEX
  8
ordenamento_aeronautico
 10
-9.360171
 20
38.702690
  0
VERTEX
  8
ordenamento_aeronautico
 10
-9.361912
 20
38.703039
  0
VERTEX
  8
ordenamento_aeronautico
 10
-9.363622
 20
38.703473
  0
VERTEX
  8
ordenamento_aeronautico
 10
-9.365294
 20
38.703990
  0
VERTEX
  8
ordenamento_aeronautico
 10
-9.366922
 20
38.704586
  0
VERTEX
  8
ordenamento_aeronautico
 10
-9.368500
 20
38.705261
  0
VERTEX
  8
ordenamento_aeronautico
 10
-9.370020
 20
38.706012
  0
VERTEX
  8
ordenamento_aeronautico
 10
-9.371479
 20
38.706835
  0
VERTEX
  8
ordenamento_aeronautico
 10
-9.372870
 20
38.707727
  0
VERTEX
  8
ordenamento_aeronautico
 10
-9.374187
 20
38.708686
  0
VERTEX
  8
ordenamento_aeronautico
 10
-9.375425
 20
38.709707
  0
VERTEX
  8
ordenamento_aeronautico
 10
-9.376580
 20
38.710786
  0
VERTEX
  8
ordenamento_aeronautico
 10
-9.377647
 20
38.711919
  0
VERTEX
  8
ordenamento_aeronautico
 10
-9.378623
 20
38.713102
  0
VERTEX
  8
ordenamento_aeronautico
 10
-9.379502
 20
38.714330
  0
VERTEX
  8
ordenamento_aeronautico
 10
-9.380283
 20
38.715599
  0
VERTEX
  8
ordenamento_aeronautico
 10
-9.380961
 20
38.716904
  0
VERTEX
  8
ordenamento_aeronautico
 10
-9.381534
 20
38.718238
  0
VERTEX
  8
ordenamento_aeronautico
 10
-9.382001
 20
38.719599
  0
VERTEX
  8
ordenamento_aeronautico
 10
-9.382358
 20
38.720979
  0
VERTEX
  8
ordenamento_aeronautico
 10
-9.382606
 20
38.722374
  0
VERTEX
  8
ordenamento_aeronautico
 10
-9.382742
 20
38.723778
  0
VERTEX
  8
ordenamento_aeronautico
 10
-9.382767
 20
38.725186
  0
VERTEX
  8
ordenamento_aeronautico
 10
-9.382679
 20
38.726593
  0
VERTEX
  8
ordenamento_aeronautico
 10
-9.382481
 20
38.727993
  0
VERTEX
  8
ordenamento_aeronautico
 10
-9.382171
 20
38.729380
  0
VERTEX
  8
ordenamento_aeronautico
 10
-9.381752
 20
38.730750
  0
VERTEX
  8
ordenamento_aeronautico
 10
-9.381225
 20
38.732097
  0
VERTEX
  8
ordenamento_aeronautico
 10
-9.380592
 20
38.733415
  0
VERTEX
  8
ordenamento_aeronautico
 10
-9.379856
 20
38.734700
  0
VERTEX
  8
ordenamento_aeronautico
 10
-9.379019
 20
38.735946
  0
VERTEX
  8
ordenamento_aeronautico
 10
-9.378085
 20
38.737150
  0
VERTEX
  8
ordenamento_aeronautico
 10
-9.377057
 20
38.738305
  0
VERTEX
  8
ordenamento_aeronautico
 10
-9.375940
 20
38.739409
  0
VERTEX
  8
ordenamento_aeronautico
 10
-9.374736
 20
38.740455
  0
VERTEX
  8
ordenamento_aeronautico
 10
-9.373452
 20
38.741441
  0
VERTEX
  8
ordenamento_aeronautico
 10
-9.372092
 20
38.742363
  0
VERTEX
  8
ordenamento_aeronautico
 10
-9.370662
 20
38.743217
  0
VERTEX
  8
ordenamento_aeronautico
 10
-9.369167
 20
38.743999
  0
VERTEX
  8
ordenamento_aeronautico
 10
-9.367612
 20
38.744707
  0
VERTEX
  8
ordenamento_aeronautico
 10
-9.366004
 20
38.745338
  0
VERTEX
  8
ordenamento_aeronautico
 10
-9.364349
 20
38.745890
  0
VERTEX
  8
ordenamento_aeronautico
 10
-9.362654
 20
38.746359
  0
VERTEX
  8
ordenamento_aeronautico
 10
-9.360924
 20
38.746746
  0
VERTEX
  8
ordenamento_aeronautico
 10
-9.359168
 20
38.747047
  0
VERTEX
  8
ordenamento_aeronautico
 10
-9.357390
 20
38.747262
  0
VERTEX
  8
ordenamento_aeronautico
 10
-9.355599
 20
38.747390
  0
VERTEX
  8
ordenamento_aeronautico
 10
-9.353801
 20
38.747431
  0
VERTEX
  8
ordenamento_aeronautico
 10
-9.352004
 20
38.747384
  0
VERTEX
  8
ordenamento_aeronautico
 10
-9.350214
 20
38.747250
  0
VERTEX
  8
ordenamento_aeronautico
 10
-9.348438
 20
38.747028
  0
VERTEX
  8
ordenamento_aeronautico
 10
-9.346682
 20
38.746721
  0
VERTEX
  8
ordenamento_aeronautico
 10
-9.344955
 20
38.746329
  0
VERTEX
  8
ordenamento_aeronautico
 10
-9.343262
 20
38.745853
  0
VERTEX
  8
ordenamento_aeronautico
 10
-9.341611
 20
38.745296
  0
VERTEX
  8
ordenamento_aeronautico
 10
-9.340006
 20
38.744659
  0
VERTEX
  8
ordenamento_aeronautico
 10
-9.338456
 20
38.743946
  0
VERTEX
  8
ordenamento_aeronautico
 10
-9.336965
 20
38.743158
  0
VERTEX
  8
ordenamento_aeronautico
 10
-9.335539
 20
38.742300
  0
VERTEX
  8
ordenamento_aeronautico
 10
-9.334185
 20
38.741373
  0
VERTEX
  8
ordenamento_aeronautico
 10
-9.332906
 20
38.740383
  0
VERTEX
  8
ordenamento_aeronautico
 10
-9.331709
 20
38.739332
  0
VERTEX
  8
ordenamento_aeronautico
 10
-9.330598
 20
38.738225
  0
VERTEX
  8
ordenamento_aeronautico
 10
-9.329576
 20
38.737065
  0
VERTEX
  8
ordenamento_aeronautico
 10
-9.328649
 20
38.735859
  0
VERTEX
  8
ordenamento_aeronautico
 10
-9.327819
 20
38.734609
  0
VERTEX
  8
ordenamento_aeronautico
 10
-9.327090
 20
38.733322
  0
VERTEX
  8
ordenamento_aeronautico
 10
-9.326465
 20
38.732001
  0
VERTEX
  8
ordenamento_aeronautico
 10
-9.325945
 20
38.730653
  0
VERTEX
  8
ordenamento_aeronautico
 10
-9.325534
 20
38.729282
  0
VERTEX
  8
ordenamento_aeronautico
 10
-9.325233
 20
38.727893
  0
VERTEX
  8
ordenamento_aeronautico
 10
-9.325042
 20
38.726493
  0
VERTEX
  8
ordenamento_aeronautico
 10
-9.324962
 20
38.725086
  0
SEQEND
  0
POLYLINE
  8
ordenamento_aeronautico
  6
BYLAYER
 66
1
 70
1
 40
0.000000
 41
0.000000
  0
VERTEX
  8
ordenamento_aeronautico
 10
-9.357762
 20
38.725429
  0
VERTEX
  8
ordenamento_aeronautico
 10
-9.357762
 20
38.725395
  0
VERTEX
  8
ordenamento_aeronautico
 10
-9.357766
 20
38.725362
  0
VERTEX
  8
ordenamento_aeronautico
 10
-9.357772
 20
38.725328
  0
VERTEX
  8
ordenamento_aeronautico
 10
-9.357780
 20
38.725295
  0
VERTEX
  8
ordenamento_aeronautico
 10
-9.357792
 20
38.725263
  0
VERTEX
  8
ordenamento_aeronautico
 10
-9.357806
 20
38.725231
  0
VERTEX
  8
ordenamento_aeronautico
 10
-9.357822
 20
38.725200
  0
VERTEX
  8
ordenamento_aeronautico
 10
-9.357841
 20
38.725170
  0
VERTEX
  8
ordenamento_aeronautico
 10
-9.357862
 20
38.725140
  0
VERTEX
  8
ordenamento_aeronautico
 10
-9.357885
 20
38.725112
  0
VERTEX
  8
ordenamento_aeronautico
 10
-9.357911
 20
38.725085
  0
VERTEX
  8
ordenamento_aeronautico
 10
-9.357939
 20
38.725060
  0
VERTEX
  8
ordenamento_aeronautico
 10
-9.357968
 20
38.725035
  0
VERTEX
  8
ordenamento_aeronautico
 10
-9.358000
 20
38.725013
  0
VERTEX
  8
ordenamento_aeronautico
 10
-9.358033
 20
38.724991
  0
VERTEX
  8
ordenamento_aeronautico
 10
-9.358068
 20
38.724972
  0
VERTEX
  8
ordenamento_aeronautico
 10
-9.358105
 20
38.724954
  0
VERTEX
  8
ordenamento_aeronautico
 10
-9.358142
 20
38.724938
  0
VERTEX
  8
ordenamento_aeronautico
 10
-9.358181
 20
38.724924
  0
VERTEX
  8
ordenamento_aeronautico
 10
-9.358221
 20
38.724912
  0
VERTEX
  8
ordenamento_aeronautico
 10
-9.358262
 20
38.724902
  0
VERTEX
  8
ordenamento_aeronautico
 10
-9.358304
 20
38.724894
  0
VERTEX
  8
ordenamento_aeronautico
 10
-9.358346
 20
38.724887
  0
VERTEX
  8
ordenamento_aeronautico
 10
-9.358388
 20
38.724883
  0
VERTEX
  8
ordenamento_aeronautico
 10
-9.358431
 20
38.724881
  0
VERTEX
  8
ordenamento_aeronautico
 10
-9.358474
 20
38.724881
  0
VERTEX
  8
ordenamento_aeronautico
 10
-9.358517
 20
38.724883
  0
VERTEX
  8
ordenamento_aeronautico
 10
-9.358560
 20
38.724888
  0
VERTEX
  8
ordenamento_aeronautico
 10
-9.358602
 20
38.724894
  0
VERTEX
  8
ordenamento_aeronautico
 10
-9.358643
 20
38.724902
  0
VERTEX
  8
ordenamento_aeronautico
 10
-9.358684
 20
38.724913
  0
VERTEX
  8
ordenamento_aeronautico
 10
-9.358724
 20
38.724925
  0
VERTEX
  8
ordenamento_aeronautico
 10
-9.358763
 20
38.724939
  0
VERTEX
  8
ordenamento_aeronautico
 10
-9.358801
 20
38.724955
  0
VERTEX
  8
ordenamento_aeronautico
 10
-9.358837
 20
38.724973
  0
VERTEX
  8
ordenamento_aeronautico
 10
-9.358872
 20
38.724993
  0
VERTEX
  8
ordenamento_aeronautico
 10
-9.358905
 20
38.725014
  0
VERTEX
  8
ordenamento_aeronautico
 10
-9.358936
 20
38.725037
  0
VERTEX
  8
ordenamento_aeronautico
 10
-9.358966
 20
38.725062
  0
VERTEX
  8
ordenamento_aeronautico
 10
-9.358993
 20
38.725087
  0
VERTEX
  8
ordenamento_aeronautico
 10
-9.359019
 20
38.725114
  0
VERTEX
  8
ordenamento_aeronautico
 10
-9.359042
 20
38.725142
  0
VERTEX
  8
ordenamento_aeronautico
 10
-9.359063
 20
38.725172
  0
VERTEX
  8
ordenamento_aeronautico
 10
-9.359082
 20
38.725202
  0
VERTEX
  8
ordenamento_aeronautico
 10
-9.359098
 20
38.725233
  0
VERTEX
  8
ordenamento_aeronautico
 10
-9.359112
 20
38.725265
  0
VERTEX
  8
ordenamento_aeronautico
 10
-9.359123
 20
38.725298
  0
VERTEX
  8
ordenamento_aeronautico
 10
-9.359131
 20
38.725331
  0
VERTEX
  8
ordenamento_aeronautico
 10
-9.359137
 20
38.725364
  0
VERTEX
  8
ordenamento_aeronautico
 10
-9.359140
 20
38.725397
  0
VERTEX
  8
ordenamento_aeronautico
 10
-9.359141
 20
38.725431
  0
VERTEX
  8
ordenamento_aeronautico
 10
-9.359139
 20
38.725464
  0
VERTEX
  8
ordenamento_aeronautico
 10
-9.359134
 20
38.725498
  0
VERTEX
  8
ordenamento_aeronautico
 10
-9.359127
 20
38.725531
  0
VERTEX
  8
ordenamento_aeronautico
 10
-9.359117
 20
38.725564
  0
VERTEX
  8
ordenamento_aeronautico
 10
-9.359104
 20
38.725596
  0
VERTEX
  8
ordenamento_aeronautico
 10
-9.359089
 20
38.725627
  0
VERTEX
  8
ordenamento_aeronautico
 10
-9.359071
 20
38.725658
  0
VERTEX
  8
ordenamento_aeronautico
 10
-9.359051
 20
38.725688
  0
VERTEX
  8
ordenamento_aeronautico
 10
-9.359029
 20
38.725717
  0
VERTEX
  8
ordenamento_aeronautico
 10
-9.359005
 20
38.725744
  0
VERTEX
  8
ordenamento_aeronautico
 10
-9.358978
 20
38.725770
  0
VERTEX
  8
ordenamento_aeronautico
 10
-9.358949
 20
38.725795
  0
VERTEX
  8
ordenamento_aeronautico
 10
-9.358919
 20
38.725819
  0
VERTEX
  8
ordenamento_aeronautico
 10
-9.358886
 20
38.725841
  0
VERTEX
  8
ordenamento_aeronautico
 10
-9.358852
 20
38.725861
  0
VERTEX
  8
ordenamento_aeronautico
 10
-9.358816
 20
38.725880
  0
VERTEX
  8
ordenamento_aeronautico
 10
-9.358779
 20
38.725897
  0
VERTEX
  8
ordenamento_aeronautico
 10
-9.358741
 20
38.725912
  0
VERTEX
  8
ordenamento_aeronautico
 10
-9.358701
 20
38.725925
  0
VERTEX
  8
ordenamento_aeronautico
 10
-9.358661
 20
38.725936
  0
VERTEX
  8
ordenamento_aeronautico
 10
-9.358620
 20
38.725945
  0
VERTEX
  8
ordenamento_aeronautico
 10
-9.358578
 20
38.725953
  0
VERTEX
  8
ordenamento_aeronautico
 10
-9.358535
 20
38.725958
  0
VERTEX
  8
ordenamento_aeronautico
 10
-9.358493
 20
38.725961
  0
VERTEX
  8
ordenamento_aeronautico
 10
-9.358450
 20
38.725962
  0
VERTEX
  8
ordenamento_aeronautico
 10
-9.358407
 20
38.725961
  0
VERTEX
  8
ordenamento_aeronautico
 10
-9.358364
 20
38.725958
  0
VERTEX
  8
ordenamento_aeronautico
 10
-9.358322
 20
38.725952
  0
VERTEX
  8
ordenamento_aeronautico
 10
-9.358280
 20
38.725945
  0
VERTEX
  8
ordenamento_aeronautico
 10
-9.358239
 20
38.725935
  0
VERTEX
  8
ordenamento_aeronautico
 10
-9.358198
 20
38.725924
  0
VERTEX
  8
ordenamento_aeronautico
 10
-9.358159
 20
38.725911
  0
VERTEX
  8
ordenamento_aeronautico
 10
-9.358121
 20
38.725896
  0
VERTEX
  8
ordenamento_aeronautico
 10
-9.358084
 20
38.725879
  0
VERTEX
  8
ordenamento_aeronautico
 10
-9.358048
 20
38.725860
  0
VERTEX
  8
ordenamento_aeronautico
 10
-9.358014
 20
38.725839
  0
VERTEX
  8
ordenamento_aeronautico
 10
-9.357982
 20
38.725817
  0
VERTEX
  8
ordenamento_aeronautico
 10
-9.357951
 20
38.725794
  0
VERTEX
  8
ordenamento_aeronautico
 10
-9.357923
 20
38.725769
  0
VERTEX
  8
ordenamento_aeronautico
 10
-9.357896
 20
38.725742
  0
VERTEX
  8
ordenamento_aeronautico
 10
-9.357872
 20
38.725715
  0
VERTEX
  8
ordenamento_aeronautico
 10
-9.357850
 20
38.725686
  0
VERTEX
  8
ordenamento_aeronautico
 10
-9.357830
 20
38.725656
  0
VERTEX
  8
ordenamento_aeronautico
 10
-9.357812
 20
38.725625
  0
VERTEX
  8
ordenamento_aeronautico
 10
-9.357797
 20
38.725594
  0
VERTEX
  8
ordenamento_aeronautico
 10
-9.357785
 20
38.725561
  0
VERTEX
  8
ordenamento_aeronautico
 10
-9.357775
 20
38.725529
  0
VERTEX
  8
ordenamento_aeronautico
 10
-9.357768
 20
38.725496
  0
VERTEX
  8
ordenamento_aeronautico
 10
-9.357763
 20
38.725462
  0
VERTEX
  8
ordenamento_aeronautico
 10
-9.357762
 20
38.725429
  0
SEQEND
  0
POLYLINE
  8
ordenamento_aeronautico
  6
BYLAYER
 66
1
 70
1
 40
0.000000
 41
0.000000
  0
VERTEX
  8
ordenamento_aeronautico
 10
-9.355002
 20
38.725458
  0
VERTEX
  8
ordenamento_aeronautico
 10
-9.355006
 20
38.725290
  0
VERTEX
  8
ordenamento_aeronautico
 10
-9.355023
 20
38.725122
  0
VERTEX
  8
ordenamento_aeronautico
 10
-9.355054
 20
38.724956
  0
VERTEX
  8
ordenamento_aeronautico
 10
-9.355097
 20
38.724791
  0
VERTEX
  8
ordenamento_aeronautico
 10
-9.355154
 20
38.724629
  0
VERTEX
  8
ordenamento_aeronautico
 10
-9.355223
 20
38.724470
  0
VERTEX
  8
ordenamento_aeronautico
 10
-9.355305
 20
38.724314
  0
VERTEX
  8
ordenamento_aeronautico
 10
-9.355399
 20
38.724163
  0
VERTEX
  8
ordenamento_aeronautico
 10
-9.355504
 20
38.724017
  0
VERTEX
  8
ordenamento_aeronautico
 10
-9.355622
 20
38.723876
  0
VERTEX
  8
ordenamento_aeronautico
 10
-9.355750
 20
38.723741
  0
VERTEX
  8
ordenamento_aeronautico
 10
-9.355888
 20
38.723613
  0
VERTEX
  8
ordenamento_aeronautico
 10
-9.356037
 20
38.723492
  0
VERTEX
  8
ordenamento_aeronautico
 10
-9.356194
 20
38.723378
  0
VERTEX
  8
ordenamento_aeronautico
 10
-9.356361
 20
38.723272
  0
VERTEX
  8
ordenamento_aeronautico
 10
-9.356536
 20
38.723174
  0
VERTEX
  8
ordenamento_aeronautico
 10
-9.356718
 20
38.723085
  0
VERTEX
  8
ordenamento_aeronautico
 10
-9.356906
 20
38.723006
  0
VERTEX
  8
ordenamento_aeronautico
 10
-9.357101
 20
38.722935
  0
VERTEX
  8
ordenamento_aeronautico
 10
-9.357301
 20
38.722874
  0
VERTEX
  8
ordenamento_aeronautico
 10
-9.357505
 20
38.722823
  0
VERTEX
  8
ordenamento_aeronautico
 10
-9.357714
 20
38.722782
  0
VERTEX
  8
ordenamento_aeronautico
 10
-9.357924
 20
38.722751
  0
VERTEX
  8
ordenamento_aeronautico
 10
-9.358137
 20
38.722731
  0
VERTEX
  8
ordenamento_aeronautico
 10
-9.358351
 20
38.722720
  0
VERTEX
  8
ordenamento_aeronautico
 10
-9.358566
 20
38.722721
  0
VERTEX
  8
ordenamento_aeronautico
 10
-9.358780
 20
38.722732
  0
VERTEX
  8
ordenamento_aeronautico
 10
-9.358993
 20
38.722753
  0
VERTEX
  8
ordenamento_aeronautico
 10
-9.359204
 20
38.722784
  0
VERTEX
  8
ordenamento_aeronautico
 10
-9.359411
 20
38.722826
  0
VERTEX
  8
ordenamento_aeronautico
 10
-9.359616
 20
38.722878
  0
VERTEX
  8
ordenamento_aeronautico
 10
-9.359815
 20
38.722940
  0
VERTEX
  8
ordenamento_aeronautico
 10
-9.360010
 20
38.723011
  0
VERTEX
  8
ordenamento_aeronautico
 10
-9.360198
 20
38.723091
  0
VERTEX
  8
ordenamento_aeronautico
 10
-9.360379
 20
38.723181
  0
VERTEX
  8
ordenamento_aeronautico
 10
-9.360553
 20
38.723279
  0
VERTEX
  8
ordenamento_aeronautico
 10
-9.360719
 20
38.723386
  0
VERTEX
  8
ordenamento_aeronautico
 10
-9.360877
 20
38.723500
  0
VERTEX
  8
ordenamento_aeronautico
 10
-9.361024
 20
38.723622
  0
VERTEX
  8
ordenamento_aeronautico
 10
-9.361162
 20
38.723751
  0
VERTEX
  8
ordenamento_aeronautico
 10
-9.361289
 20
38.723886
  0
VERTEX
  8
ordenamento_aeronautico
 10
-9.361406
 20
38.724027
  0
VERTEX
  8
ordenamento_aeronautico
 10
-9.361511
 20
38.724174
  0
VERTEX
  8
ordenamento_aeronautico
 10
-9.361604
 20
38.724325
  0
VERTEX
  8
ordenamento_aeronautico
 10
-9.361685
 20
38.724481
  0
VERTEX
  8
ordenamento_aeronautico
 10
-9.361753
 20
38.724640
  0
VERTEX
  8
ordenamento_aeronautico
 10
-9.361809
 20
38.724802
  0
VERTEX
  8
ordenamento_aeronautico
 10
-9.361852
 20
38.724967
  0
VERTEX
  8
ordenamento_aeronautico
 10
-9.361881
 20
38.725134
  0
VERTEX
  8
ordenamento_aeronautico
 10
-9.361897
 20
38.725301
  0
VERTEX
  8
ordenamento_aeronautico
 10
-9.361900
 20
38.725469
  0
VERTEX
  8
ordenamento_aeronautico
 10
-9.361890
 20
38.725637
  0
VERTEX
  8
ordenamento_aeronautico
 10
-9.361866
 20
38.725804
  0
VERTEX
  8
ordenamento_aeronautico
 10
-9.361829
 20
38.725970
  0
VERTEX
  8
ordenamento_aeronautico
 10
-9.361779
 20
38.726133
  0
VERTEX
  8
ordenamento_aeronautico
 10
-9.361716
 20
38.726294
  0
VERTEX
  8
ordenamento_aeronautico
 10
-9.361640
 20
38.726451
  0
VERTEX
  8
ordenamento_aeronautico
 10
-9.361552
 20
38.726604
  0
VERTEX
  8
ordenamento_aeronautico
 10
-9.361453
 20
38.726753
  0
VERTEX
  8
ordenamento_aeronautico
 10
-9.361341
 20
38.726897
  0
VERTEX
  8
ordenamento_aeronautico
 10
-9.361218
 20
38.727035
  0
VERTEX
  8
ordenamento_aeronautico
 10
-9.361085
 20
38.727166
  0
VERTEX
  8
ordenamento_aeronautico
 10
-9.360941
 20
38.727291
  0
VERTEX
  8
ordenamento_aeronautico
 10
-9.360788
 20
38.727409
  0
VERTEX
  8
ordenamento_aeronautico
 10
-9.360626
 20
38.727519
  0
VERTEX
  8
ordenamento_aeronautico
 10
-9.360455
 20
38.727621
  0
VERTEX
  8
ordenamento_aeronautico
 10
-9.360277
 20
38.727714
  0
VERTEX
  8
ordenamento_aeronautico
 10
-9.360091
 20
38.727798
  0
VERTEX
  8
ordenamento_aeronautico
 10
-9.359900
 20
38.727874
  0
VERTEX
  8
ordenamento_aeronautico
 10
-9.359702
 20
38.727940
  0
VERTEX
  8
ordenamento_aeronautico
 10
-9.359500
 20
38.727996
  0
VERTEX
  8
ordenamento_aeronautico
 10
-9.359294
 20
38.728042
  0
VERTEX
  8
ordenamento_aeronautico
 10
-9.359084
 20
38.728078
  0
VERTEX
  8
ordenamento_aeronautico
 10
-9.358872
 20
38.728103
  0
VERTEX
  8
ordenamento_aeronautico
 10
-9.358658
 20
38.728119
  0
VERTEX
  8
ordenamento_aeronautico
 10
-9.358444
 20
38.728123
  0
VERTEX
  8
ordenamento_aeronautico
 10
-9.358229
 20
38.728118
  0
VERTEX
  8
ordenamento_aeronautico
 10
-9.358016
 20
38.728102
  0
VERTEX
  8
ordenamento_aeronautico
 10
-9.357804
 20
38.728076
  0
VERTEX
  8
ordenamento_aeronautico
 10
-9.357594
 20
38.728039
  0
VERTEX
  8
ordenamento_aeronautico
 10
-9.357388
 20
38.727992
  0
VERTEX
  8
ordenamento_aeronautico
 10
-9.357186
 20
38.727935
  0
VERTEX
  8
ordenamento_aeronautico
 10
-9.356989
 20
38.727869
  0
VERTEX
  8
ordenamento_aeronautico
 10
-9.356798
 20
38.727793
  0
VERTEX
  8
ordenamento_aeronautico
 10
-9.356613
 20
38.727708
  0
VERTEX
  8
ordenamento_aeronautico
 10
-9.356435
 20
38.727614
  0
VERTEX
  8
ordenamento_aeronautico
 10
-9.356265
 20
38.727511
  0
VERTEX
  8
ordenamento_aeronautico
 10
-9.356103
 20
38.727401
  0
VERTEX
  8
ordenamento_aeronautico
 10
-9.355951
 20
38.727283
  0
VERTEX
  8
ordenamento_aeronautico
 10
-9.355808
 20
38.727157
  0
VERTEX
  8
ordenamento_aeronautico
 10
-9.355675
 20
38.727025
  0
VERTEX
  8
ordenamento_aeronautico
 10
-9.355553
 20
38.726887
  0
VERTEX
  8
ordenamento_aeronautico
 10
-9.355443
 20
38.726743
  0
VERTEX
  8
ordenamento_aeronautico
 10
-9.355344
 20
38.726594
  0
VERTEX
  8
ordenamento_aeronautico
 10
-9.355257
 20
38.726440
  0
VERTEX
  8
ordenamento_aeronautico
 10
-9.355182
 20
38.726283
  0
VERTEX
  8
ordenamento_aeronautico
 10
-9.355120
 20
38.726122
  0
VERTEX
  8
ordenamento_aeronautico
 10
-9.355071
 20
38.725958
  0
VERTEX
  8
ordenamento_aeronautico
 10
-9.355035
 20
38.725793
  0
VERTEX
  8
ordenamento_aeronautico
 10
-9.355012
 20
38.725625
  0
VERTEX
  8
ordenamento_aeronautico
 10
-9.355002
 20
38.725458
  0
SEQEND
  0
POLYLINE
  8
ordenamento_aeronautico
  6
BYLAYER
 66
1
 70
1
 40
0.000000
 41
0.000000
  0
VERTEX
  8
ordenamento_aeronautico
 10
-9.358605
 20
38.748258
  0
VERTEX
  8
ordenamento_aeronautico
 10
-9.358609
 20
38.748090
  0
VERTEX
  8
ordenamento_aeronautico
 10
-9.358626
 20
38.747922
  0
VERTEX
  8
ordenamento_aeronautico
 10
-9.358656
 20
38.747756
  0
VERTEX
  8
ordenamento_aeronautico
 10
-9.358700
 20
38.747591
  0
VERTEX
  8
ordenamento_aeronautico
 10
-9.358756
 20
38.747429
  0
VERTEX
  8
ordenamento_aeronautico
 10
-9.358826
 20
38.747270
  0
VERTEX
  8
ordenamento_aeronautico
 10
-9.358907
 20
38.747115
  0
VERTEX
  8
ordenamento_aeronautico
 10
-9.359001
 20
38.746964
  0
VERTEX
  8
ordenamento_aeronautico
 10
-9.359107
 20
38.746817
  0
VERTEX
  8
ordenamento_aeronautico
 10
-9.359224
 20
38.746676
  0
VERTEX
  8
ordenamento_aeronautico
 10
-9.359352
 20
38.746542
  0
VERTEX
  8
ordenamento_aeronautico
 10
-9.359491
 20
38.746413
  0
VERTEX
  8
ordenamento_aeronautico
 10
-9.359639
 20
38.746292
  0
VERTEX
  8
ordenamento_aeronautico
 10
-9.359797
 20
38.746178
  0
VERTEX
  8
ordenamento_aeronautico
 10
-9.359964
 20
38.746072
  0
VERTEX
  8
ordenamento_aeronautico
 10
-9.360139
 20
38.745975
  0
VERTEX
  8
ordenamento_aeronautico
 10
-9.360321
 20
38.745886
  0
VERTEX
  8
ordenamento_aeronautico
 10
-9.360509
 20
38.745806
  0
VERTEX
  8
ordenamento_aeronautico
 10
-9.360704
 20
38.745735
  0
VERTEX
  8
ordenamento_aeronautico
 10
-9.360904
 20
38.745674
  0
VERTEX
  8
ordenamento_aeronautico
 10
-9.361109
 20
38.745623
  0
VERTEX
  8
ordenamento_aeronautico
 10
-9.361317
 20
38.745582
  0
VERTEX
  8
ordenamento_aeronautico
 10
-9.361528
 20
38.745551
  0
VERTEX
  8
ordenamento_aeronautico
 10
-9.361741
 20
38.745531
  0
VERTEX
  8
ordenamento_aeronautico
 10
-9.361955
 20
38.745521
  0
VERTEX
  8
ordenamento_aeronautico
 10
-9.362170
 20
38.745521
  0
VERTEX
  8
ordenamento_aeronautico
 10
-9.362384
 20
38.745532
  0
VERTEX
  8
ordenamento_aeronautico
 10
-9.362597
 20
38.745553
  0
VERTEX
  8
ordenamento_aeronautico
 10
-9.362807
 20
38.745584
  0
VERTEX
  8
ordenamento_aeronautico
 10
-9.363015
 20
38.745626
  0
VERTEX
  8
ordenamento_aeronautico
 10
-9.363219
 20
38.745678
  0
VERTEX
  8
ordenamento_aeronautico
 10
-9.363419
 20
38.745740
  0
VERTEX
  8
ordenamento_aeronautico
 10
-9.363614
 20
38.745811
  0
VERTEX
  8
ordenamento_aeronautico
 10
-9.363802
 20
38.745891
  0
VERTEX
  8
ordenamento_aeronautico
 10
-9.363983
 20
38.745981
  0
VERTEX
  8
ordenamento_aeronautico
 10
-9.364158
 20
38.746079
  0
VERTEX
  8
ordenamento_aeronautico
 10
-9.364324
 20
38.746186
  0
VERTEX
  8
ordenamento_aeronautico
 10
-9.364481
 20
38.746300
  0
VERTEX
  8
ordenamento_aeronautico
 10
-9.364629
 20
38.746422
  0
VERTEX
  8
ordenamento_aeronautico
 10
-9.364767
 20
38.746551
  0
VERTEX
  8
ordenamento_aeronautico
 10
-9.364894
 20
38.746686
  0
VERTEX
  8
ordenamento_aeronautico
 10
-9.365010
 20
38.746827
  0
VERTEX
  8
ordenamento_aeronautico
 10
-9.365115
 20
38.746974
  0
VERTEX
  8
ordenamento_aeronautico
 10
-9.365209
 20
38.747125
  0
VERTEX
  8
ordenamento_aeronautico
 10
-9.365289
 20
38.747281
  0
VERTEX
  8
ordenamento_aeronautico
 10
-9.365358
 20
38.747440
  0
VERTEX
  8
ordenamento_aeronautico
 10
-9.365414
 20
38.747602
  0
VERTEX
  8
ordenamento_aeronautico
 10
-9.365456
 20
38.747767
  0
VERTEX
  8
ordenamento_aeronautico
 10
-9.365486
 20
38.747934
  0
VERTEX
  8
ordenamento_aeronautico
 10
-9.365502
 20
38.748101
  0
VERTEX
  8
ordenamento_aeronautico
 10
-9.365505
 20
38.748269
  0
VERTEX
  8
ordenamento_aeronautico
 10
-9.365494
 20
38.748437
  0
VERTEX
  8
ordenamento_aeronautico
 10
-9.365471
 20
38.748604
  0
VERTEX
  8
ordenamento_aeronautico
 10
-9.365434
 20
38.748770
  0
VERTEX
  8
ordenamento_aeronautico
 10
-9.365384
 20
38.748933
  0
VERTEX
  8
ordenamento_aeronautico
 10
-9.365321
 20
38.749094
  0
VERTEX
  8
ordenamento_aeronautico
 10
-9.365245
 20
38.749251
  0
VERTEX
  8
ordenamento_aeronautico
 10
-9.365157
 20
38.749404
  0
VERTEX
  8
ordenamento_aeronautico
 10
-9.365057
 20
38.749553
  0
VERTEX
  8
ordenamento_aeronautico
 10
-9.364946
 20
38.749697
  0
VERTEX
  8
ordenamento_aeronautico
 10
-9.364823
 20
38.749835
  0
VERTEX
  8
ordenamento_aeronautico
 10
-9.364690
 20
38.749966
  0
VERTEX
  8
ordenamento_aeronautico
 10
-9.364546
 20
38.750091
  0
VERTEX
  8
ordenamento_aeronautico
 10
-9.364393
 20
38.750209
  0
VERTEX
  8
ordenamento_aeronautico
 10
-9.364230
 20
38.750319
  0
VERTEX
  8
ordenamento_aeronautico
 10
-9.364060
 20
38.750421
  0
VERTEX
  8
ordenamento_aeronautico
 10
-9.363881
 20
38.750514
  0
VERTEX
  8
ordenamento_aeronautico
 10
-9.363696
 20
38.750599
  0
VERTEX
  8
ordenamento_aeronautico
 10
-9.363504
 20
38.750674
  0
VERTEX
  8
ordenamento_aeronautico
 10
-9.363306
 20
38.750740
  0
VERTEX
  8
ordenamento_aeronautico
 10
-9.363104
 20
38.750796
  0
VERTEX
  8
ordenamento_aeronautico
 10
-9.362898
 20
38.750842
  0
VERTEX
  8
ordenamento_aeronautico
 10
-9.362688
 20
38.750878
  0
VERTEX
  8
ordenamento_aeronautico
 10
-9.362476
 20
38.750903
  0
VERTEX
  8
ordenamento_aeronautico
 10
-9.362262
 20
38.750919
  0
VERTEX
  8
ordenamento_aeronautico
 10
-9.362048
 20
38.750924
  0
VERTEX
  8
ordenamento_aeronautico
 10
-9.361833
 20
38.750918
  0
VERTEX
  8
ordenamento_aeronautico
 10
-9.361619
 20
38.750902
  0
VERTEX
  8
ordenamento_aeronautico
 10
-9.361407
 20
38.750876
  0
VERTEX
  8
ordenamento_aeronautico
 10
-9.361198
 20
38.750839
  0
VERTEX
  8
ordenamento_aeronautico
 10
-9.360992
 20
38.750792
  0
VERTEX
  8
ordenamento_aeronautico
 10
-9.360790
 20
38.750735
  0
VERTEX
  8
ordenamento_aeronautico
 10
-9.360593
 20
38.750669
  0
VERTEX
  8
ordenamento_aeronautico
 10
-9.360401
 20
38.750593
  0
VERTEX
  8
ordenamento_aeronautico
 10
-9.360216
 20
38.750508
  0
VERTEX
  8
ordenamento_aeronautico
 10
-9.360038
 20
38.750414
  0
VERTEX
  8
ordenamento_aeronautico
 10
-9.359868
 20
38.750312
  0
VERTEX
  8
ordenamento_aeronautico
 10
-9.359706
 20
38.750201
  0
VERTEX
  8
ordenamento_aeronautico
 10
-9.359554
 20
38.750083
  0
VERTEX
  8
ordenamento_aeronautico
 10
-9.359411
 20
38.749958
  0
VERTEX
  8
ordenamento_aeronautico
 10
-9.359278
 20
38.749825
  0
VERTEX
  8
ordenamento_aeronautico
 10
-9.359156
 20
38.749687
  0
VERTEX
  8
ordenamento_aeronautico
 10
-9.359045
 20
38.749543
  0
VERTEX
  8
ordenamento_aeronautico
 10
-9.358946
 20
38.749394
  0
VERTEX
  8
ordenamento_aeronautico
 10
-9.358859
 20
38.749240
  0
VERTEX
  8
ordenamento_aeronautico
 10
-9.358784
 20
38.749083
  0
VERTEX
  8
ordenamento_aeronautico
 10
-9.358722
 20
38.748922
  0
VERTEX
  8
ordenamento_aeronautico
 10
-9.358673
 20
38.748758
  0
VERTEX
  8
ordenamento_aeronautico
 10
-9.358637
 20
38.748593
  0
VERTEX
  8
ordenamento_aeronautico
 10
-9.358614
 20
38.748426
  0
VERTEX
  8
ordenamento_aeronautico
 10
-9.358605
 20
38.748258
  0
SEQEND
  0
POLYLINE
  8
ordenamento_aeronautico
  6
BYLAYER
 66
1
 70
1
 40
0.000000
 41
0.000000
  0
VERTEX
  8
ordenamento_aeronautico
 10
-9.339054
 20
38.748461
  0
VERTEX
  8
ordenamento_aeronautico
 10
-9.339079
 20
38.747341
  0
VERTEX
  8
ordenamento_aeronautico
 10
-9.339194
 20
38.746224
  0
VERTEX
  8
ordenamento_aeronautico
 10
-9.339397
 20
38.745115
  0
VERTEX
  8
ordenamento_aeronautico
 10
-9.339688
 20
38.744018
  0
VERTEX
  8
ordenamento_aeronautico
 10
-9.340065
 20
38.742937
  0
VERTEX
  8
ordenamento_aeronautico
 10
-9.340527
 20
38.741877
  0
VERTEX
  8
ordenamento_aeronautico
 10
-9.341072
 20
38.740841
  0
VERTEX
  8
ordenamento_aeronautico
 10
-9.341699
 20
38.739833
  0
VERTEX
  8
ordenamento_aeronautico
 10
-9.342404
 20
38.738859
  0
VERTEX
  8
ordenamento_aeronautico
 10
-9.343186
 20
38.737920
  0
VERTEX
  8
ordenamento_aeronautico
 10
-9.344040
 20
38.737021
  0
VERTEX
  8
ordenamento_aeronautico
 10
-9.344964
 20
38.736166
  0
VERTEX
  8
ordenamento_aeronautico
 10
-9.345954
 20
38.735357
  0
VERTEX
  8
ordenamento_aeronautico
 10
-9.347006
 20
38.734598
  0
VERTEX
  8
ordenamento_aeronautico
 10
-9.348117
 20
38.733892
  0
VERTEX
  8
ordenamento_aeronautico
 10
-9.349281
 20
38.733241
  0
VERTEX
  8
ordenamento_aeronautico
 10
-9.350495
 20
38.732648
  0
VERTEX
  8
ordenamento_aeronautico
 10
-9.351754
 20
38.732115
  0
VERTEX
  8
ordenamento_aeronautico
 10
-9.353052
 20
38.731645
  0
VERTEX
  8
ordenamento_aeronautico
 10
-9.354385
 20
38.731239
  0
VERTEX
  8
ordenamento_aeronautico
 10
-9.355748
 20
38.730898
  0
VERTEX
  8
ordenamento_aeronautico
 10
-9.357135
 20
38.730625
  0
VERTEX
  8
ordenamento_aeronautico
 10
-9.358541
 20
38.730419
  0
VERTEX
  8
ordenamento_aeronautico
 10
-9.359961
 20
38.730283
  0
VERTEX
  8
ordenamento_aeronautico
 10
-9.361389
 20
38.730215
  0
VERTEX
  8
ordenamento_aeronautico
 10
-9.362819
 20
38.730218
  0
VERTEX
  8
ordenamento_aeronautico
 10
-9.364247
 20
38.730290
  0
VERTEX
  8
ordenamento_aeronautico
 10
-9.365666
 20
38.730431
  0
VERTEX
  8
ordenamento_aeronautico
 10
-9.367071
 20
38.730641
  0
VERTEX
  8
ordenamento_aeronautico
 10
-9.368456
 20
38.730919
  0
VERTEX
  8
ordenamento_aeronautico
 10
-9.369817
 20
38.731265
  0
VERTEX
  8
ordenamento_aeronautico
 10
-9.371148
 20
38.731675
  0
VERTEX
  8
ordenamento_aeronautico
 10
-9.372444
 20
38.732150
  0
VERTEX
  8
ordenamento_aeronautico
 10
-9.373699
 20
38.732687
  0
VERTEX
  8
ordenamento_aeronautico
 10
-9.374910
 20
38.733284
  0
VERTEX
  8
ordenamento_aeronautico
 10
-9.376071
 20
38.733938
  0
VERTEX
  8
ordenamento_aeronautico
 10
-9.377177
 20
38.734649
  0
VERTEX
  8
ordenamento_aeronautico
 10
-9.378226
 20
38.735411
  0
VERTEX
  8
ordenamento_aeronautico
 10
-9.379211
 20
38.736223
  0
VERTEX
  8
ordenamento_aeronautico
 10
-9.380130
 20
38.737082
  0
VERTEX
  8
ordenamento_aeronautico
 10
-9.380980
 20
38.737983
  0
VERTEX
  8
ordenamento_aeronautico
 10
-9.381756
 20
38.738924
  0
VERTEX
  8
ordenamento_aeronautico
 10
-9.382456
 20
38.739901
  0
VERTEX
  8
ordenamento_aeronautico
 10
-9.383077
 20
38.740911
  0
VERTEX
  8
ordenamento_aeronautico
 10
-9.383617
 20
38.741948
  0
VERTEX
  8
ordenamento_aeronautico
 10
-9.384074
 20
38.743010
  0
VERTEX
  8
ordenamento_aeronautico
 10
-9.384445
 20
38.744092
  0
VERTEX
  8
ordenamento_aeronautico
 10
-9.384729
 20
38.745190
  0
VERTEX
  8
ordenamento_aeronautico
 10
-9.384926
 20
38.746300
  0
VERTEX
  8
ordenamento_aeronautico
 10
-9.385035
 20
38.747417
  0
VERTEX
  8
ordenamento_aeronautico
 10
-9.385054
 20
38.748538
  0
VERTEX
  8
ordenamento_aeronautico
 10
-9.384985
 20
38.749657
  0
VERTEX
  8
ordenamento_aeronautico
 10
-9.384827
 20
38.750770
  0
VERTEX
  8
ordenamento_aeronautico
 10
-9.384581
 20
38.751874
  0
VERTEX
  8
ordenamento_aeronautico
 10
-9.384247
 20
38.752964
  0
VERTEX
  8
ordenamento_aeronautico
 10
-9.383828
 20
38.754035
  0
VERTEX
  8
ordenamento_aeronautico
 10
-9.383325
 20
38.755084
  0
VERTEX
  8
ordenamento_aeronautico
 10
-9.382739
 20
38.756106
  0
VERTEX
  8
ordenamento_aeronautico
 10
-9.382073
 20
38.757098
  0
VERTEX
  8
ordenamento_aeronautico
 10
-9.381329
 20
38.758055
  0
VERTEX
  8
ordenamento_aeronautico
 10
-9.380511
 20
38.758975
  0
VERTEX
  8
ordenamento_aeronautico
 10
-9.379622
 20
38.759852
  0
VERTEX
  8
ordenamento_aeronautico
 10
-9.378665
 20
38.760685
  0
VERTEX
  8
ordenamento_aeronautico
 10
-9.377643
 20
38.761470
  0
VERTEX
  8
ordenamento_aeronautico
 10
-9.376561
 20
38.762203
  0
VERTEX
  8
ordenamento_aeronautico
 10
-9.375423
 20
38.762882
  0
VERTEX
  8
ordenamento_aeronautico
 10
-9.374233
 20
38.763504
  0
VERTEX
  8
ordenamento_aeronautico
 10
-9.372996
 20
38.764068
  0
VERTEX
  8
ordenamento_aeronautico
 10
-9.371716
 20
38.764570
  0
VERTEX
  8
ordenamento_aeronautico
 10
-9.370399
 20
38.765008
  0
VERTEX
  8
ordenamento_aeronautico
 10
-9.369050
 20
38.765382
  0
VERTEX
  8
ordenamento_aeronautico
 10
-9.367674
 20
38.765690
  0
VERTEX
  8
ordenamento_aeronautico
 10
-9.366276
 20
38.765929
  0
VERTEX
  8
ordenamento_aeronautico
 10
-9.364862
 20
38.766101
  0
VERTEX
  8
ordenamento_aeronautico
 10
-9.363437
 20
38.766203
  0
VERTEX
  8
ordenamento_aeronautico
 10
-9.362006
 20
38.766235
  0
VERTEX
  8
ordenamento_aeronautico
 10
-9.360576
 20
38.766198
  0
VERTEX
  8
ordenamento_aeronautico
 10
-9.359151
 20
38.766091
  0
VERTEX
  8
ordenamento_aeronautico
 10
-9.357738
 20
38.765915
  0
VERTEX
  8
ordenamento_aeronautico
 10
-9.356341
 20
38.765671
  0
VERTEX
  8
ordenamento_aeronautico
 10
-9.354967
 20
38.765359
  0
VERTEX
  8
ordenamento_aeronautico
 10
-9.353619
 20
38.764981
  0
VERTEX
  8
ordenamento_aeronautico
 10
-9.352305
 20
38.764538
  0
VERTEX
  8
ordenamento_aeronautico
 10
-9.351028
 20
38.764031
  0
VERTEX
  8
ordenamento_aeronautico
 10
-9.349794
 20
38.763464
  0
VERTEX
  8
ordenamento_aeronautico
 10
-9.348608
 20
38.762837
  0
VERTEX
  8
ordenamento_aeronautico
 10
-9.347473
 20
38.762154
  0
VERTEX
  8
ordenamento_aeronautico
 10
-9.346395
 20
38.761418
  0
VERTEX
  8
ordenamento_aeronautico
 10
-9.345378
 20
38.760630
  0
VERTEX
  8
ordenamento_aeronautico
 10
-9.344425
 20
38.759794
  0
VERTEX
  8
ordenamento_aeronautico
 10
-9.343540
 20
38.758913
  0
VERTEX
  8
ordenamento_aeronautico
 10
-9.342727
 20
38.757991
  0
VERTEX
  8
ordenamento_aeronautico
 10
-9.341989
 20
38.757031
  0
VERTEX
  8
ordenamento_aeronautico
 10
-9.341329
 20
38.756037
  0
VERTEX
  8
ordenamento_aeronautico
 10
-9.340748
 20
38.755013
  0
VERTEX
  8
ordenamento_aeronautico
 10
-9.340250
 20
38.753963
  0
VERTEX
  8
ordenamento_aeronautico
 10
-9.339837
 20
38.752890
  0
VERTEX
  8
ordenamento_aeronautico
 10
-9.339510
 20
38.751799
  0
VERTEX
  8
ordenamento_aeronautico
 10
-9.339269
 20
38.750695
  0
VERTEX
  8
ordenamento_aeronautico
 10
-9.339117
 20
38.749580
  0
VERTEX
  8
ordenamento_aeronautico
 10
-9.339054
 20
38.748461
  0
SEQEND
  0
POLYLINE
  8
ordenamento_aeronautico
  6
BYLAYER
 66
1
 70
1
 40
0.000000
 41
0.000000
  0
VERTEX
  8
ordenamento_aeronautico
 10
-9.142448
 20
38.727026
  0
VERTEX
  8
ordenamento_aeronautico
 10
-9.142714
 20
38.716663
  0
VERTEX
  8
ordenamento_aeronautico
 10
-9.143801
 20
38.706334
  0
VERTEX
  8
ordenamento_aeronautico
 10
-9.145705
 20
38.696077
  0
VERTEX
  8
ordenamento_aeronautico
 10
-9.148419
 20
38.685933
  0
VERTEX
  8
ordenamento_aeronautico
 10
-9.151932
 20
38.675940
  0
VERTEX
  8
ordenamento_aeronautico
 10
-9.156229
 20
38.666138
  0
VERTEX
  8
ordenamento_aeronautico
 10
-9.161293
 20
38.656564
  0
VERTEX
  8
ordenamento_aeronautico
 10
-9.167106
 20
38.647256
  0
VERTEX
  8
ordenamento_aeronautico
 10
-9.173644
 20
38.638248
  0
VERTEX
  8
ordenamento_aeronautico
 10
-9.180881
 20
38.629576
  0
VERTEX
  8
ordenamento_aeronautico
 10
-9.188790
 20
38.621273
  0
VERTEX
  8
ordenamento_aeronautico
 10
-9.197340
 20
38.613372
  0
VERTEX
  8
ordenamento_aeronautico
 10
-9.206497
 20
38.605902
  0
VERTEX
  8
ordenamento_aeronautico
 10
-9.216227
 20
38.598892
  0
VERTEX
  8
ordenamento_aeronautico
 10
-9.226492
 20
38.592370
  0
VERTEX
  8
ordenamento_aeronautico
 10
-9.237251
 20
38.586360
  0
VERTEX
  8
ordenamento_aeronautico
 10
-9.248464
 20
38.580886
  0
VERTEX
  8
ordenamento_aeronautico
 10
-9.260087
 20
38.575969
  0
VERTEX
  8
ordenamento_aeronautico
 10
-9.272076
 20
38.571627
  0
VERTEX
  8
ordenamento_aeronautico
 10
-9.284384
 20
38.567877
  0
VERTEX
  8
ordenamento_aeronautico
 10
-9.296964
 20
38.564734
  0
VERTEX
  8
ordenamento_aeronautico
 10
-9.309767
 20
38.562210
  0
VERTEX
  8
ordenamento_aeronautico
 10
-9.322745
 20
38.560314
  0
VERTEX
  8
ordenamento_aeronautico
 10
-9.335847
 20
38.559054
  0
VERTEX
  8
ordenamento_aeronautico
 10
-9.349024
 20
38.558435
  0
VERTEX
  8
ordenamento_aeronautico
 10
-9.362224
 20
38.558458
  0
VERTEX
  8
ordenamento_aeronautico
 10
-9.375396
 20
38.559124
  0
VERTEX
  8
ordenamento_aeronautico
 10
-9.388491
 20
38.560430
  0
VERTEX
  8
ordenamento_aeronautico
 10
-9.401458
 20
38.562372
  0
VERTEX
  8
ordenamento_aeronautico
 10
-9.414246
 20
38.564942
  0
VERTEX
  8
ordenamento_aeronautico
 10
-9.426808
 20
38.568129
  0
VERTEX
  8
ordenamento_aeronautico
 10
-9.439094
 20
38.571922
  0
VERTEX
  8
ordenamento_aeronautico
 10
-9.451057
 20
38.576306
  0
VERTEX
  8
ordenamento_aeronautico
 10
-9.462652
 20
38.581264
  0
VERTEX
  8
ordenamento_aeronautico
 10
-9.473833
 20
38.586777
  0
VERTEX
  8
ordenamento_aeronautico
 10
-9.484557
 20
38.592824
  0
VERTEX
  8
ordenamento_aeronautico
 10
-9.494784
 20
38.599382
  0
VERTEX
  8
ordenamento_aeronautico
 10
-9.504473
 20
38.606425
  0
VERTEX
  8
ordenamento_aeronautico
 10
-9.513587
 20
38.613927
  0
VERTEX
  8
ordenamento_aeronautico
 10
-9.522091
 20
38.621858
  0
VERTEX
  8
ordenamento_aeronautico
 10
-9.529952
 20
38.630187
  0
VERTEX
  8
ordenamento_aeronautico
 10
-9.537140
 20
38.638884
  0
VERTEX
  8
ordenamento_aeronautico
 10
-9.543626
 20
38.647914
  0
VERTEX
  8
ordenamento_aeronautico
 10
-9.549385
 20
38.657242
  0
VERTEX
  8
ordenamento_aeronautico
 10
-9.554395
 20
38.666832
  0
VERTEX
  8
ordenamento_aeronautico
 10
-9.558636
 20
38.676648
  0
VERTEX
  8
ordenamento_aeronautico
 10
-9.562091
 20
38.686652
  0
VERTEX
  8
ordenamento_aeronautico
 10
-9.564747
 20
38.696805
  0
VERTEX
  8
ordenamento_aeronautico
 10
-9.566594
 20
38.707067
  0
VERTEX
  8
ordenamento_aeronautico
 10
-9.567623
 20
38.717399
  0
VERTEX
  8
ordenamento_aeronautico
 10
-9.567830
 20
38.727761
  0
VERTEX
  8
ordenamento_aeronautico
 10
-9.567214
 20
38.738114
  0
VERTEX
  8
ordenamento_aeronautico
 10
-9.565778
 20
38.748416
  0
VERTEX
  8
ordenamento_aeronautico
 10
-9.563526
 20
38.758629
  0
VERTEX
  8
ordenamento_aeronautico
 10
-9.560467
 20
38.768712
  0
VERTEX
  8
ordenamento_aeronautico
 10
-9.556611
 20
38.778626
  0
VERTEX
  8
ordenamento_aeronautico
 10
-9.551975
 20
38.788334
  0
VERTEX
  8
ordenamento_aeronautico
 10
-9.546576
 20
38.797797
  0
VERTEX
  8
ordenamento_aeronautico
 10
-9.540434
 20
38.806979
  0
VERTEX
  8
ordenamento_aeronautico
 10
-9.533572
 20
38.815843
  0
VERTEX
  8
ordenamento_aeronautico
 10
-9.526018
 20
38.824357
  0
VERTEX
  8
ordenamento_aeronautico
 10
-9.517799
 20
38.832486
  0
VERTEX
  8
ordenamento_aeronautico
 10
-9.508949
 20
38.840199
  0
VERTEX
  8
ordenamento_aeronautico
 10
-9.499501
 20
38.847466
  0
VERTEX
  8
ordenamento_aeronautico
 10
-9.489491
 20
38.854258
  0
VERTEX
  8
ordenamento_aeronautico
 10
-9.478959
 20
38.860551
  0
VERTEX
  8
ordenamento_aeronautico
 10
-9.467945
 20
38.866318
  0
VERTEX
  8
ordenamento_aeronautico
 10
-9.456492
 20
38.871537
  0
VERTEX
  8
ordenamento_aeronautico
 10
-9.444645
 20
38.876189
  0
VERTEX
  8
ordenamento_aeronautico
 10
-9.432449
 20
38.880254
  0
VERTEX
  8
ordenamento_aeronautico
 10
-9.419952
 20
38.883718
  0
VERTEX
  8
ordenamento_aeronautico
 10
-9.407203
 20
38.886566
  0
VERTEX
  8
ordenamento_aeronautico
 10
-9.394251
 20
38.888788
  0
VERTEX
  8
ordenamento_aeronautico
 10
-9.381146
 20
38.890375
  0
VERTEX
  8
ordenamento_aeronautico
 10
-9.367940
 20
38.891321
  0
VERTEX
  8
ordenamento_aeronautico
 10
-9.354685
 20
38.891621
  0
VERTEX
  8
ordenamento_aeronautico
 10
-9.341431
 20
38.891276
  0
VERTEX
  8
ordenamento_aeronautico
 10
-9.328230
 20
38.890285
  0
VERTEX
  8
ordenamento_aeronautico
 10
-9.315134
 20
38.888654
  0
VERTEX
  8
ordenamento_aeronautico
 10
-9.302194
 20
38.886388
  0
VERTEX
  8
ordenamento_aeronautico
 10
-9.289460
 20
38.883497
  0
VERTEX
  8
ordenamento_aeronautico
 10
-9.276983
 20
38.879991
  0
VERTEX
  8
ordenamento_aeronautico
 10
-9.264809
 20
38.875884
  0
VERTEX
  8
ordenamento_aeronautico
 10
-9.252987
 20
38.871192
  0
VERTEX
  8
ordenamento_aeronautico
 10
-9.241563
 20
38.865933
  0
VERTEX
  8
ordenamento_aeronautico
 10
-9.230581
 20
38.860129
  0
VERTEX
  8
ordenamento_aeronautico
 10
-9.220083
 20
38.853800
  0
VERTEX
  8
ordenamento_aeronautico
 10
-9.210111
 20
38.846973
  0
VERTEX
  8
ordenamento_aeronautico
 10
-9.200703
 20
38.839674
  0
VERTEX
  8
ordenamento_aeronautico
 10
-9.191895
 20
38.831930
  0
VERTEX
  8
ordenamento_aeronautico
 10
-9.183721
 20
38.823772
  0
VERTEX
  8
ordenamento_aeronautico
 10
-9.176214
 20
38.815233
  0
VERTEX
  8
ordenamento_aeronautico
 10
-9.169402
 20
38.806344
  0
VERTEX
  8
ordenamento_aeronautico
 10
-9.163310
 20
38.797140
  0
VERTEX
  8
ordenamento_aeronautico
 10
-9.157963
 20
38.787658
  0
VERTEX
  8
ordenamento_aeronautico
 10
-9.153381
 20
38.777934
  0
VERTEX
  8
ordenamento_aeronautico
 10
-9.149582
 20
38.768005
  0
VERTEX
  8
ordenamento_aeronautico
 10
-9.146579
 20
38.757911
  0
VERTEX
  8
ordenamento_aeronautico
 10
-9.144384
 20
38.747690
  0
VERTEX
  8
ordenamento_aeronautico
 10
-9.143005
 20
38.737381
  0
VERTEX
  8
ordenamento_aeronautico
 10
-9.142448
 20
38.727026
  0
SEQEND
  0
ENDSEC
  0
EOF
