  0
SECTION
  2
HEADER
  9
$LTSCALE
 40
1.000000
  9
$LUNITS
 70
2
  9
$LUPREC
 70
4
  9
$AUNITS
 70
1
  9
$AUPREC
 70
4
  9
$FILLMODE
 70
1
  0
ENDSEC
  0
SECTION
  2
TABLES
  0
TABLE
  2
VPORT
 70
0
  0
ENDTAB
  0
TABLE
  2
LTYPE
 70
1
  0
LTYPE
  2
CONTINUOUS
 70
64
  3
Solid line
 72
65
 73
0
 40
0.000000
  0
ENDTAB
  0
TABLE
  2
LAYER
 70
1
  0
LAYER
  2
0
 62
1
  6
CONTINUOUS
 70
64
  0
ENDTAB
  0
TABLE
  2
STYLE
 70
1
  0
STYLE
  2
STANDARD
 70
64
 40
0.000000
 41
1.000000
 50
0.000000
 71
0
 42
2.000000
  3
txt
  4

  0
ENDTAB
  0
TABLE
  2
VIEW
 70
0
  0
ENDTAB
  0
TABLE
  2
UCS
 70
0
  0
ENDTAB
  0
TABLE
  2
APPID
 70
0
  0
ENDTAB
  0
TABLE
  2
DIMSTYLE
 70
1
  0
DIMSTYLE
  2
STANDARD
 70
0
  3

  4

  5

  6

  7

 40
1.000000
 41
3.000000
 42
2.500000
 43
10.000000
 44
2.500000
 45
0.000000
 46
1.250000
 47
0.000000
 48
0.000000
140
3.000000
141
-3.000000
142
0.000000
143
0.039000
144
1.000000
145
1.500000
146
0.750000
147
1.500000
 71
0
 72
0
 73
0
 74
0
 75
0
 76
0
 77
0
 78
0
170
0
171
0
172
0
173
0
174
0
175
0
176
0
177
0
178
0
  0
ENDTAB
  0
ENDSEC
  0
SECTION
  2
ENTITIES
  0
POLYLINE
  8
estabelecimento_escolar_privado
  6
BYLAYER
 66
1
 70
1
 40
0.000000
 41
0.000000
  0
VERTEX
  8
estabelecimento_escolar_privado
 10
-9.379547
 20
38.699104
  0
VERTEX
  8
estabelecimento_escolar_privado
 10
-9.379376
 20
38.699321
  0
VERTEX
  8
estabelecimento_escolar_privado
 10
-9.379302
 20
38.699399
  0
VERTEX
  8
estabelecimento_escolar_privado
 10
-9.379242
 20
38.699478
  0
VERTEX
  8
estabelecimento_escolar_privado
 10
-9.379206
 20
38.699526
  0
VERTEX
  8
estabelecimento_escolar_privado
 10
-9.378794
 20
38.699305
  0
VERTEX
  8
estabelecimento_escolar_privado
 10
-9.378864
 20
38.699226
  0
VERTEX
  8
estabelecimento_escolar_privado
 10
-9.379145
 20
38.698911
  0
VERTEX
  8
estabelecimento_escolar_privado
 10
-9.379547
 20
38.699104
  0
SEQEND
  0
POLYLINE
  8
estabelecimento_escolar_privado
  6
BYLAYER
 66
1
 70
1
 40
0.000000
 41
0.000000
  0
VERTEX
  8
estabelecimento_escolar_privado
 10
-9.355105
 20
38.701502
  0
VERTEX
  8
estabelecimento_escolar_privado
 10
-9.354941
 20
38.701481
  0
VERTEX
  8
estabelecimento_escolar_privado
 10
-9.354929
 20
38.701478
  0
VERTEX
  8
estabelecimento_escolar_privado
 10
-9.354888
 20
38.701461
  0
VERTEX
  8
estabelecimento_escolar_privado
 10
-9.354771
 20
38.701407
  0
VERTEX
  8
estabelecimento_escolar_privado
 10
-9.354589
 20
38.701322
  0
VERTEX
  8
estabelecimento_escolar_privado
 10
-9.354414
 20
38.701342
  0
VERTEX
  8
estabelecimento_escolar_privado
 10
-9.354267
 20
38.701045
  0
VERTEX
  8
estabelecimento_escolar_privado
 10
-9.354277
 20
38.701042
  0
VERTEX
  8
estabelecimento_escolar_privado
 10
-9.354323
 20
38.701027
  0
VERTEX
  8
estabelecimento_escolar_privado
 10
-9.354374
 20
38.701012
  0
VERTEX
  8
estabelecimento_escolar_privado
 10
-9.354499
 20
38.700975
  0
VERTEX
  8
estabelecimento_escolar_privado
 10
-9.354530
 20
38.700965
  0
VERTEX
  8
estabelecimento_escolar_privado
 10
-9.354736
 20
38.700902
  0
VERTEX
  8
estabelecimento_escolar_privado
 10
-9.354780
 20
38.700925
  0
VERTEX
  8
estabelecimento_escolar_privado
 10
-9.354821
 20
38.700908
  0
VERTEX
  8
estabelecimento_escolar_privado
 10
-9.354827
 20
38.700918
  0
VERTEX
  8
estabelecimento_escolar_privado
 10
-9.354872
 20
38.700895
  0
VERTEX
  8
estabelecimento_escolar_privado
 10
-9.354900
 20
38.700881
  0
VERTEX
  8
estabelecimento_escolar_privado
 10
-9.354909
 20
38.700874
  0
VERTEX
  8
estabelecimento_escolar_privado
 10
-9.354921
 20
38.700862
  0
VERTEX
  8
estabelecimento_escolar_privado
 10
-9.354930
 20
38.700849
  0
VERTEX
  8
estabelecimento_escolar_privado
 10
-9.354934
 20
38.700843
  0
VERTEX
  8
estabelecimento_escolar_privado
 10
-9.354937
 20
38.700835
  0
VERTEX
  8
estabelecimento_escolar_privado
 10
-9.354939
 20
38.700828
  0
VERTEX
  8
estabelecimento_escolar_privado
 10
-9.355046
 20
38.700796
  0
VERTEX
  8
estabelecimento_escolar_privado
 10
-9.355132
 20
38.700974
  0
VERTEX
  8
estabelecimento_escolar_privado
 10
-9.355143
 20
38.700996
  0
VERTEX
  8
estabelecimento_escolar_privado
 10
-9.355162
 20
38.701034
  0
VERTEX
  8
estabelecimento_escolar_privado
 10
-9.355172
 20
38.701060
  0
VERTEX
  8
estabelecimento_escolar_privado
 10
-9.355177
 20
38.701072
  0
VERTEX
  8
estabelecimento_escolar_privado
 10
-9.355188
 20
38.701112
  0
VERTEX
  8
estabelecimento_escolar_privado
 10
-9.355195
 20
38.701152
  0
VERTEX
  8
estabelecimento_escolar_privado
 10
-9.355197
 20
38.701192
  0
VERTEX
  8
estabelecimento_escolar_privado
 10
-9.355194
 20
38.701232
  0
VERTEX
  8
estabelecimento_escolar_privado
 10
-9.355187
 20
38.701272
  0
VERTEX
  8
estabelecimento_escolar_privado
 10
-9.355179
 20
38.701303
  0
VERTEX
  8
estabelecimento_escolar_privado
 10
-9.355120
 20
38.701466
  0
VERTEX
  8
estabelecimento_escolar_privado
 10
-9.355105
 20
38.701502
  0
SEQEND
  0
POLYLINE
  8
estabelecimento_escolar_privado
  6
BYLAYER
 66
1
 70
1
 40
0.000000
 41
0.000000
  0
VERTEX
  8
estabelecimento_escolar_privado
 10
-9.437677
 20
38.710939
  0
VERTEX
  8
estabelecimento_escolar_privado
 10
-9.437402
 20
38.710803
  0
VERTEX
  8
estabelecimento_escolar_privado
 10
-9.437617
 20
38.710543
  0
VERTEX
  8
estabelecimento_escolar_privado
 10
-9.437797
 20
38.710752
  0
VERTEX
  8
estabelecimento_escolar_privado
 10
-9.437677
 20
38.710939
  0
SEQEND
  0
POLYLINE
  8
estabelecimento_escolar_privado
  6
BYLAYER
 66
1
 70
1
 40
0.000000
 41
0.000000
  0
VERTEX
  8
estabelecimento_escolar_privado
 10
-9.369480
 20
38.703526
  0
VERTEX
  8
estabelecimento_escolar_privado
 10
-9.369324
 20
38.703486
  0
VERTEX
  8
estabelecimento_escolar_privado
 10
-9.369352
 20
38.703414
  0
VERTEX
  8
estabelecimento_escolar_privado
 10
-9.369520
 20
38.703461
  0
VERTEX
  8
estabelecimento_escolar_privado
 10
-9.369480
 20
38.703526
  0
SEQEND
  0
POLYLINE
  8
estabelecimento_escolar_privado
  6
BYLAYER
 66
1
 70
1
 40
0.000000
 41
0.000000
  0
VERTEX
  8
estabelecimento_escolar_privado
 10
-9.334205
 20
38.726658
  0
VERTEX
  8
estabelecimento_escolar_privado
 10
-9.334220
 20
38.726683
  0
VERTEX
  8
estabelecimento_escolar_privado
 10
-9.334231
 20
38.726702
  0
VERTEX
  8
estabelecimento_escolar_privado
 10
-9.334236
 20
38.726711
  0
VERTEX
  8
estabelecimento_escolar_privado
 10
-9.334416
 20
38.727009
  0
VERTEX
  8
estabelecimento_escolar_privado
 10
-9.334159
 20
38.727106
  0
VERTEX
  8
estabelecimento_escolar_privado
 10
-9.334147
 20
38.727071
  0
VERTEX
  8
estabelecimento_escolar_privado
 10
-9.334007
 20
38.726793
  0
VERTEX
  8
estabelecimento_escolar_privado
 10
-9.333911
 20
38.726655
  0
VERTEX
  8
estabelecimento_escolar_privado
 10
-9.333970
 20
38.726636
  0
VERTEX
  8
estabelecimento_escolar_privado
 10
-9.333992
 20
38.726626
  0
VERTEX
  8
estabelecimento_escolar_privado
 10
-9.334094
 20
38.726590
  0
VERTEX
  8
estabelecimento_escolar_privado
 10
-9.334155
 20
38.726577
  0
VERTEX
  8
estabelecimento_escolar_privado
 10
-9.334205
 20
38.726658
  0
SEQEND
  0
POLYLINE
  8
estabelecimento_escolar_privado
  6
BYLAYER
 66
1
 70
1
 40
0.000000
 41
0.000000
  0
VERTEX
  8
estabelecimento_escolar_privado
 10
-9.341439
 20
38.703019
  0
VERTEX
  8
estabelecimento_escolar_privado
 10
-9.341442
 20
38.703090
  0
VERTEX
  8
estabelecimento_escolar_privado
 10
-9.341356
 20
38.703092
  0
VERTEX
  8
estabelecimento_escolar_privado
 10
-9.341339
 20
38.703093
  0
VERTEX
  8
estabelecimento_escolar_privado
 10
-9.341233
 20
38.703097
  0
VERTEX
  8
estabelecimento_escolar_privado
 10
-9.341233
 20
38.703095
  0
VERTEX
  8
estabelecimento_escolar_privado
 10
-9.341135
 20
38.703096
  0
VERTEX
  8
estabelecimento_escolar_privado
 10
-9.341135
 20
38.703098
  0
VERTEX
  8
estabelecimento_escolar_privado
 10
-9.341103
 20
38.703099
  0
VERTEX
  8
estabelecimento_escolar_privado
 10
-9.341044
 20
38.703100
  0
VERTEX
  8
estabelecimento_escolar_privado
 10
-9.341023
 20
38.703100
  0
VERTEX
  8
estabelecimento_escolar_privado
 10
-9.341015
 20
38.702974
  0
VERTEX
  8
estabelecimento_escolar_privado
 10
-9.341010
 20
38.702813
  0
VERTEX
  8
estabelecimento_escolar_privado
 10
-9.341010
 20
38.702810
  0
VERTEX
  8
estabelecimento_escolar_privado
 10
-9.341076
 20
38.702805
  0
VERTEX
  8
estabelecimento_escolar_privado
 10
-9.341274
 20
38.702802
  0
VERTEX
  8
estabelecimento_escolar_privado
 10
-9.341328
 20
38.702802
  0
VERTEX
  8
estabelecimento_escolar_privado
 10
-9.341335
 20
38.702966
  0
VERTEX
  8
estabelecimento_escolar_privado
 10
-9.341338
 20
38.703024
  0
VERTEX
  8
estabelecimento_escolar_privado
 10
-9.341439
 20
38.703019
  0
SEQEND
  0
POLYLINE
  8
estabelecimento_escolar_privado
  6
BYLAYER
 66
1
 70
1
 40
0.000000
 41
0.000000
  0
VERTEX
  8
estabelecimento_escolar_privado
 10
-9.419815
 20
38.714133
  0
VERTEX
  8
estabelecimento_escolar_privado
 10
-9.419561
 20
38.714219
  0
VERTEX
  8
estabelecimento_escolar_privado
 10
-9.419335
 20
38.714290
  0
VERTEX
  8
estabelecimento_escolar_privado
 10
-9.419292
 20
38.714304
  0
VERTEX
  8
estabelecimento_escolar_privado
 10
-9.419234
 20
38.714324
  0
VERTEX
  8
estabelecimento_escolar_privado
 10
-9.419178
 20
38.714346
  0
VERTEX
  8
estabelecimento_escolar_privado
 10
-9.418731
 20
38.714539
  0
VERTEX
  8
estabelecimento_escolar_privado
 10
-9.418567
 20
38.714611
  0
VERTEX
  8
estabelecimento_escolar_privado
 10
-9.418569
 20
38.714614
  0
VERTEX
  8
estabelecimento_escolar_privado
 10
-9.418469
 20
38.714657
  0
VERTEX
  8
estabelecimento_escolar_privado
 10
-9.418152
 20
38.714787
  0
VERTEX
  8
estabelecimento_escolar_privado
 10
-9.417951
 20
38.714867
  0
VERTEX
  8
estabelecimento_escolar_privado
 10
-9.417891
 20
38.714894
  0
VERTEX
  8
estabelecimento_escolar_privado
 10
-9.417888
 20
38.714886
  0
VERTEX
  8
estabelecimento_escolar_privado
 10
-9.417789
 20
38.714560
  0
VERTEX
  8
estabelecimento_escolar_privado
 10
-9.417780
 20
38.714520
  0
VERTEX
  8
estabelecimento_escolar_privado
 10
-9.417715
 20
38.714473
  0
VERTEX
  8
estabelecimento_escolar_privado
 10
-9.417719
 20
38.714462
  0
VERTEX
  8
estabelecimento_escolar_privado
 10
-9.417765
 20
38.714415
  0
VERTEX
  8
estabelecimento_escolar_privado
 10
-9.417731
 20
38.714187
  0
VERTEX
  8
estabelecimento_escolar_privado
 10
-9.417750
 20
38.714179
  0
VERTEX
  8
estabelecimento_escolar_privado
 10
-9.417768
 20
38.714170
  0
VERTEX
  8
estabelecimento_escolar_privado
 10
-9.417786
 20
38.714161
  0
VERTEX
  8
estabelecimento_escolar_privado
 10
-9.417803
 20
38.714150
  0
VERTEX
  8
estabelecimento_escolar_privado
 10
-9.417819
 20
38.714139
  0
VERTEX
  8
estabelecimento_escolar_privado
 10
-9.417834
 20
38.714128
  0
VERTEX
  8
estabelecimento_escolar_privado
 10
-9.417849
 20
38.714116
  0
VERTEX
  8
estabelecimento_escolar_privado
 10
-9.417863
 20
38.714103
  0
VERTEX
  8
estabelecimento_escolar_privado
 10
-9.417876
 20
38.714090
  0
VERTEX
  8
estabelecimento_escolar_privado
 10
-9.417888
 20
38.714076
  0
VERTEX
  8
estabelecimento_escolar_privado
 10
-9.417900
 20
38.714062
  0
VERTEX
  8
estabelecimento_escolar_privado
 10
-9.418160
 20
38.713691
  0
VERTEX
  8
estabelecimento_escolar_privado
 10
-9.418243
 20
38.713576
  0
VERTEX
  8
estabelecimento_escolar_privado
 10
-9.418312
 20
38.713489
  0
VERTEX
  8
estabelecimento_escolar_privado
 10
-9.418354
 20
38.713420
  0
VERTEX
  8
estabelecimento_escolar_privado
 10
-9.418389
 20
38.713355
  0
VERTEX
  8
estabelecimento_escolar_privado
 10
-9.418395
 20
38.713341
  0
VERTEX
  8
estabelecimento_escolar_privado
 10
-9.418407
 20
38.713311
  0
VERTEX
  8
estabelecimento_escolar_privado
 10
-9.418418
 20
38.713281
  0
VERTEX
  8
estabelecimento_escolar_privado
 10
-9.418426
 20
38.713257
  0
VERTEX
  8
estabelecimento_escolar_privado
 10
-9.418434
 20
38.713233
  0
VERTEX
  8
estabelecimento_escolar_privado
 10
-9.418441
 20
38.713209
  0
VERTEX
  8
estabelecimento_escolar_privado
 10
-9.418446
 20
38.713185
  0
VERTEX
  8
estabelecimento_escolar_privado
 10
-9.418450
 20
38.713160
  0
VERTEX
  8
estabelecimento_escolar_privado
 10
-9.418454
 20
38.713136
  0
VERTEX
  8
estabelecimento_escolar_privado
 10
-9.418456
 20
38.713111
  0
VERTEX
  8
estabelecimento_escolar_privado
 10
-9.418457
 20
38.713087
  0
VERTEX
  8
estabelecimento_escolar_privado
 10
-9.418457
 20
38.713062
  0
VERTEX
  8
estabelecimento_escolar_privado
 10
-9.418456
 20
38.713037
  0
VERTEX
  8
estabelecimento_escolar_privado
 10
-9.418454
 20
38.713013
  0
VERTEX
  8
estabelecimento_escolar_privado
 10
-9.418453
 20
38.712989
  0
VERTEX
  8
estabelecimento_escolar_privado
 10
-9.418454
 20
38.712964
  0
VERTEX
  8
estabelecimento_escolar_privado
 10
-9.418459
 20
38.712940
  0
VERTEX
  8
estabelecimento_escolar_privado
 10
-9.418462
 20
38.712929
  0
VERTEX
  8
estabelecimento_escolar_privado
 10
-9.418471
 20
38.712905
  0
VERTEX
  8
estabelecimento_escolar_privado
 10
-9.418482
 20
38.712883
  0
VERTEX
  8
estabelecimento_escolar_privado
 10
-9.418486
 20
38.712879
  0
VERTEX
  8
estabelecimento_escolar_privado
 10
-9.418518
 20
38.712850
  0
VERTEX
  8
estabelecimento_escolar_privado
 10
-9.418529
 20
38.712841
  0
VERTEX
  8
estabelecimento_escolar_privado
 10
-9.418508
 20
38.712825
  0
VERTEX
  8
estabelecimento_escolar_privado
 10
-9.418519
 20
38.712812
  0
VERTEX
  8
estabelecimento_escolar_privado
 10
-9.418703
 20
38.712933
  0
VERTEX
  8
estabelecimento_escolar_privado
 10
-9.418862
 20
38.713041
  0
VERTEX
  8
estabelecimento_escolar_privado
 10
-9.418881
 20
38.713057
  0
VERTEX
  8
estabelecimento_escolar_privado
 10
-9.419098
 20
38.713274
  0
VERTEX
  8
estabelecimento_escolar_privado
 10
-9.419173
 20
38.713349
  0
VERTEX
  8
estabelecimento_escolar_privado
 10
-9.419195
 20
38.713366
  0
VERTEX
  8
estabelecimento_escolar_privado
 10
-9.419315
 20
38.713457
  0
VERTEX
  8
estabelecimento_escolar_privado
 10
-9.419350
 20
38.713485
  0
VERTEX
  8
estabelecimento_escolar_privado
 10
-9.419395
 20
38.713523
  0
VERTEX
  8
estabelecimento_escolar_privado
 10
-9.419510
 20
38.713625
  0
VERTEX
  8
estabelecimento_escolar_privado
 10
-9.419670
 20
38.713774
  0
VERTEX
  8
estabelecimento_escolar_privado
 10
-9.419723
 20
38.713832
  0
VERTEX
  8
estabelecimento_escolar_privado
 10
-9.419770
 20
38.713892
  0
VERTEX
  8
estabelecimento_escolar_privado
 10
-9.419791
 20
38.713923
  0
VERTEX
  8
estabelecimento_escolar_privado
 10
-9.419795
 20
38.713935
  0
VERTEX
  8
estabelecimento_escolar_privado
 10
-9.419802
 20
38.713958
  0
VERTEX
  8
estabelecimento_escolar_privado
 10
-9.419806
 20
38.713982
  0
VERTEX
  8
estabelecimento_escolar_privado
 10
-9.419808
 20
38.714006
  0
VERTEX
  8
estabelecimento_escolar_privado
 10
-9.419808
 20
38.714018
  0
VERTEX
  8
estabelecimento_escolar_privado
 10
-9.419808
 20
38.714030
  0
VERTEX
  8
estabelecimento_escolar_privado
 10
-9.419805
 20
38.714053
  0
VERTEX
  8
estabelecimento_escolar_privado
 10
-9.419806
 20
38.714070
  0
VERTEX
  8
estabelecimento_escolar_privado
 10
-9.419815
 20
38.714133
  0
SEQEND
  0
POLYLINE
  8
estabelecimento_escolar_privado
  6
BYLAYER
 66
1
 70
1
 40
0.000000
 41
0.000000
  0
VERTEX
  8
estabelecimento_escolar_privado
 10
-9.374054
 20
38.725502
  0
VERTEX
  8
estabelecimento_escolar_privado
 10
-9.373972
 20
38.725495
  0
VERTEX
  8
estabelecimento_escolar_privado
 10
-9.373836
 20
38.725490
  0
VERTEX
  8
estabelecimento_escolar_privado
 10
-9.373287
 20
38.725525
  0
VERTEX
  8
estabelecimento_escolar_privado
 10
-9.373263
 20
38.725520
  0
VERTEX
  8
estabelecimento_escolar_privado
 10
-9.373203
 20
38.725354
  0
VERTEX
  8
estabelecimento_escolar_privado
 10
-9.373268
 20
38.725331
  0
VERTEX
  8
estabelecimento_escolar_privado
 10
-9.373243
 20
38.725282
  0
VERTEX
  8
estabelecimento_escolar_privado
 10
-9.373165
 20
38.725048
  0
VERTEX
  8
estabelecimento_escolar_privado
 10
-9.373764
 20
38.724869
  0
VERTEX
  8
estabelecimento_escolar_privado
 10
-9.373861
 20
38.725188
  0
VERTEX
  8
estabelecimento_escolar_privado
 10
-9.373885
 20
38.725271
  0
VERTEX
  8
estabelecimento_escolar_privado
 10
-9.373938
 20
38.725369
  0
VERTEX
  8
estabelecimento_escolar_privado
 10
-9.374054
 20
38.725502
  0
SEQEND
  0
POLYLINE
  8
estabelecimento_escolar_privado
  6
BYLAYER
 66
1
 70
1
 40
0.000000
 41
0.000000
  0
VERTEX
  8
estabelecimento_escolar_privado
 10
-9.428734
 20
38.700544
  0
VERTEX
  8
estabelecimento_escolar_privado
 10
-9.428506
 20
38.700388
  0
VERTEX
  8
estabelecimento_escolar_privado
 10
-9.428675
 20
38.700312
  0
VERTEX
  8
estabelecimento_escolar_privado
 10
-9.428799
 20
38.700253
  0
VERTEX
  8
estabelecimento_escolar_privado
 10
-9.428992
 20
38.700163
  0
VERTEX
  8
estabelecimento_escolar_privado
 10
-9.429146
 20
38.700350
  0
VERTEX
  8
estabelecimento_escolar_privado
 10
-9.428734
 20
38.700544
  0
SEQEND
  0
POLYLINE
  8
estabelecimento_escolar_privado
  6
BYLAYER
 66
1
 70
1
 40
0.000000
 41
0.000000
  0
VERTEX
  8
estabelecimento_escolar_privado
 10
-9.411061
 20
38.720706
  0
VERTEX
  8
estabelecimento_escolar_privado
 10
-9.411139
 20
38.720830
  0
VERTEX
  8
estabelecimento_escolar_privado
 10
-9.411139
 20
38.720848
  0
VERTEX
  8
estabelecimento_escolar_privado
 10
-9.411161
 20
38.721059
  0
VERTEX
  8
estabelecimento_escolar_privado
 10
-9.411118
 20
38.721151
  0
VERTEX
  8
estabelecimento_escolar_privado
 10
-9.411094
 20
38.721204
  0
VERTEX
  8
estabelecimento_escolar_privado
 10
-9.411052
 20
38.721296
  0
VERTEX
  8
estabelecimento_escolar_privado
 10
-9.410742
 20
38.721357
  0
VERTEX
  8
estabelecimento_escolar_privado
 10
-9.410717
 20
38.721358
  0
VERTEX
  8
estabelecimento_escolar_privado
 10
-9.410713
 20
38.721356
  0
VERTEX
  8
estabelecimento_escolar_privado
 10
-9.410689
 20
38.721339
  0
VERTEX
  8
estabelecimento_escolar_privado
 10
-9.410586
 20
38.720956
  0
VERTEX
  8
estabelecimento_escolar_privado
 10
-9.410592
 20
38.720958
  0
VERTEX
  8
estabelecimento_escolar_privado
 10
-9.410647
 20
38.720881
  0
VERTEX
  8
estabelecimento_escolar_privado
 10
-9.410732
 20
38.720762
  0
VERTEX
  8
estabelecimento_escolar_privado
 10
-9.410810
 20
38.720652
  0
VERTEX
  8
estabelecimento_escolar_privado
 10
-9.411030
 20
38.720638
  0
VERTEX
  8
estabelecimento_escolar_privado
 10
-9.411021
 20
38.720641
  0
VERTEX
  8
estabelecimento_escolar_privado
 10
-9.411061
 20
38.720706
  0
SEQEND
  0
POLYLINE
  8
estabelecimento_escolar_privado
  6
BYLAYER
 66
1
 70
1
 40
0.000000
 41
0.000000
  0
VERTEX
  8
estabelecimento_escolar_privado
 10
-9.361408
 20
38.702492
  0
VERTEX
  8
estabelecimento_escolar_privado
 10
-9.361366
 20
38.702281
  0
VERTEX
  8
estabelecimento_escolar_privado
 10
-9.362031
 20
38.702261
  0
VERTEX
  8
estabelecimento_escolar_privado
 10
-9.362102
 20
38.702348
  0
VERTEX
  8
estabelecimento_escolar_privado
 10
-9.362048
 20
38.702379
  0
VERTEX
  8
estabelecimento_escolar_privado
 10
-9.362045
 20
38.702383
  0
VERTEX
  8
estabelecimento_escolar_privado
 10
-9.362151
 20
38.702513
  0
VERTEX
  8
estabelecimento_escolar_privado
 10
-9.362120
 20
38.702523
  0
VERTEX
  8
estabelecimento_escolar_privado
 10
-9.361408
 20
38.702492
  0
SEQEND
  0
POLYLINE
  8
estabelecimento_escolar_privado
  6
BYLAYER
 66
1
 70
1
 40
0.000000
 41
0.000000
  0
VERTEX
  8
estabelecimento_escolar_privado
 10
-9.395345
 20
38.714159
  0
VERTEX
  8
estabelecimento_escolar_privado
 10
-9.395370
 20
38.714142
  0
VERTEX
  8
estabelecimento_escolar_privado
 10
-9.395687
 20
38.714415
  0
VERTEX
  8
estabelecimento_escolar_privado
 10
-9.395765
 20
38.714482
  0
VERTEX
  8
estabelecimento_escolar_privado
 10
-9.395796
 20
38.714508
  0
VERTEX
  8
estabelecimento_escolar_privado
 10
-9.395771
 20
38.714522
  0
VERTEX
  8
estabelecimento_escolar_privado
 10
-9.395683
 20
38.714572
  0
VERTEX
  8
estabelecimento_escolar_privado
 10
-9.395621
 20
38.714605
  0
VERTEX
  8
estabelecimento_escolar_privado
 10
-9.395602
 20
38.714615
  0
VERTEX
  8
estabelecimento_escolar_privado
 10
-9.395581
 20
38.714623
  0
VERTEX
  8
estabelecimento_escolar_privado
 10
-9.395561
 20
38.714630
  0
VERTEX
  8
estabelecimento_escolar_privado
 10
-9.395539
 20
38.714637
  0
VERTEX
  8
estabelecimento_escolar_privado
 10
-9.395517
 20
38.714642
  0
VERTEX
  8
estabelecimento_escolar_privado
 10
-9.395495
 20
38.714646
  0
VERTEX
  8
estabelecimento_escolar_privado
 10
-9.395473
 20
38.714650
  0
VERTEX
  8
estabelecimento_escolar_privado
 10
-9.395450
 20
38.714652
  0
VERTEX
  8
estabelecimento_escolar_privado
 10
-9.395427
 20
38.714653
  0
VERTEX
  8
estabelecimento_escolar_privado
 10
-9.395404
 20
38.714653
  0
VERTEX
  8
estabelecimento_escolar_privado
 10
-9.395381
 20
38.714652
  0
VERTEX
  8
estabelecimento_escolar_privado
 10
-9.395367
 20
38.714651
  0
VERTEX
  8
estabelecimento_escolar_privado
 10
-9.395354
 20
38.714649
  0
VERTEX
  8
estabelecimento_escolar_privado
 10
-9.395340
 20
38.714647
  0
VERTEX
  8
estabelecimento_escolar_privado
 10
-9.395326
 20
38.714645
  0
VERTEX
  8
estabelecimento_escolar_privado
 10
-9.395313
 20
38.714642
  0
VERTEX
  8
estabelecimento_escolar_privado
 10
-9.395300
 20
38.714638
  0
VERTEX
  8
estabelecimento_escolar_privado
 10
-9.395287
 20
38.714635
  0
VERTEX
  8
estabelecimento_escolar_privado
 10
-9.395274
 20
38.714630
  0
VERTEX
  8
estabelecimento_escolar_privado
 10
-9.395261
 20
38.714626
  0
VERTEX
  8
estabelecimento_escolar_privado
 10
-9.395249
 20
38.714621
  0
VERTEX
  8
estabelecimento_escolar_privado
 10
-9.395237
 20
38.714616
  0
VERTEX
  8
estabelecimento_escolar_privado
 10
-9.395219
 20
38.714607
  0
VERTEX
  8
estabelecimento_escolar_privado
 10
-9.395205
 20
38.714600
  0
VERTEX
  8
estabelecimento_escolar_privado
 10
-9.395198
 20
38.714595
  0
VERTEX
  8
estabelecimento_escolar_privado
 10
-9.395190
 20
38.714589
  0
VERTEX
  8
estabelecimento_escolar_privado
 10
-9.395183
 20
38.714584
  0
VERTEX
  8
estabelecimento_escolar_privado
 10
-9.395167
 20
38.714571
  0
VERTEX
  8
estabelecimento_escolar_privado
 10
-9.395153
 20
38.714557
  0
VERTEX
  8
estabelecimento_escolar_privado
 10
-9.395140
 20
38.714542
  0
VERTEX
  8
estabelecimento_escolar_privado
 10
-9.395130
 20
38.714527
  0
VERTEX
  8
estabelecimento_escolar_privado
 10
-9.395120
 20
38.714510
  0
VERTEX
  8
estabelecimento_escolar_privado
 10
-9.395113
 20
38.714494
  0
VERTEX
  8
estabelecimento_escolar_privado
 10
-9.395107
 20
38.714476
  0
VERTEX
  8
estabelecimento_escolar_privado
 10
-9.395104
 20
38.714459
  0
VERTEX
  8
estabelecimento_escolar_privado
 10
-9.395101
 20
38.714443
  0
VERTEX
  8
estabelecimento_escolar_privado
 10
-9.395100
 20
38.714427
  0
VERTEX
  8
estabelecimento_escolar_privado
 10
-9.395101
 20
38.714411
  0
VERTEX
  8
estabelecimento_escolar_privado
 10
-9.395103
 20
38.714395
  0
VERTEX
  8
estabelecimento_escolar_privado
 10
-9.395107
 20
38.714380
  0
VERTEX
  8
estabelecimento_escolar_privado
 10
-9.395112
 20
38.714364
  0
VERTEX
  8
estabelecimento_escolar_privado
 10
-9.395119
 20
38.714349
  0
VERTEX
  8
estabelecimento_escolar_privado
 10
-9.395128
 20
38.714335
  0
VERTEX
  8
estabelecimento_escolar_privado
 10
-9.395137
 20
38.714321
  0
VERTEX
  8
estabelecimento_escolar_privado
 10
-9.395149
 20
38.714308
  0
VERTEX
  8
estabelecimento_escolar_privado
 10
-9.395161
 20
38.714295
  0
VERTEX
  8
estabelecimento_escolar_privado
 10
-9.395248
 20
38.714227
  0
VERTEX
  8
estabelecimento_escolar_privado
 10
-9.395345
 20
38.714159
  0
SEQEND
  0
POLYLINE
  8
estabelecimento_escolar_privado
  6
BYLAYER
 66
1
 70
1
 40
0.000000
 41
0.000000
  0
VERTEX
  8
estabelecimento_escolar_privado
 10
-9.424688
 20
38.700883
  0
VERTEX
  8
estabelecimento_escolar_privado
 10
-9.424560
 20
38.700955
  0
VERTEX
  8
estabelecimento_escolar_privado
 10
-9.424535
 20
38.700927
  0
VERTEX
  8
estabelecimento_escolar_privado
 10
-9.424401
 20
38.700780
  0
VERTEX
  8
estabelecimento_escolar_privado
 10
-9.424153
 20
38.700923
  0
VERTEX
  8
estabelecimento_escolar_privado
 10
-9.424087
 20
38.700852
  0
VERTEX
  8
estabelecimento_escolar_privado
 10
-9.424078
 20
38.700841
  0
VERTEX
  8
estabelecimento_escolar_privado
 10
-9.423996
 20
38.700749
  0
VERTEX
  8
estabelecimento_escolar_privado
 10
-9.423975
 20
38.700722
  0
VERTEX
  8
estabelecimento_escolar_privado
 10
-9.423935
 20
38.700743
  0
VERTEX
  8
estabelecimento_escolar_privado
 10
-9.423832
 20
38.700626
  0
VERTEX
  8
estabelecimento_escolar_privado
 10
-9.423814
 20
38.700605
  0
VERTEX
  8
estabelecimento_escolar_privado
 10
-9.423724
 20
38.700505
  0
VERTEX
  8
estabelecimento_escolar_privado
 10
-9.423927
 20
38.700389
  0
VERTEX
  8
estabelecimento_escolar_privado
 10
-9.424133
 20
38.700273
  0
VERTEX
  8
estabelecimento_escolar_privado
 10
-9.424351
 20
38.700515
  0
VERTEX
  8
estabelecimento_escolar_privado
 10
-9.424688
 20
38.700883
  0
SEQEND
  0
POLYLINE
  8
estabelecimento_escolar_privado
  6
BYLAYER
 66
1
 70
1
 40
0.000000
 41
0.000000
  0
VERTEX
  8
estabelecimento_escolar_privado
 10
-9.334696
 20
38.684861
  0
VERTEX
  8
estabelecimento_escolar_privado
 10
-9.333952
 20
38.684680
  0
VERTEX
  8
estabelecimento_escolar_privado
 10
-9.333675
 20
38.684449
  0
VERTEX
  8
estabelecimento_escolar_privado
 10
-9.333400
 20
38.684223
  0
VERTEX
  8
estabelecimento_escolar_privado
 10
-9.332893
 20
38.683777
  0
VERTEX
  8
estabelecimento_escolar_privado
 10
-9.333022
 20
38.683578
  0
VERTEX
  8
estabelecimento_escolar_privado
 10
-9.333593
 20
38.682700
  0
VERTEX
  8
estabelecimento_escolar_privado
 10
-9.333883
 20
38.682254
  0
VERTEX
  8
estabelecimento_escolar_privado
 10
-9.333981
 20
38.682115
  0
VERTEX
  8
estabelecimento_escolar_privado
 10
-9.334719
 20
38.682398
  0
VERTEX
  8
estabelecimento_escolar_privado
 10
-9.335198
 20
38.682541
  0
VERTEX
  8
estabelecimento_escolar_privado
 10
-9.335376
 20
38.682590
  0
VERTEX
  8
estabelecimento_escolar_privado
 10
-9.335760
 20
38.682680
  0
VERTEX
  8
estabelecimento_escolar_privado
 10
-9.336291
 20
38.682779
  0
VERTEX
  8
estabelecimento_escolar_privado
 10
-9.336454
 20
38.682800
  0
VERTEX
  8
estabelecimento_escolar_privado
 10
-9.337191
 20
38.682892
  0
VERTEX
  8
estabelecimento_escolar_privado
 10
-9.337289
 20
38.682901
  0
VERTEX
  8
estabelecimento_escolar_privado
 10
-9.337303
 20
38.683021
  0
VERTEX
  8
estabelecimento_escolar_privado
 10
-9.337238
 20
38.683485
  0
VERTEX
  8
estabelecimento_escolar_privado
 10
-9.337235
 20
38.683507
  0
VERTEX
  8
estabelecimento_escolar_privado
 10
-9.337227
 20
38.683567
  0
VERTEX
  8
estabelecimento_escolar_privado
 10
-9.336952
 20
38.683547
  0
VERTEX
  8
estabelecimento_escolar_privado
 10
-9.336879
 20
38.684096
  0
VERTEX
  8
estabelecimento_escolar_privado
 10
-9.336861
 20
38.684235
  0
VERTEX
  8
estabelecimento_escolar_privado
 10
-9.336844
 20
38.684349
  0
VERTEX
  8
estabelecimento_escolar_privado
 10
-9.336802
 20
38.684657
  0
VERTEX
  8
estabelecimento_escolar_privado
 10
-9.336779
 20
38.684830
  0
VERTEX
  8
estabelecimento_escolar_privado
 10
-9.336230
 20
38.684789
  0
VERTEX
  8
estabelecimento_escolar_privado
 10
-9.336216
 20
38.684880
  0
VERTEX
  8
estabelecimento_escolar_privado
 10
-9.336206
 20
38.684948
  0
VERTEX
  8
estabelecimento_escolar_privado
 10
-9.336170
 20
38.685184
  0
VERTEX
  8
estabelecimento_escolar_privado
 10
-9.336139
 20
38.685177
  0
VERTEX
  8
estabelecimento_escolar_privado
 10
-9.336026
 20
38.685165
  0
VERTEX
  8
estabelecimento_escolar_privado
 10
-9.335853
 20
38.685131
  0
VERTEX
  8
estabelecimento_escolar_privado
 10
-9.335767
 20
38.685113
  0
VERTEX
  8
estabelecimento_escolar_privado
 10
-9.335400
 20
38.685032
  0
VERTEX
  8
estabelecimento_escolar_privado
 10
-9.335073
 20
38.684952
  0
VERTEX
  8
estabelecimento_escolar_privado
 10
-9.334696
 20
38.684861
  0
SEQEND
  0
POLYLINE
  8
estabelecimento_escolar_privado
  6
BYLAYER
 66
1
 70
1
 40
0.000000
 41
0.000000
  0
VERTEX
  8
estabelecimento_escolar_privado
 10
-9.337060
 20
38.700394
  0
VERTEX
  8
estabelecimento_escolar_privado
 10
-9.337254
 20
38.700152
  0
VERTEX
  8
estabelecimento_escolar_privado
 10
-9.337466
 20
38.700294
  0
VERTEX
  8
estabelecimento_escolar_privado
 10
-9.337467
 20
38.700294
  0
VERTEX
  8
estabelecimento_escolar_privado
 10
-9.337252
 20
38.700517
  0
VERTEX
  8
estabelecimento_escolar_privado
 10
-9.337310
 20
38.700547
  0
VERTEX
  8
estabelecimento_escolar_privado
 10
-9.337322
 20
38.700559
  0
VERTEX
  8
estabelecimento_escolar_privado
 10
-9.337333
 20
38.700576
  0
VERTEX
  8
estabelecimento_escolar_privado
 10
-9.337336
 20
38.700593
  0
VERTEX
  8
estabelecimento_escolar_privado
 10
-9.337335
 20
38.700614
  0
VERTEX
  8
estabelecimento_escolar_privado
 10
-9.337324
 20
38.700633
  0
VERTEX
  8
estabelecimento_escolar_privado
 10
-9.337296
 20
38.700669
  0
VERTEX
  8
estabelecimento_escolar_privado
 10
-9.337192
 20
38.700790
  0
VERTEX
  8
estabelecimento_escolar_privado
 10
-9.337186
 20
38.700787
  0
VERTEX
  8
estabelecimento_escolar_privado
 10
-9.337169
 20
38.700781
  0
VERTEX
  8
estabelecimento_escolar_privado
 10
-9.337150
 20
38.700775
  0
VERTEX
  8
estabelecimento_escolar_privado
 10
-9.337126
 20
38.700772
  0
VERTEX
  8
estabelecimento_escolar_privado
 10
-9.337103
 20
38.700771
  0
VERTEX
  8
estabelecimento_escolar_privado
 10
-9.337080
 20
38.700773
  0
VERTEX
  8
estabelecimento_escolar_privado
 10
-9.337058
 20
38.700777
  0
VERTEX
  8
estabelecimento_escolar_privado
 10
-9.337037
 20
38.700781
  0
VERTEX
  8
estabelecimento_escolar_privado
 10
-9.337028
 20
38.700784
  0
VERTEX
  8
estabelecimento_escolar_privado
 10
-9.337017
 20
38.700788
  0
VERTEX
  8
estabelecimento_escolar_privado
 10
-9.337008
 20
38.700791
  0
VERTEX
  8
estabelecimento_escolar_privado
 10
-9.337000
 20
38.700792
  0
VERTEX
  8
estabelecimento_escolar_privado
 10
-9.336904
 20
38.700753
  0
VERTEX
  8
estabelecimento_escolar_privado
 10
-9.336881
 20
38.700743
  0
VERTEX
  8
estabelecimento_escolar_privado
 10
-9.336757
 20
38.700687
  0
VERTEX
  8
estabelecimento_escolar_privado
 10
-9.336821
 20
38.700586
  0
VERTEX
  8
estabelecimento_escolar_privado
 10
-9.336835
 20
38.700564
  0
VERTEX
  8
estabelecimento_escolar_privado
 10
-9.336886
 20
38.700483
  0
VERTEX
  8
estabelecimento_escolar_privado
 10
-9.336930
 20
38.700415
  0
VERTEX
  8
estabelecimento_escolar_privado
 10
-9.336949
 20
38.700385
  0
VERTEX
  8
estabelecimento_escolar_privado
 10
-9.337037
 20
38.700424
  0
VERTEX
  8
estabelecimento_escolar_privado
 10
-9.337060
 20
38.700394
  0
SEQEND
  0
POLYLINE
  8
estabelecimento_escolar_privado
  6
BYLAYER
 66
1
 70
1
 40
0.000000
 41
0.000000
  0
VERTEX
  8
estabelecimento_escolar_privado
 10
-9.418393
 20
38.704763
  0
VERTEX
  8
estabelecimento_escolar_privado
 10
-9.418400
 20
38.704877
  0
VERTEX
  8
estabelecimento_escolar_privado
 10
-9.418279
 20
38.704860
  0
VERTEX
  8
estabelecimento_escolar_privado
 10
-9.418198
 20
38.704850
  0
VERTEX
  8
estabelecimento_escolar_privado
 10
-9.418202
 20
38.704814
  0
VERTEX
  8
estabelecimento_escolar_privado
 10
-9.418191
 20
38.704793
  0
VERTEX
  8
estabelecimento_escolar_privado
 10
-9.417934
 20
38.704668
  0
VERTEX
  8
estabelecimento_escolar_privado
 10
-9.417851
 20
38.704663
  0
VERTEX
  8
estabelecimento_escolar_privado
 10
-9.417850
 20
38.704625
  0
VERTEX
  8
estabelecimento_escolar_privado
 10
-9.417860
 20
38.704505
  0
VERTEX
  8
estabelecimento_escolar_privado
 10
-9.417907
 20
38.704514
  0
VERTEX
  8
estabelecimento_escolar_privado
 10
-9.418021
 20
38.704572
  0
VERTEX
  8
estabelecimento_escolar_privado
 10
-9.418275
 20
38.704703
  0
VERTEX
  8
estabelecimento_escolar_privado
 10
-9.418393
 20
38.704763
  0
SEQEND
  0
POLYLINE
  8
estabelecimento_escolar_privado
  6
BYLAYER
 66
1
 70
1
 40
0.000000
 41
0.000000
  0
VERTEX
  8
estabelecimento_escolar_privado
 10
-9.326326
 20
38.685325
  0
VERTEX
  8
estabelecimento_escolar_privado
 10
-9.326247
 20
38.685623
  0
VERTEX
  8
estabelecimento_escolar_privado
 10
-9.326177
 20
38.685635
  0
VERTEX
  8
estabelecimento_escolar_privado
 10
-9.326136
 20
38.685641
  0
VERTEX
  8
estabelecimento_escolar_privado
 10
-9.326180
 20
38.685776
  0
VERTEX
  8
estabelecimento_escolar_privado
 10
-9.326045
 20
38.685788
  0
VERTEX
  8
estabelecimento_escolar_privado
 10
-9.325969
 20
38.685795
  0
VERTEX
  8
estabelecimento_escolar_privado
 10
-9.325933
 20
38.685643
  0
VERTEX
  8
estabelecimento_escolar_privado
 10
-9.326037
 20
38.685537
  0
VERTEX
  8
estabelecimento_escolar_privado
 10
-9.326063
 20
38.685511
  0
VERTEX
  8
estabelecimento_escolar_privado
 10
-9.326073
 20
38.685500
  0
VERTEX
  8
estabelecimento_escolar_privado
 10
-9.326127
 20
38.685442
  0
VERTEX
  8
estabelecimento_escolar_privado
 10
-9.326148
 20
38.685420
  0
VERTEX
  8
estabelecimento_escolar_privado
 10
-9.326215
 20
38.685340
  0
VERTEX
  8
estabelecimento_escolar_privado
 10
-9.326326
 20
38.685325
  0
SEQEND
  0
POLYLINE
  8
estabelecimento_escolar_privado
  6
BYLAYER
 66
1
 70
1
 40
0.000000
 41
0.000000
  0
VERTEX
  8
estabelecimento_escolar_privado
 10
-9.436567
 20
38.721300
  0
VERTEX
  8
estabelecimento_escolar_privado
 10
-9.436181
 20
38.720413
  0
VERTEX
  8
estabelecimento_escolar_privado
 10
-9.436846
 20
38.720296
  0
VERTEX
  8
estabelecimento_escolar_privado
 10
-9.437104
 20
38.721166
  0
VERTEX
  8
estabelecimento_escolar_privado
 10
-9.436567
 20
38.721300
  0
SEQEND
  0
POLYLINE
  8
estabelecimento_escolar_privado
  6
BYLAYER
 66
1
 70
1
 40
0.000000
 41
0.000000
  0
VERTEX
  8
estabelecimento_escolar_privado
 10
-9.342376
 20
38.689824
  0
VERTEX
  8
estabelecimento_escolar_privado
 10
-9.342632
 20
38.689758
  0
VERTEX
  8
estabelecimento_escolar_privado
 10
-9.342873
 20
38.689700
  0
VERTEX
  8
estabelecimento_escolar_privado
 10
-9.343455
 20
38.689556
  0
VERTEX
  8
estabelecimento_escolar_privado
 10
-9.343558
 20
38.689530
  0
VERTEX
  8
estabelecimento_escolar_privado
 10
-9.343992
 20
38.689422
  0
VERTEX
  8
estabelecimento_escolar_privado
 10
-9.344218
 20
38.689366
  0
VERTEX
  8
estabelecimento_escolar_privado
 10
-9.344464
 20
38.689357
  0
VERTEX
  8
estabelecimento_escolar_privado
 10
-9.344839
 20
38.690072
  0
VERTEX
  8
estabelecimento_escolar_privado
 10
-9.344911
 20
38.690212
  0
VERTEX
  8
estabelecimento_escolar_privado
 10
-9.345130
 20
38.690601
  0
VERTEX
  8
estabelecimento_escolar_privado
 10
-9.345209
 20
38.690740
  0
VERTEX
  8
estabelecimento_escolar_privado
 10
-9.345213
 20
38.690747
  0
VERTEX
  8
estabelecimento_escolar_privado
 10
-9.345231
 20
38.690778
  0
VERTEX
  8
estabelecimento_escolar_privado
 10
-9.345234
 20
38.690783
  0
VERTEX
  8
estabelecimento_escolar_privado
 10
-9.345243
 20
38.690800
  0
VERTEX
  8
estabelecimento_escolar_privado
 10
-9.345337
 20
38.690980
  0
VERTEX
  8
estabelecimento_escolar_privado
 10
-9.345338
 20
38.690983
  0
VERTEX
  8
estabelecimento_escolar_privado
 10
-9.345540
 20
38.691362
  0
VERTEX
  8
estabelecimento_escolar_privado
 10
-9.345731
 20
38.691710
  0
VERTEX
  8
estabelecimento_escolar_privado
 10
-9.345816
 20
38.691873
  0
VERTEX
  8
estabelecimento_escolar_privado
 10
-9.345935
 20
38.691824
  0
VERTEX
  8
estabelecimento_escolar_privado
 10
-9.346032
 20
38.691993
  0
VERTEX
  8
estabelecimento_escolar_privado
 10
-9.346068
 20
38.692058
  0
VERTEX
  8
estabelecimento_escolar_privado
 10
-9.346224
 20
38.692320
  0
VERTEX
  8
estabelecimento_escolar_privado
 10
-9.346034
 20
38.692356
  0
VERTEX
  8
estabelecimento_escolar_privado
 10
-9.345595
 20
38.692435
  0
VERTEX
  8
estabelecimento_escolar_privado
 10
-9.345335
 20
38.692466
  0
VERTEX
  8
estabelecimento_escolar_privado
 10
-9.345132
 20
38.692481
  0
VERTEX
  8
estabelecimento_escolar_privado
 10
-9.345118
 20
38.692477
  0
VERTEX
  8
estabelecimento_escolar_privado
 10
-9.345108
 20
38.692469
  0
VERTEX
  8
estabelecimento_escolar_privado
 10
-9.345104
 20
38.692459
  0
VERTEX
  8
estabelecimento_escolar_privado
 10
-9.345104
 20
38.692451
  0
VERTEX
  8
estabelecimento_escolar_privado
 10
-9.344999
 20
38.692457
  0
VERTEX
  8
estabelecimento_escolar_privado
 10
-9.344999
 20
38.692466
  0
VERTEX
  8
estabelecimento_escolar_privado
 10
-9.344998
 20
38.692469
  0
VERTEX
  8
estabelecimento_escolar_privado
 10
-9.344997
 20
38.692472
  0
VERTEX
  8
estabelecimento_escolar_privado
 10
-9.344991
 20
38.692477
  0
VERTEX
  8
estabelecimento_escolar_privado
 10
-9.344988
 20
38.692479
  0
VERTEX
  8
estabelecimento_escolar_privado
 10
-9.344985
 20
38.692481
  0
VERTEX
  8
estabelecimento_escolar_privado
 10
-9.344981
 20
38.692482
  0
VERTEX
  8
estabelecimento_escolar_privado
 10
-9.344977
 20
38.692483
  0
VERTEX
  8
estabelecimento_escolar_privado
 10
-9.344240
 20
38.692466
  0
VERTEX
  8
estabelecimento_escolar_privado
 10
-9.343726
 20
38.692459
  0
VERTEX
  8
estabelecimento_escolar_privado
 10
-9.343634
 20
38.692458
  0
VERTEX
  8
estabelecimento_escolar_privado
 10
-9.343604
 20
38.692457
  0
VERTEX
  8
estabelecimento_escolar_privado
 10
-9.342426
 20
38.692420
  0
VERTEX
  8
estabelecimento_escolar_privado
 10
-9.342044
 20
38.692418
  0
VERTEX
  8
estabelecimento_escolar_privado
 10
-9.342010
 20
38.692154
  0
VERTEX
  8
estabelecimento_escolar_privado
 10
-9.341964
 20
38.691820
  0
VERTEX
  8
estabelecimento_escolar_privado
 10
-9.341946
 20
38.691804
  0
VERTEX
  8
estabelecimento_escolar_privado
 10
-9.341880
 20
38.691780
  0
VERTEX
  8
estabelecimento_escolar_privado
 10
-9.341775
 20
38.691772
  0
VERTEX
  8
estabelecimento_escolar_privado
 10
-9.341690
 20
38.691726
  0
VERTEX
  8
estabelecimento_escolar_privado
 10
-9.341686
 20
38.691649
  0
VERTEX
  8
estabelecimento_escolar_privado
 10
-9.342020
 20
38.691669
  0
VERTEX
  8
estabelecimento_escolar_privado
 10
-9.342041
 20
38.691665
  0
VERTEX
  8
estabelecimento_escolar_privado
 10
-9.342274
 20
38.691624
  0
VERTEX
  8
estabelecimento_escolar_privado
 10
-9.342941
 20
38.691511
  0
VERTEX
  8
estabelecimento_escolar_privado
 10
-9.342954
 20
38.691511
  0
VERTEX
  8
estabelecimento_escolar_privado
 10
-9.342901
 20
38.691294
  0
VERTEX
  8
estabelecimento_escolar_privado
 10
-9.342861
 20
38.691188
  0
VERTEX
  8
estabelecimento_escolar_privado
 10
-9.342778
 20
38.690965
  0
VERTEX
  8
estabelecimento_escolar_privado
 10
-9.342609
 20
38.690466
  0
VERTEX
  8
estabelecimento_escolar_privado
 10
-9.342599
 20
38.690435
  0
VERTEX
  8
estabelecimento_escolar_privado
 10
-9.342538
 20
38.690283
  0
VERTEX
  8
estabelecimento_escolar_privado
 10
-9.342376
 20
38.689824
  0
SEQEND
  0
POLYLINE
  8
estabelecimento_escolar_privado
  6
BYLAYER
 66
1
 70
1
 40
0.000000
 41
0.000000
  0
VERTEX
  8
estabelecimento_escolar_privado
 10
-9.390305
 20
38.746288
  0
VERTEX
  8
estabelecimento_escolar_privado
 10
-9.389775
 20
38.746139
  0
VERTEX
  8
estabelecimento_escolar_privado
 10
-9.389941
 20
38.745756
  0
VERTEX
  8
estabelecimento_escolar_privado
 10
-9.389944
 20
38.745753
  0
VERTEX
  8
estabelecimento_escolar_privado
 10
-9.389949
 20
38.745748
  0
VERTEX
  8
estabelecimento_escolar_privado
 10
-9.389955
 20
38.745744
  0
VERTEX
  8
estabelecimento_escolar_privado
 10
-9.389962
 20
38.745741
  0
VERTEX
  8
estabelecimento_escolar_privado
 10
-9.389966
 20
38.745740
  0
VERTEX
  8
estabelecimento_escolar_privado
 10
-9.389969
 20
38.745739
  0
VERTEX
  8
estabelecimento_escolar_privado
 10
-9.389973
 20
38.745738
  0
VERTEX
  8
estabelecimento_escolar_privado
 10
-9.389981
 20
38.745737
  0
VERTEX
  8
estabelecimento_escolar_privado
 10
-9.390039
 20
38.745744
  0
VERTEX
  8
estabelecimento_escolar_privado
 10
-9.390069
 20
38.745748
  0
VERTEX
  8
estabelecimento_escolar_privado
 10
-9.390376
 20
38.745787
  0
VERTEX
  8
estabelecimento_escolar_privado
 10
-9.390514
 20
38.745805
  0
VERTEX
  8
estabelecimento_escolar_privado
 10
-9.390305
 20
38.746288
  0
SEQEND
  0
POLYLINE
  8
estabelecimento_escolar_privado
  6
BYLAYER
 66
1
 70
1
 40
0.000000
 41
0.000000
  0
VERTEX
  8
estabelecimento_escolar_privado
 10
-9.407027
 20
38.730202
  0
VERTEX
  8
estabelecimento_escolar_privado
 10
-9.407023
 20
38.730219
  0
VERTEX
  8
estabelecimento_escolar_privado
 10
-9.407012
 20
38.730216
  0
VERTEX
  8
estabelecimento_escolar_privado
 10
-9.406990
 20
38.730314
  0
VERTEX
  8
estabelecimento_escolar_privado
 10
-9.407003
 20
38.730316
  0
VERTEX
  8
estabelecimento_escolar_privado
 10
-9.406986
 20
38.730387
  0
VERTEX
  8
estabelecimento_escolar_privado
 10
-9.406966
 20
38.730383
  0
VERTEX
  8
estabelecimento_escolar_privado
 10
-9.406956
 20
38.730413
  0
VERTEX
  8
estabelecimento_escolar_privado
 10
-9.406920
 20
38.730478
  0
VERTEX
  8
estabelecimento_escolar_privado
 10
-9.406913
 20
38.730491
  0
VERTEX
  8
estabelecimento_escolar_privado
 10
-9.406899
 20
38.730517
  0
VERTEX
  8
estabelecimento_escolar_privado
 10
-9.406819
 20
38.730506
  0
VERTEX
  8
estabelecimento_escolar_privado
 10
-9.406852
 20
38.730368
  0
VERTEX
  8
estabelecimento_escolar_privado
 10
-9.406830
 20
38.730364
  0
VERTEX
  8
estabelecimento_escolar_privado
 10
-9.406865
 20
38.730217
  0
VERTEX
  8
estabelecimento_escolar_privado
 10
-9.406874
 20
38.730181
  0
VERTEX
  8
estabelecimento_escolar_privado
 10
-9.406913
 20
38.730187
  0
VERTEX
  8
estabelecimento_escolar_privado
 10
-9.406926
 20
38.730144
  0
VERTEX
  8
estabelecimento_escolar_privado
 10
-9.406996
 20
38.730159
  0
VERTEX
  8
estabelecimento_escolar_privado
 10
-9.406987
 20
38.730197
  0
VERTEX
  8
estabelecimento_escolar_privado
 10
-9.407027
 20
38.730202
  0
SEQEND
  0
POLYLINE
  8
estabelecimento_escolar_privado
  6
BYLAYER
 66
1
 70
1
 40
0.000000
 41
0.000000
  0
VERTEX
  8
estabelecimento_escolar_privado
 10
-9.340166
 20
38.687187
  0
VERTEX
  8
estabelecimento_escolar_privado
 10
-9.340111
 20
38.687180
  0
VERTEX
  8
estabelecimento_escolar_privado
 10
-9.340108
 20
38.687181
  0
VERTEX
  8
estabelecimento_escolar_privado
 10
-9.339820
 20
38.687138
  0
VERTEX
  8
estabelecimento_escolar_privado
 10
-9.339833
 20
38.687071
  0
VERTEX
  8
estabelecimento_escolar_privado
 10
-9.339846
 20
38.687006
  0
VERTEX
  8
estabelecimento_escolar_privado
 10
-9.339878
 20
38.686849
  0
VERTEX
  8
estabelecimento_escolar_privado
 10
-9.339953
 20
38.686858
  0
VERTEX
  8
estabelecimento_escolar_privado
 10
-9.339982
 20
38.686862
  0
VERTEX
  8
estabelecimento_escolar_privado
 10
-9.340114
 20
38.686879
  0
VERTEX
  8
estabelecimento_escolar_privado
 10
-9.340124
 20
38.686880
  0
VERTEX
  8
estabelecimento_escolar_privado
 10
-9.340239
 20
38.686895
  0
VERTEX
  8
estabelecimento_escolar_privado
 10
-9.340166
 20
38.687187
  0
SEQEND
  0
POLYLINE
  8
estabelecimento_escolar_privado
  6
BYLAYER
 66
1
 70
1
 40
0.000000
 41
0.000000
  0
VERTEX
  8
estabelecimento_escolar_privado
 10
-9.376659
 20
38.708775
  0
VERTEX
  8
estabelecimento_escolar_privado
 10
-9.376388
 20
38.708404
  0
VERTEX
  8
estabelecimento_escolar_privado
 10
-9.376582
 20
38.708314
  0
VERTEX
  8
estabelecimento_escolar_privado
 10
-9.376604
 20
38.708342
  0
VERTEX
  8
estabelecimento_escolar_privado
 10
-9.376657
 20
38.708414
  0
VERTEX
  8
estabelecimento_escolar_privado
 10
-9.376713
 20
38.708488
  0
VERTEX
  8
estabelecimento_escolar_privado
 10
-9.376726
 20
38.708506
  0
VERTEX
  8
estabelecimento_escolar_privado
 10
-9.376814
 20
38.708624
  0
VERTEX
  8
estabelecimento_escolar_privado
 10
-9.376820
 20
38.708633
  0
VERTEX
  8
estabelecimento_escolar_privado
 10
-9.376838
 20
38.708656
  0
VERTEX
  8
estabelecimento_escolar_privado
 10
-9.376847
 20
38.708669
  0
VERTEX
  8
estabelecimento_escolar_privado
 10
-9.376895
 20
38.708734
  0
VERTEX
  8
estabelecimento_escolar_privado
 10
-9.376875
 20
38.708742
  0
VERTEX
  8
estabelecimento_escolar_privado
 10
-9.376837
 20
38.708759
  0
VERTEX
  8
estabelecimento_escolar_privado
 10
-9.376805
 20
38.708774
  0
VERTEX
  8
estabelecimento_escolar_privado
 10
-9.376801
 20
38.708776
  0
VERTEX
  8
estabelecimento_escolar_privado
 10
-9.376695
 20
38.708824
  0
VERTEX
  8
estabelecimento_escolar_privado
 10
-9.376659
 20
38.708775
  0
SEQEND
  0
POLYLINE
  8
estabelecimento_escolar_privado
  6
BYLAYER
 66
1
 70
1
 40
0.000000
 41
0.000000
  0
VERTEX
  8
estabelecimento_escolar_privado
 10
-9.415874
 20
38.704552
  0
VERTEX
  8
estabelecimento_escolar_privado
 10
-9.415872
 20
38.704584
  0
VERTEX
  8
estabelecimento_escolar_privado
 10
-9.415870
 20
38.704607
  0
VERTEX
  8
estabelecimento_escolar_privado
 10
-9.415864
 20
38.704689
  0
VERTEX
  8
estabelecimento_escolar_privado
 10
-9.415855
 20
38.704765
  0
VERTEX
  8
estabelecimento_escolar_privado
 10
-9.415853
 20
38.704872
  0
VERTEX
  8
estabelecimento_escolar_privado
 10
-9.415838
 20
38.704940
  0
VERTEX
  8
estabelecimento_escolar_privado
 10
-9.415616
 20
38.704920
  0
VERTEX
  8
estabelecimento_escolar_privado
 10
-9.415480
 20
38.704917
  0
VERTEX
  8
estabelecimento_escolar_privado
 10
-9.415502
 20
38.704536
  0
VERTEX
  8
estabelecimento_escolar_privado
 10
-9.415555
 20
38.704538
  0
VERTEX
  8
estabelecimento_escolar_privado
 10
-9.415874
 20
38.704552
  0
SEQEND
  0
POLYLINE
  8
estabelecimento_escolar_privado
  6
BYLAYER
 66
1
 70
1
 40
0.000000
 41
0.000000
  0
VERTEX
  8
estabelecimento_escolar_privado
 10
-9.356169
 20
38.694581
  0
VERTEX
  8
estabelecimento_escolar_privado
 10
-9.355995
 20
38.694637
  0
VERTEX
  8
estabelecimento_escolar_privado
 10
-9.355862
 20
38.694680
  0
VERTEX
  8
estabelecimento_escolar_privado
 10
-9.355809
 20
38.694699
  0
VERTEX
  8
estabelecimento_escolar_privado
 10
-9.355765
 20
38.694715
  0
VERTEX
  8
estabelecimento_escolar_privado
 10
-9.355481
 20
38.694812
  0
VERTEX
  8
estabelecimento_escolar_privado
 10
-9.355466
 20
38.694792
  0
VERTEX
  8
estabelecimento_escolar_privado
 10
-9.355326
 20
38.694586
  0
VERTEX
  8
estabelecimento_escolar_privado
 10
-9.355316
 20
38.694570
  0
VERTEX
  8
estabelecimento_escolar_privado
 10
-9.355293
 20
38.694536
  0
VERTEX
  8
estabelecimento_escolar_privado
 10
-9.355276
 20
38.694510
  0
VERTEX
  8
estabelecimento_escolar_privado
 10
-9.355220
 20
38.694424
  0
VERTEX
  8
estabelecimento_escolar_privado
 10
-9.355238
 20
38.694409
  0
VERTEX
  8
estabelecimento_escolar_privado
 10
-9.355422
 20
38.694331
  0
VERTEX
  8
estabelecimento_escolar_privado
 10
-9.355466
 20
38.694340
  0
VERTEX
  8
estabelecimento_escolar_privado
 10
-9.355528
 20
38.694318
  0
VERTEX
  8
estabelecimento_escolar_privado
 10
-9.355593
 20
38.694298
  0
VERTEX
  8
estabelecimento_escolar_privado
 10
-9.355763
 20
38.694239
  0
VERTEX
  8
estabelecimento_escolar_privado
 10
-9.355806
 20
38.694220
  0
VERTEX
  8
estabelecimento_escolar_privado
 10
-9.355882
 20
38.694227
  0
VERTEX
  8
estabelecimento_escolar_privado
 10
-9.355942
 20
38.694208
  0
VERTEX
  8
estabelecimento_escolar_privado
 10
-9.355976
 20
38.694195
  0
VERTEX
  8
estabelecimento_escolar_privado
 10
-9.356018
 20
38.694281
  0
VERTEX
  8
estabelecimento_escolar_privado
 10
-9.356038
 20
38.694324
  0
VERTEX
  8
estabelecimento_escolar_privado
 10
-9.356043
 20
38.694333
  0
VERTEX
  8
estabelecimento_escolar_privado
 10
-9.356169
 20
38.694581
  0
SEQEND
  0
POLYLINE
  8
estabelecimento_escolar_privado
  6
BYLAYER
 66
1
 70
1
 40
0.000000
 41
0.000000
  0
VERTEX
  8
estabelecimento_escolar_privado
 10
-9.338161
 20
38.702702
  0
VERTEX
  8
estabelecimento_escolar_privado
 10
-9.337998
 20
38.702662
  0
VERTEX
  8
estabelecimento_escolar_privado
 10
-9.337878
 20
38.702632
  0
VERTEX
  8
estabelecimento_escolar_privado
 10
-9.337824
 20
38.702619
  0
VERTEX
  8
estabelecimento_escolar_privado
 10
-9.337644
 20
38.702576
  0
VERTEX
  8
estabelecimento_escolar_privado
 10
-9.337661
 20
38.702537
  0
VERTEX
  8
estabelecimento_escolar_privado
 10
-9.337123
 20
38.702417
  0
VERTEX
  8
estabelecimento_escolar_privado
 10
-9.337090
 20
38.702264
  0
VERTEX
  8
estabelecimento_escolar_privado
 10
-9.337083
 20
38.702228
  0
VERTEX
  8
estabelecimento_escolar_privado
 10
-9.337073
 20
38.702181
  0
VERTEX
  8
estabelecimento_escolar_privado
 10
-9.337060
 20
38.702120
  0
VERTEX
  8
estabelecimento_escolar_privado
 10
-9.337027
 20
38.701973
  0
VERTEX
  8
estabelecimento_escolar_privado
 10
-9.337060
 20
38.701963
  0
VERTEX
  8
estabelecimento_escolar_privado
 10
-9.337155
 20
38.701932
  0
VERTEX
  8
estabelecimento_escolar_privado
 10
-9.337229
 20
38.701908
  0
VERTEX
  8
estabelecimento_escolar_privado
 10
-9.337467
 20
38.701830
  0
VERTEX
  8
estabelecimento_escolar_privado
 10
-9.337495
 20
38.701848
  0
VERTEX
  8
estabelecimento_escolar_privado
 10
-9.337520
 20
38.701865
  0
VERTEX
  8
estabelecimento_escolar_privado
 10
-9.337555
 20
38.701883
  0
VERTEX
  8
estabelecimento_escolar_privado
 10
-9.337586
 20
38.701898
  0
VERTEX
  8
estabelecimento_escolar_privado
 10
-9.337601
 20
38.701904
  0
VERTEX
  8
estabelecimento_escolar_privado
 10
-9.337627
 20
38.701915
  0
VERTEX
  8
estabelecimento_escolar_privado
 10
-9.337653
 20
38.701922
  0
VERTEX
  8
estabelecimento_escolar_privado
 10
-9.337675
 20
38.701927
  0
VERTEX
  8
estabelecimento_escolar_privado
 10
-9.337706
 20
38.701933
  0
VERTEX
  8
estabelecimento_escolar_privado
 10
-9.337752
 20
38.701941
  0
VERTEX
  8
estabelecimento_escolar_privado
 10
-9.337774
 20
38.701944
  0
VERTEX
  8
estabelecimento_escolar_privado
 10
-9.337808
 20
38.701948
  0
VERTEX
  8
estabelecimento_escolar_privado
 10
-9.337812
 20
38.701948
  0
VERTEX
  8
estabelecimento_escolar_privado
 10
-9.337831
 20
38.701949
  0
VERTEX
  8
estabelecimento_escolar_privado
 10
-9.337869
 20
38.701951
  0
VERTEX
  8
estabelecimento_escolar_privado
 10
-9.337906
 20
38.701952
  0
VERTEX
  8
estabelecimento_escolar_privado
 10
-9.337943
 20
38.701953
  0
VERTEX
  8
estabelecimento_escolar_privado
 10
-9.337972
 20
38.701953
  0
VERTEX
  8
estabelecimento_escolar_privado
 10
-9.337981
 20
38.701952
  0
VERTEX
  8
estabelecimento_escolar_privado
 10
-9.338002
 20
38.701951
  0
VERTEX
  8
estabelecimento_escolar_privado
 10
-9.338007
 20
38.701950
  0
VERTEX
  8
estabelecimento_escolar_privado
 10
-9.338024
 20
38.701947
  0
VERTEX
  8
estabelecimento_escolar_privado
 10
-9.338034
 20
38.701945
  0
VERTEX
  8
estabelecimento_escolar_privado
 10
-9.338034
 20
38.701961
  0
VERTEX
  8
estabelecimento_escolar_privado
 10
-9.338070
 20
38.702047
  0
VERTEX
  8
estabelecimento_escolar_privado
 10
-9.338074
 20
38.702152
  0
VERTEX
  8
estabelecimento_escolar_privado
 10
-9.338077
 20
38.702269
  0
VERTEX
  8
estabelecimento_escolar_privado
 10
-9.338122
 20
38.702275
  0
VERTEX
  8
estabelecimento_escolar_privado
 10
-9.338147
 20
38.702533
  0
VERTEX
  8
estabelecimento_escolar_privado
 10
-9.338157
 20
38.702666
  0
VERTEX
  8
estabelecimento_escolar_privado
 10
-9.338159
 20
38.702675
  0
VERTEX
  8
estabelecimento_escolar_privado
 10
-9.338161
 20
38.702702
  0
SEQEND
  0
POLYLINE
  8
estabelecimento_escolar_privado
  6
BYLAYER
 66
1
 70
1
 40
0.000000
 41
0.000000
  0
VERTEX
  8
estabelecimento_escolar_privado
 10
-9.438919
 20
38.701373
  0
VERTEX
  8
estabelecimento_escolar_privado
 10
-9.438961
 20
38.701563
  0
VERTEX
  8
estabelecimento_escolar_privado
 10
-9.439029
 20
38.701870
  0
VERTEX
  8
estabelecimento_escolar_privado
 10
-9.438523
 20
38.701936
  0
VERTEX
  8
estabelecimento_escolar_privado
 10
-9.438515
 20
38.701931
  0
VERTEX
  8
estabelecimento_escolar_privado
 10
-9.438414
 20
38.701471
  0
VERTEX
  8
estabelecimento_escolar_privado
 10
-9.438418
 20
38.701463
  0
VERTEX
  8
estabelecimento_escolar_privado
 10
-9.438424
 20
38.701452
  0
VERTEX
  8
estabelecimento_escolar_privado
 10
-9.438434
 20
38.701444
  0
VERTEX
  8
estabelecimento_escolar_privado
 10
-9.438445
 20
38.701439
  0
VERTEX
  8
estabelecimento_escolar_privado
 10
-9.438452
 20
38.701437
  0
VERTEX
  8
estabelecimento_escolar_privado
 10
-9.438919
 20
38.701373
  0
SEQEND
  0
POLYLINE
  8
estabelecimento_escolar_privado
  6
BYLAYER
 66
1
 70
1
 40
0.000000
 41
0.000000
  0
VERTEX
  8
estabelecimento_escolar_privado
 10
-9.438262
 20
38.701962
  0
VERTEX
  8
estabelecimento_escolar_privado
 10
-9.438263
 20
38.701966
  0
VERTEX
  8
estabelecimento_escolar_privado
 10
-9.438263
 20
38.701970
  0
VERTEX
  8
estabelecimento_escolar_privado
 10
-9.438262
 20
38.701973
  0
VERTEX
  8
estabelecimento_escolar_privado
 10
-9.438261
 20
38.701977
  0
VERTEX
  8
estabelecimento_escolar_privado
 10
-9.438260
 20
38.701980
  0
VERTEX
  8
estabelecimento_escolar_privado
 10
-9.438257
 20
38.701983
  0
VERTEX
  8
estabelecimento_escolar_privado
 10
-9.438254
 20
38.701986
  0
VERTEX
  8
estabelecimento_escolar_privado
 10
-9.438251
 20
38.701988
  0
VERTEX
  8
estabelecimento_escolar_privado
 10
-9.438248
 20
38.701990
  0
VERTEX
  8
estabelecimento_escolar_privado
 10
-9.438241
 20
38.701993
  0
VERTEX
  8
estabelecimento_escolar_privado
 10
-9.437331
 20
38.702097
  0
VERTEX
  8
estabelecimento_escolar_privado
 10
-9.437327
 20
38.702096
  0
VERTEX
  8
estabelecimento_escolar_privado
 10
-9.437322
 20
38.702095
  0
VERTEX
  8
estabelecimento_escolar_privado
 10
-9.437316
 20
38.702094
  0
VERTEX
  8
estabelecimento_escolar_privado
 10
-9.437312
 20
38.702093
  0
VERTEX
  8
estabelecimento_escolar_privado
 10
-9.437307
 20
38.702090
  0
VERTEX
  8
estabelecimento_escolar_privado
 10
-9.437303
 20
38.702088
  0
VERTEX
  8
estabelecimento_escolar_privado
 10
-9.437299
 20
38.702085
  0
VERTEX
  8
estabelecimento_escolar_privado
 10
-9.437296
 20
38.702081
  0
VERTEX
  8
estabelecimento_escolar_privado
 10
-9.437293
 20
38.702078
  0
VERTEX
  8
estabelecimento_escolar_privado
 10
-9.437291
 20
38.702074
  0
VERTEX
  8
estabelecimento_escolar_privado
 10
-9.437289
 20
38.702070
  0
VERTEX
  8
estabelecimento_escolar_privado
 10
-9.437288
 20
38.702066
  0
VERTEX
  8
estabelecimento_escolar_privado
 10
-9.437287
 20
38.702060
  0
VERTEX
  8
estabelecimento_escolar_privado
 10
-9.437222
 20
38.701728
  0
VERTEX
  8
estabelecimento_escolar_privado
 10
-9.437304
 20
38.701680
  0
VERTEX
  8
estabelecimento_escolar_privado
 10
-9.437539
 20
38.701544
  0
VERTEX
  8
estabelecimento_escolar_privado
 10
-9.437569
 20
38.701543
  0
VERTEX
  8
estabelecimento_escolar_privado
 10
-9.437603
 20
38.701512
  0
VERTEX
  8
estabelecimento_escolar_privado
 10
-9.437597
 20
38.701487
  0
VERTEX
  8
estabelecimento_escolar_privado
 10
-9.437600
 20
38.701484
  0
VERTEX
  8
estabelecimento_escolar_privado
 10
-9.437609
 20
38.701475
  0
VERTEX
  8
estabelecimento_escolar_privado
 10
-9.437613
 20
38.701470
  0
VERTEX
  8
estabelecimento_escolar_privado
 10
-9.437617
 20
38.701465
  0
VERTEX
  8
estabelecimento_escolar_privado
 10
-9.437900
 20
38.701394
  0
VERTEX
  8
estabelecimento_escolar_privado
 10
-9.438131
 20
38.701357
  0
VERTEX
  8
estabelecimento_escolar_privado
 10
-9.438166
 20
38.701520
  0
VERTEX
  8
estabelecimento_escolar_privado
 10
-9.438199
 20
38.701671
  0
VERTEX
  8
estabelecimento_escolar_privado
 10
-9.438262
 20
38.701962
  0
SEQEND
  0
POLYLINE
  8
estabelecimento_escolar_privado
  6
BYLAYER
 66
1
 70
1
 40
0.000000
 41
0.000000
  0
VERTEX
  8
estabelecimento_escolar_privado
 10
-9.398974
 20
38.733187
  0
VERTEX
  8
estabelecimento_escolar_privado
 10
-9.398971
 20
38.733101
  0
VERTEX
  8
estabelecimento_escolar_privado
 10
-9.399213
 20
38.733096
  0
VERTEX
  8
estabelecimento_escolar_privado
 10
-9.399371
 20
38.733092
  0
VERTEX
  8
estabelecimento_escolar_privado
 10
-9.399365
 20
38.732928
  0
VERTEX
  8
estabelecimento_escolar_privado
 10
-9.399218
 20
38.732933
  0
VERTEX
  8
estabelecimento_escolar_privado
 10
-9.399206
 20
38.732934
  0
VERTEX
  8
estabelecimento_escolar_privado
 10
-9.399202
 20
38.732868
  0
VERTEX
  8
estabelecimento_escolar_privado
 10
-9.399210
 20
38.732868
  0
VERTEX
  8
estabelecimento_escolar_privado
 10
-9.399405
 20
38.732863
  0
VERTEX
  8
estabelecimento_escolar_privado
 10
-9.399443
 20
38.732845
  0
VERTEX
  8
estabelecimento_escolar_privado
 10
-9.399703
 20
38.732718
  0
VERTEX
  8
estabelecimento_escolar_privado
 10
-9.399746
 20
38.732773
  0
VERTEX
  8
estabelecimento_escolar_privado
 10
-9.399482
 20
38.732902
  0
VERTEX
  8
estabelecimento_escolar_privado
 10
-9.399486
 20
38.732992
  0
VERTEX
  8
estabelecimento_escolar_privado
 10
-9.399511
 20
38.732992
  0
VERTEX
  8
estabelecimento_escolar_privado
 10
-9.399519
 20
38.733190
  0
VERTEX
  8
estabelecimento_escolar_privado
 10
-9.399429
 20
38.733192
  0
VERTEX
  8
estabelecimento_escolar_privado
 10
-9.399373
 20
38.733193
  0
VERTEX
  8
estabelecimento_escolar_privado
 10
-9.399373
 20
38.733188
  0
VERTEX
  8
estabelecimento_escolar_privado
 10
-9.399326
 20
38.733189
  0
VERTEX
  8
estabelecimento_escolar_privado
 10
-9.399327
 20
38.733223
  0
VERTEX
  8
estabelecimento_escolar_privado
 10
-9.399187
 20
38.733227
  0
VERTEX
  8
estabelecimento_escolar_privado
 10
-9.399185
 20
38.733182
  0
VERTEX
  8
estabelecimento_escolar_privado
 10
-9.399111
 20
38.733184
  0
VERTEX
  8
estabelecimento_escolar_privado
 10
-9.398974
 20
38.733187
  0
SEQEND
  0
POLYLINE
  8
estabelecimento_escolar_privado
  6
BYLAYER
 66
1
 70
1
 40
0.000000
 41
0.000000
  0
VERTEX
  8
estabelecimento_escolar_privado
 10
-9.387218
 20
38.707525
  0
VERTEX
  8
estabelecimento_escolar_privado
 10
-9.386753
 20
38.707420
  0
VERTEX
  8
estabelecimento_escolar_privado
 10
-9.386751
 20
38.707032
  0
VERTEX
  8
estabelecimento_escolar_privado
 10
-9.386771
 20
38.707004
  0
VERTEX
  8
estabelecimento_escolar_privado
 10
-9.386814
 20
38.706991
  0
VERTEX
  8
estabelecimento_escolar_privado
 10
-9.387359
 20
38.707116
  0
VERTEX
  8
estabelecimento_escolar_privado
 10
-9.387320
 20
38.707230
  0
VERTEX
  8
estabelecimento_escolar_privado
 10
-9.387218
 20
38.707525
  0
SEQEND
  0
POLYLINE
  8
estabelecimento_escolar_privado
  6
BYLAYER
 66
1
 70
1
 40
0.000000
 41
0.000000
  0
VERTEX
  8
estabelecimento_escolar_privado
 10
-9.350295
 20
38.689742
  0
VERTEX
  8
estabelecimento_escolar_privado
 10
-9.350441
 20
38.689750
  0
VERTEX
  8
estabelecimento_escolar_privado
 10
-9.350444
 20
38.689807
  0
VERTEX
  8
estabelecimento_escolar_privado
 10
-9.350458
 20
38.690065
  0
VERTEX
  8
estabelecimento_escolar_privado
 10
-9.350405
 20
38.690057
  0
VERTEX
  8
estabelecimento_escolar_privado
 10
-9.350376
 20
38.690053
  0
VERTEX
  8
estabelecimento_escolar_privado
 10
-9.350228
 20
38.690031
  0
VERTEX
  8
estabelecimento_escolar_privado
 10
-9.350282
 20
38.689805
  0
VERTEX
  8
estabelecimento_escolar_privado
 10
-9.350295
 20
38.689742
  0
SEQEND
  0
POLYLINE
  8
estabelecimento_escolar_privado
  6
BYLAYER
 66
1
 70
1
 40
0.000000
 41
0.000000
  0
VERTEX
  8
estabelecimento_escolar_privado
 10
-9.434494
 20
38.707866
  0
VERTEX
  8
estabelecimento_escolar_privado
 10
-9.434211
 20
38.707998
  0
VERTEX
  8
estabelecimento_escolar_privado
 10
-9.434041
 20
38.707800
  0
VERTEX
  8
estabelecimento_escolar_privado
 10
-9.434030
 20
38.707790
  0
VERTEX
  8
estabelecimento_escolar_privado
 10
-9.434021
 20
38.707780
  0
VERTEX
  8
estabelecimento_escolar_privado
 10
-9.434014
 20
38.707768
  0
VERTEX
  8
estabelecimento_escolar_privado
 10
-9.434008
 20
38.707756
  0
VERTEX
  8
estabelecimento_escolar_privado
 10
-9.434005
 20
38.707743
  0
VERTEX
  8
estabelecimento_escolar_privado
 10
-9.434004
 20
38.707730
  0
VERTEX
  8
estabelecimento_escolar_privado
 10
-9.434005
 20
38.707718
  0
VERTEX
  8
estabelecimento_escolar_privado
 10
-9.434008
 20
38.707705
  0
VERTEX
  8
estabelecimento_escolar_privado
 10
-9.434013
 20
38.707693
  0
VERTEX
  8
estabelecimento_escolar_privado
 10
-9.434020
 20
38.707681
  0
VERTEX
  8
estabelecimento_escolar_privado
 10
-9.434028
 20
38.707671
  0
VERTEX
  8
estabelecimento_escolar_privado
 10
-9.434041
 20
38.707659
  0
VERTEX
  8
estabelecimento_escolar_privado
 10
-9.434055
 20
38.707649
  0
VERTEX
  8
estabelecimento_escolar_privado
 10
-9.434068
 20
38.707639
  0
VERTEX
  8
estabelecimento_escolar_privado
 10
-9.434076
 20
38.707634
  0
VERTEX
  8
estabelecimento_escolar_privado
 10
-9.434083
 20
38.707629
  0
VERTEX
  8
estabelecimento_escolar_privado
 10
-9.434090
 20
38.707625
  0
VERTEX
  8
estabelecimento_escolar_privado
 10
-9.434098
 20
38.707621
  0
VERTEX
  8
estabelecimento_escolar_privado
 10
-9.434102
 20
38.707619
  0
VERTEX
  8
estabelecimento_escolar_privado
 10
-9.434124
 20
38.707603
  0
VERTEX
  8
estabelecimento_escolar_privado
 10
-9.434126
 20
38.707601
  0
VERTEX
  8
estabelecimento_escolar_privado
 10
-9.434136
 20
38.707592
  0
VERTEX
  8
estabelecimento_escolar_privado
 10
-9.434143
 20
38.707583
  0
VERTEX
  8
estabelecimento_escolar_privado
 10
-9.434178
 20
38.707595
  0
VERTEX
  8
estabelecimento_escolar_privado
 10
-9.434421
 20
38.707639
  0
VERTEX
  8
estabelecimento_escolar_privado
 10
-9.434424
 20
38.707641
  0
VERTEX
  8
estabelecimento_escolar_privado
 10
-9.434428
 20
38.707642
  0
VERTEX
  8
estabelecimento_escolar_privado
 10
-9.434431
 20
38.707643
  0
VERTEX
  8
estabelecimento_escolar_privado
 10
-9.434435
 20
38.707644
  0
VERTEX
  8
estabelecimento_escolar_privado
 10
-9.434439
 20
38.707644
  0
VERTEX
  8
estabelecimento_escolar_privado
 10
-9.434443
 20
38.707644
  0
VERTEX
  8
estabelecimento_escolar_privado
 10
-9.434446
 20
38.707644
  0
VERTEX
  8
estabelecimento_escolar_privado
 10
-9.434450
 20
38.707643
  0
VERTEX
  8
estabelecimento_escolar_privado
 10
-9.434454
 20
38.707643
  0
VERTEX
  8
estabelecimento_escolar_privado
 10
-9.434461
 20
38.707640
  0
VERTEX
  8
estabelecimento_escolar_privado
 10
-9.434598
 20
38.707617
  0
VERTEX
  8
estabelecimento_escolar_privado
 10
-9.434670
 20
38.707790
  0
VERTEX
  8
estabelecimento_escolar_privado
 10
-9.434674
 20
38.707798
  0
VERTEX
  8
estabelecimento_escolar_privado
 10
-9.434683
 20
38.707819
  0
VERTEX
  8
estabelecimento_escolar_privado
 10
-9.434637
 20
38.707830
  0
VERTEX
  8
estabelecimento_escolar_privado
 10
-9.434494
 20
38.707866
  0
SEQEND
  0
POLYLINE
  8
estabelecimento_escolar_privado
  6
BYLAYER
 66
1
 70
1
 40
0.000000
 41
0.000000
  0
VERTEX
  8
estabelecimento_escolar_privado
 10
-9.436803
 20
38.698335
  0
VERTEX
  8
estabelecimento_escolar_privado
 10
-9.436598
 20
38.698395
  0
VERTEX
  8
estabelecimento_escolar_privado
 10
-9.436590
 20
38.698378
  0
VERTEX
  8
estabelecimento_escolar_privado
 10
-9.436541
 20
38.698298
  0
VERTEX
  8
estabelecimento_escolar_privado
 10
-9.436522
 20
38.698268
  0
VERTEX
  8
estabelecimento_escolar_privado
 10
-9.436523
 20
38.698266
  0
VERTEX
  8
estabelecimento_escolar_privado
 10
-9.436730
 20
38.698185
  0
VERTEX
  8
estabelecimento_escolar_privado
 10
-9.436751
 20
38.698223
  0
VERTEX
  8
estabelecimento_escolar_privado
 10
-9.436751
 20
38.698223
  0
VERTEX
  8
estabelecimento_escolar_privado
 10
-9.436751
 20
38.698223
  0
VERTEX
  8
estabelecimento_escolar_privado
 10
-9.436751
 20
38.698224
  0
VERTEX
  8
estabelecimento_escolar_privado
 10
-9.436755
 20
38.698231
  0
VERTEX
  8
estabelecimento_escolar_privado
 10
-9.436762
 20
38.698243
  0
VERTEX
  8
estabelecimento_escolar_privado
 10
-9.436787
 20
38.698299
  0
VERTEX
  8
estabelecimento_escolar_privado
 10
-9.436796
 20
38.698321
  0
VERTEX
  8
estabelecimento_escolar_privado
 10
-9.436801
 20
38.698335
  0
VERTEX
  8
estabelecimento_escolar_privado
 10
-9.436803
 20
38.698335
  0
SEQEND
  0
POLYLINE
  8
estabelecimento_escolar_privado
  6
BYLAYER
 66
1
 70
1
 40
0.000000
 41
0.000000
  0
VERTEX
  8
estabelecimento_escolar_privado
 10
-9.436712
 20
38.712948
  0
VERTEX
  8
estabelecimento_escolar_privado
 10
-9.436682
 20
38.712909
  0
VERTEX
  8
estabelecimento_escolar_privado
 10
-9.436753
 20
38.712894
  0
VERTEX
  8
estabelecimento_escolar_privado
 10
-9.436821
 20
38.712880
  0
VERTEX
  8
estabelecimento_escolar_privado
 10
-9.436868
 20
38.712871
  0
VERTEX
  8
estabelecimento_escolar_privado
 10
-9.436946
 20
38.712854
  0
VERTEX
  8
estabelecimento_escolar_privado
 10
-9.436966
 20
38.712896
  0
VERTEX
  8
estabelecimento_escolar_privado
 10
-9.436977
 20
38.712893
  0
VERTEX
  8
estabelecimento_escolar_privado
 10
-9.437035
 20
38.712875
  0
VERTEX
  8
estabelecimento_escolar_privado
 10
-9.437068
 20
38.712946
  0
VERTEX
  8
estabelecimento_escolar_privado
 10
-9.437000
 20
38.712967
  0
VERTEX
  8
estabelecimento_escolar_privado
 10
-9.436970
 20
38.712975
  0
VERTEX
  8
estabelecimento_escolar_privado
 10
-9.436955
 20
38.712980
  0
VERTEX
  8
estabelecimento_escolar_privado
 10
-9.436917
 20
38.712991
  0
VERTEX
  8
estabelecimento_escolar_privado
 10
-9.436890
 20
38.712999
  0
VERTEX
  8
estabelecimento_escolar_privado
 10
-9.436775
 20
38.713032
  0
VERTEX
  8
estabelecimento_escolar_privado
 10
-9.436756
 20
38.713007
  0
VERTEX
  8
estabelecimento_escolar_privado
 10
-9.436741
 20
38.712987
  0
VERTEX
  8
estabelecimento_escolar_privado
 10
-9.436717
 20
38.712955
  0
VERTEX
  8
estabelecimento_escolar_privado
 10
-9.436712
 20
38.712948
  0
SEQEND
  0
POLYLINE
  8
estabelecimento_escolar_privado
  6
BYLAYER
 66
1
 70
1
 40
0.000000
 41
0.000000
  0
VERTEX
  8
estabelecimento_escolar_privado
 10
-9.392978
 20
38.708441
  0
VERTEX
  8
estabelecimento_escolar_privado
 10
-9.392929
 20
38.708254
  0
VERTEX
  8
estabelecimento_escolar_privado
 10
-9.393527
 20
38.708248
  0
VERTEX
  8
estabelecimento_escolar_privado
 10
-9.393531
 20
38.708260
  0
VERTEX
  8
estabelecimento_escolar_privado
 10
-9.393539
 20
38.708283
  0
VERTEX
  8
estabelecimento_escolar_privado
 10
-9.393548
 20
38.708309
  0
VERTEX
  8
estabelecimento_escolar_privado
 10
-9.393592
 20
38.708437
  0
VERTEX
  8
estabelecimento_escolar_privado
 10
-9.393556
 20
38.708437
  0
VERTEX
  8
estabelecimento_escolar_privado
 10
-9.393342
 20
38.708438
  0
VERTEX
  8
estabelecimento_escolar_privado
 10
-9.393250
 20
38.708438
  0
VERTEX
  8
estabelecimento_escolar_privado
 10
-9.393117
 20
38.708439
  0
VERTEX
  8
estabelecimento_escolar_privado
 10
-9.392978
 20
38.708441
  0
SEQEND
  0
POLYLINE
  8
estabelecimento_escolar_privado
  6
BYLAYER
 66
1
 70
1
 40
0.000000
 41
0.000000
  0
VERTEX
  8
estabelecimento_escolar_privado
 10
-9.349049
 20
38.713490
  0
VERTEX
  8
estabelecimento_escolar_privado
 10
-9.348604
 20
38.713480
  0
VERTEX
  8
estabelecimento_escolar_privado
 10
-9.348604
 20
38.713480
  0
VERTEX
  8
estabelecimento_escolar_privado
 10
-9.348605
 20
38.713419
  0
VERTEX
  8
estabelecimento_escolar_privado
 10
-9.348602
 20
38.713418
  0
VERTEX
  8
estabelecimento_escolar_privado
 10
-9.348598
 20
38.713418
  0
VERTEX
  8
estabelecimento_escolar_privado
 10
-9.348595
 20
38.713417
  0
VERTEX
  8
estabelecimento_escolar_privado
 10
-9.348592
 20
38.713416
  0
VERTEX
  8
estabelecimento_escolar_privado
 10
-9.348589
 20
38.713414
  0
VERTEX
  8
estabelecimento_escolar_privado
 10
-9.348587
 20
38.713413
  0
VERTEX
  8
estabelecimento_escolar_privado
 10
-9.348585
 20
38.713411
  0
VERTEX
  8
estabelecimento_escolar_privado
 10
-9.348582
 20
38.713409
  0
VERTEX
  8
estabelecimento_escolar_privado
 10
-9.348581
 20
38.713406
  0
VERTEX
  8
estabelecimento_escolar_privado
 10
-9.348579
 20
38.713404
  0
VERTEX
  8
estabelecimento_escolar_privado
 10
-9.348584
 20
38.713205
  0
VERTEX
  8
estabelecimento_escolar_privado
 10
-9.348563
 20
38.713194
  0
VERTEX
  8
estabelecimento_escolar_privado
 10
-9.348488
 20
38.713154
  0
VERTEX
  8
estabelecimento_escolar_privado
 10
-9.348485
 20
38.713153
  0
VERTEX
  8
estabelecimento_escolar_privado
 10
-9.348488
 20
38.713148
  0
VERTEX
  8
estabelecimento_escolar_privado
 10
-9.348529
 20
38.713097
  0
VERTEX
  8
estabelecimento_escolar_privado
 10
-9.349031
 20
38.713358
  0
VERTEX
  8
estabelecimento_escolar_privado
 10
-9.349037
 20
38.713363
  0
VERTEX
  8
estabelecimento_escolar_privado
 10
-9.349041
 20
38.713368
  0
VERTEX
  8
estabelecimento_escolar_privado
 10
-9.349043
 20
38.713374
  0
VERTEX
  8
estabelecimento_escolar_privado
 10
-9.349055
 20
38.713374
  0
VERTEX
  8
estabelecimento_escolar_privado
 10
-9.349054
 20
38.713381
  0
VERTEX
  8
estabelecimento_escolar_privado
 10
-9.349052
 20
38.713396
  0
VERTEX
  8
estabelecimento_escolar_privado
 10
-9.349049
 20
38.713490
  0
SEQEND
  0
POLYLINE
  8
estabelecimento_escolar_privado
  6
BYLAYER
 66
1
 70
1
 40
0.000000
 41
0.000000
  0
VERTEX
  8
estabelecimento_escolar_privado
 10
-9.433011
 20
38.710780
  0
VERTEX
  8
estabelecimento_escolar_privado
 10
-9.433031
 20
38.710789
  0
VERTEX
  8
estabelecimento_escolar_privado
 10
-9.433045
 20
38.710794
  0
VERTEX
  8
estabelecimento_escolar_privado
 10
-9.433067
 20
38.710799
  0
VERTEX
  8
estabelecimento_escolar_privado
 10
-9.433090
 20
38.710801
  0
VERTEX
  8
estabelecimento_escolar_privado
 10
-9.433121
 20
38.710806
  0
VERTEX
  8
estabelecimento_escolar_privado
 10
-9.433123
 20
38.710885
  0
VERTEX
  8
estabelecimento_escolar_privado
 10
-9.432973
 20
38.711024
  0
VERTEX
  8
estabelecimento_escolar_privado
 10
-9.432925
 20
38.710999
  0
VERTEX
  8
estabelecimento_escolar_privado
 10
-9.432820
 20
38.710943
  0
VERTEX
  8
estabelecimento_escolar_privado
 10
-9.433000
 20
38.710772
  0
VERTEX
  8
estabelecimento_escolar_privado
 10
-9.433011
 20
38.710780
  0
SEQEND
  0
POLYLINE
  8
estabelecimento_escolar_privado
  6
BYLAYER
 66
1
 70
1
 40
0.000000
 41
0.000000
  0
VERTEX
  8
estabelecimento_escolar_privado
 10
-9.344817
 20
38.683669
  0
VERTEX
  8
estabelecimento_escolar_privado
 10
-9.344325
 20
38.683775
  0
VERTEX
  8
estabelecimento_escolar_privado
 10
-9.344194
 20
38.683802
  0
VERTEX
  8
estabelecimento_escolar_privado
 10
-9.344137
 20
38.683631
  0
VERTEX
  8
estabelecimento_escolar_privado
 10
-9.344087
 20
38.683464
  0
VERTEX
  8
estabelecimento_escolar_privado
 10
-9.344060
 20
38.683418
  0
VERTEX
  8
estabelecimento_escolar_privado
 10
-9.344032
 20
38.683377
  0
VERTEX
  8
estabelecimento_escolar_privado
 10
-9.343964
 20
38.683301
  0
VERTEX
  8
estabelecimento_escolar_privado
 10
-9.344187
 20
38.683114
  0
VERTEX
  8
estabelecimento_escolar_privado
 10
-9.344400
 20
38.682935
  0
VERTEX
  8
estabelecimento_escolar_privado
 10
-9.344458
 20
38.682983
  0
VERTEX
  8
estabelecimento_escolar_privado
 10
-9.344479
 20
38.683001
  0
VERTEX
  8
estabelecimento_escolar_privado
 10
-9.344496
 20
38.683017
  0
VERTEX
  8
estabelecimento_escolar_privado
 10
-9.344520
 20
38.683039
  0
VERTEX
  8
estabelecimento_escolar_privado
 10
-9.344549
 20
38.683069
  0
VERTEX
  8
estabelecimento_escolar_privado
 10
-9.344555
 20
38.683075
  0
VERTEX
  8
estabelecimento_escolar_privado
 10
-9.344663
 20
38.683240
  0
VERTEX
  8
estabelecimento_escolar_privado
 10
-9.344722
 20
38.683395
  0
VERTEX
  8
estabelecimento_escolar_privado
 10
-9.344817
 20
38.683669
  0
SEQEND
  0
POLYLINE
  8
estabelecimento_escolar_privado
  6
BYLAYER
 66
1
 70
1
 40
0.000000
 41
0.000000
  0
VERTEX
  8
estabelecimento_escolar_privado
 10
-9.445643
 20
38.708499
  0
VERTEX
  8
estabelecimento_escolar_privado
 10
-9.445552
 20
38.708624
  0
VERTEX
  8
estabelecimento_escolar_privado
 10
-9.445439
 20
38.708529
  0
VERTEX
  8
estabelecimento_escolar_privado
 10
-9.445448
 20
38.708490
  0
VERTEX
  8
estabelecimento_escolar_privado
 10
-9.445285
 20
38.708362
  0
VERTEX
  8
estabelecimento_escolar_privado
 10
-9.445210
 20
38.708376
  0
VERTEX
  8
estabelecimento_escolar_privado
 10
-9.445066
 20
38.708249
  0
VERTEX
  8
estabelecimento_escolar_privado
 10
-9.445234
 20
38.708095
  0
VERTEX
  8
estabelecimento_escolar_privado
 10
-9.445399
 20
38.707944
  0
VERTEX
  8
estabelecimento_escolar_privado
 10
-9.445886
 20
38.708167
  0
VERTEX
  8
estabelecimento_escolar_privado
 10
-9.445892
 20
38.708172
  0
VERTEX
  8
estabelecimento_escolar_privado
 10
-9.445896
 20
38.708179
  0
VERTEX
  8
estabelecimento_escolar_privado
 10
-9.445898
 20
38.708186
  0
VERTEX
  8
estabelecimento_escolar_privado
 10
-9.445898
 20
38.708197
  0
VERTEX
  8
estabelecimento_escolar_privado
 10
-9.445894
 20
38.708203
  0
VERTEX
  8
estabelecimento_escolar_privado
 10
-9.445866
 20
38.708246
  0
VERTEX
  8
estabelecimento_escolar_privado
 10
-9.445961
 20
38.708292
  0
VERTEX
  8
estabelecimento_escolar_privado
 10
-9.445643
 20
38.708499
  0
SEQEND
  0
POLYLINE
  8
estabelecimento_escolar_privado
  6
BYLAYER
 66
1
 70
1
 40
0.000000
 41
0.000000
  0
VERTEX
  8
estabelecimento_escolar_privado
 10
-9.403560
 20
38.707065
  0
VERTEX
  8
estabelecimento_escolar_privado
 10
-9.403531
 20
38.707073
  0
VERTEX
  8
estabelecimento_escolar_privado
 10
-9.403467
 20
38.707089
  0
VERTEX
  8
estabelecimento_escolar_privado
 10
-9.403404
 20
38.707105
  0
VERTEX
  8
estabelecimento_escolar_privado
 10
-9.403456
 20
38.707307
  0
VERTEX
  8
estabelecimento_escolar_privado
 10
-9.403463
 20
38.707332
  0
VERTEX
  8
estabelecimento_escolar_privado
 10
-9.403425
 20
38.707343
  0
VERTEX
  8
estabelecimento_escolar_privado
 10
-9.403420
 20
38.707374
  0
VERTEX
  8
estabelecimento_escolar_privado
 10
-9.403390
 20
38.707382
  0
VERTEX
  8
estabelecimento_escolar_privado
 10
-9.403251
 20
38.707430
  0
VERTEX
  8
estabelecimento_escolar_privado
 10
-9.403210
 20
38.707444
  0
VERTEX
  8
estabelecimento_escolar_privado
 10
-9.403202
 20
38.707446
  0
VERTEX
  8
estabelecimento_escolar_privado
 10
-9.402910
 20
38.707476
  0
VERTEX
  8
estabelecimento_escolar_privado
 10
-9.402958
 20
38.707725
  0
VERTEX
  8
estabelecimento_escolar_privado
 10
-9.402874
 20
38.707734
  0
VERTEX
  8
estabelecimento_escolar_privado
 10
-9.402870
 20
38.707711
  0
VERTEX
  8
estabelecimento_escolar_privado
 10
-9.402861
 20
38.707648
  0
VERTEX
  8
estabelecimento_escolar_privado
 10
-9.402850
 20
38.707565
  0
VERTEX
  8
estabelecimento_escolar_privado
 10
-9.402847
 20
38.707545
  0
VERTEX
  8
estabelecimento_escolar_privado
 10
-9.402839
 20
38.707501
  0
VERTEX
  8
estabelecimento_escolar_privado
 10
-9.402834
 20
38.707466
  0
VERTEX
  8
estabelecimento_escolar_privado
 10
-9.402802
 20
38.707272
  0
VERTEX
  8
estabelecimento_escolar_privado
 10
-9.402311
 20
38.707327
  0
VERTEX
  8
estabelecimento_escolar_privado
 10
-9.402280
 20
38.707331
  0
VERTEX
  8
estabelecimento_escolar_privado
 10
-9.401501
 20
38.707414
  0
VERTEX
  8
estabelecimento_escolar_privado
 10
-9.401576
 20
38.707844
  0
VERTEX
  8
estabelecimento_escolar_privado
 10
-9.401505
 20
38.707852
  0
VERTEX
  8
estabelecimento_escolar_privado
 10
-9.401475
 20
38.707855
  0
VERTEX
  8
estabelecimento_escolar_privado
 10
-9.401160
 20
38.707889
  0
VERTEX
  8
estabelecimento_escolar_privado
 10
-9.401164
 20
38.707915
  0
VERTEX
  8
estabelecimento_escolar_privado
 10
-9.400890
 20
38.707945
  0
VERTEX
  8
estabelecimento_escolar_privado
 10
-9.400701
 20
38.707962
  0
VERTEX
  8
estabelecimento_escolar_privado
 10
-9.400695
 20
38.707936
  0
VERTEX
  8
estabelecimento_escolar_privado
 10
-9.400680
 20
38.707868
  0
VERTEX
  8
estabelecimento_escolar_privado
 10
-9.400665
 20
38.707806
  0
VERTEX
  8
estabelecimento_escolar_privado
 10
-9.400611
 20
38.707586
  0
VERTEX
  8
estabelecimento_escolar_privado
 10
-9.400604
 20
38.707553
  0
VERTEX
  8
estabelecimento_escolar_privado
 10
-9.400576
 20
38.707439
  0
VERTEX
  8
estabelecimento_escolar_privado
 10
-9.400537
 20
38.707278
  0
VERTEX
  8
estabelecimento_escolar_privado
 10
-9.400527
 20
38.707233
  0
VERTEX
  8
estabelecimento_escolar_privado
 10
-9.400489
 20
38.707068
  0
VERTEX
  8
estabelecimento_escolar_privado
 10
-9.400413
 20
38.706731
  0
VERTEX
  8
estabelecimento_escolar_privado
 10
-9.400387
 20
38.706618
  0
VERTEX
  8
estabelecimento_escolar_privado
 10
-9.400336
 20
38.706394
  0
VERTEX
  8
estabelecimento_escolar_privado
 10
-9.400681
 20
38.706348
  0
VERTEX
  8
estabelecimento_escolar_privado
 10
-9.400676
 20
38.706322
  0
VERTEX
  8
estabelecimento_escolar_privado
 10
-9.400537
 20
38.705664
  0
VERTEX
  8
estabelecimento_escolar_privado
 10
-9.400497
 20
38.705465
  0
VERTEX
  8
estabelecimento_escolar_privado
 10
-9.400297
 20
38.705482
  0
VERTEX
  8
estabelecimento_escolar_privado
 10
-9.400234
 20
38.705488
  0
VERTEX
  8
estabelecimento_escolar_privado
 10
-9.400122
 20
38.705511
  0
VERTEX
  8
estabelecimento_escolar_privado
 10
-9.400118
 20
38.705481
  0
VERTEX
  8
estabelecimento_escolar_privado
 10
-9.400089
 20
38.705302
  0
VERTEX
  8
estabelecimento_escolar_privado
 10
-9.400059
 20
38.705110
  0
VERTEX
  8
estabelecimento_escolar_privado
 10
-9.400047
 20
38.705030
  0
VERTEX
  8
estabelecimento_escolar_privado
 10
-9.400037
 20
38.704963
  0
VERTEX
  8
estabelecimento_escolar_privado
 10
-9.400002
 20
38.704733
  0
VERTEX
  8
estabelecimento_escolar_privado
 10
-9.399928
 20
38.704263
  0
VERTEX
  8
estabelecimento_escolar_privado
 10
-9.399927
 20
38.704255
  0
VERTEX
  8
estabelecimento_escolar_privado
 10
-9.399922
 20
38.704229
  0
VERTEX
  8
estabelecimento_escolar_privado
 10
-9.399967
 20
38.704224
  0
VERTEX
  8
estabelecimento_escolar_privado
 10
-9.400002
 20
38.704222
  0
VERTEX
  8
estabelecimento_escolar_privado
 10
-9.400312
 20
38.704207
  0
VERTEX
  8
estabelecimento_escolar_privado
 10
-9.400385
 20
38.704204
  0
VERTEX
  8
estabelecimento_escolar_privado
 10
-9.400438
 20
38.704201
  0
VERTEX
  8
estabelecimento_escolar_privado
 10
-9.400459
 20
38.704207
  0
VERTEX
  8
estabelecimento_escolar_privado
 10
-9.400597
 20
38.704228
  0
VERTEX
  8
estabelecimento_escolar_privado
 10
-9.400606
 20
38.704192
  0
VERTEX
  8
estabelecimento_escolar_privado
 10
-9.400625
 20
38.704195
  0
VERTEX
  8
estabelecimento_escolar_privado
 10
-9.400633
 20
38.704162
  0
VERTEX
  8
estabelecimento_escolar_privado
 10
-9.400634
 20
38.704140
  0
VERTEX
  8
estabelecimento_escolar_privado
 10
-9.400649
 20
38.704082
  0
VERTEX
  8
estabelecimento_escolar_privado
 10
-9.400690
 20
38.704077
  0
VERTEX
  8
estabelecimento_escolar_privado
 10
-9.400715
 20
38.703977
  0
VERTEX
  8
estabelecimento_escolar_privado
 10
-9.400718
 20
38.703967
  0
VERTEX
  8
estabelecimento_escolar_privado
 10
-9.400734
 20
38.703991
  0
VERTEX
  8
estabelecimento_escolar_privado
 10
-9.400779
 20
38.703972
  0
VERTEX
  8
estabelecimento_escolar_privado
 10
-9.400764
 20
38.703950
  0
VERTEX
  8
estabelecimento_escolar_privado
 10
-9.400831
 20
38.703922
  0
VERTEX
  8
estabelecimento_escolar_privado
 10
-9.401127
 20
38.703817
  0
VERTEX
  8
estabelecimento_escolar_privado
 10
-9.401148
 20
38.703808
  0
VERTEX
  8
estabelecimento_escolar_privado
 10
-9.401281
 20
38.703762
  0
VERTEX
  8
estabelecimento_escolar_privado
 10
-9.401319
 20
38.703749
  0
VERTEX
  8
estabelecimento_escolar_privado
 10
-9.401375
 20
38.703746
  0
VERTEX
  8
estabelecimento_escolar_privado
 10
-9.401430
 20
38.703746
  0
VERTEX
  8
estabelecimento_escolar_privado
 10
-9.401485
 20
38.703747
  0
VERTEX
  8
estabelecimento_escolar_privado
 10
-9.401540
 20
38.703751
  0
VERTEX
  8
estabelecimento_escolar_privado
 10
-9.401568
 20
38.703754
  0
VERTEX
  8
estabelecimento_escolar_privado
 10
-9.401623
 20
38.703760
  0
VERTEX
  8
estabelecimento_escolar_privado
 10
-9.401646
 20
38.703766
  0
VERTEX
  8
estabelecimento_escolar_privado
 10
-9.401692
 20
38.703779
  0
VERTEX
  8
estabelecimento_escolar_privado
 10
-9.401737
 20
38.703795
  0
VERTEX
  8
estabelecimento_escolar_privado
 10
-9.401763
 20
38.703806
  0
VERTEX
  8
estabelecimento_escolar_privado
 10
-9.401769
 20
38.703808
  0
VERTEX
  8
estabelecimento_escolar_privado
 10
-9.401786
 20
38.703816
  0
VERTEX
  8
estabelecimento_escolar_privado
 10
-9.401787
 20
38.703817
  0
VERTEX
  8
estabelecimento_escolar_privado
 10
-9.401801
 20
38.703823
  0
VERTEX
  8
estabelecimento_escolar_privado
 10
-9.401821
 20
38.703834
  0
VERTEX
  8
estabelecimento_escolar_privado
 10
-9.401861
 20
38.703857
  0
VERTEX
  8
estabelecimento_escolar_privado
 10
-9.402061
 20
38.704008
  0
VERTEX
  8
estabelecimento_escolar_privado
 10
-9.402212
 20
38.704130
  0
VERTEX
  8
estabelecimento_escolar_privado
 10
-9.402224
 20
38.704140
  0
VERTEX
  8
estabelecimento_escolar_privado
 10
-9.402229
 20
38.704144
  0
VERTEX
  8
estabelecimento_escolar_privado
 10
-9.402245
 20
38.704159
  0
VERTEX
  8
estabelecimento_escolar_privado
 10
-9.402260
 20
38.704175
  0
VERTEX
  8
estabelecimento_escolar_privado
 10
-9.402275
 20
38.704190
  0
VERTEX
  8
estabelecimento_escolar_privado
 10
-9.402288
 20
38.704207
  0
VERTEX
  8
estabelecimento_escolar_privado
 10
-9.402301
 20
38.704223
  0
VERTEX
  8
estabelecimento_escolar_privado
 10
-9.402313
 20
38.704240
  0
VERTEX
  8
estabelecimento_escolar_privado
 10
-9.402324
 20
38.704258
  0
VERTEX
  8
estabelecimento_escolar_privado
 10
-9.402335
 20
38.704276
  0
VERTEX
  8
estabelecimento_escolar_privado
 10
-9.402435
 20
38.704472
  0
VERTEX
  8
estabelecimento_escolar_privado
 10
-9.402590
 20
38.704824
  0
VERTEX
  8
estabelecimento_escolar_privado
 10
-9.402741
 20
38.705169
  0
VERTEX
  8
estabelecimento_escolar_privado
 10
-9.402844
 20
38.705398
  0
VERTEX
  8
estabelecimento_escolar_privado
 10
-9.402851
 20
38.705415
  0
VERTEX
  8
estabelecimento_escolar_privado
 10
-9.402883
 20
38.705490
  0
VERTEX
  8
estabelecimento_escolar_privado
 10
-9.402868
 20
38.705494
  0
VERTEX
  8
estabelecimento_escolar_privado
 10
-9.402873
 20
38.705501
  0
VERTEX
  8
estabelecimento_escolar_privado
 10
-9.402874
 20
38.705505
  0
VERTEX
  8
estabelecimento_escolar_privado
 10
-9.402875
 20
38.705509
  0
VERTEX
  8
estabelecimento_escolar_privado
 10
-9.402874
 20
38.705512
  0
VERTEX
  8
estabelecimento_escolar_privado
 10
-9.402873
 20
38.705516
  0
VERTEX
  8
estabelecimento_escolar_privado
 10
-9.402868
 20
38.705523
  0
VERTEX
  8
estabelecimento_escolar_privado
 10
-9.402865
 20
38.705526
  0
VERTEX
  8
estabelecimento_escolar_privado
 10
-9.402861
 20
38.705528
  0
VERTEX
  8
estabelecimento_escolar_privado
 10
-9.402857
 20
38.705530
  0
VERTEX
  8
estabelecimento_escolar_privado
 10
-9.402845
 20
38.705530
  0
VERTEX
  8
estabelecimento_escolar_privado
 10
-9.402842
 20
38.705543
  0
VERTEX
  8
estabelecimento_escolar_privado
 10
-9.402821
 20
38.705541
  0
VERTEX
  8
estabelecimento_escolar_privado
 10
-9.402820
 20
38.705572
  0
VERTEX
  8
estabelecimento_escolar_privado
 10
-9.402819
 20
38.705596
  0
VERTEX
  8
estabelecimento_escolar_privado
 10
-9.402818
 20
38.705630
  0
VERTEX
  8
estabelecimento_escolar_privado
 10
-9.402838
 20
38.705631
  0
VERTEX
  8
estabelecimento_escolar_privado
 10
-9.402864
 20
38.705632
  0
VERTEX
  8
estabelecimento_escolar_privado
 10
-9.402889
 20
38.705635
  0
VERTEX
  8
estabelecimento_escolar_privado
 10
-9.402900
 20
38.705637
  0
VERTEX
  8
estabelecimento_escolar_privado
 10
-9.402924
 20
38.705643
  0
VERTEX
  8
estabelecimento_escolar_privado
 10
-9.402946
 20
38.705651
  0
VERTEX
  8
estabelecimento_escolar_privado
 10
-9.402961
 20
38.705658
  0
VERTEX
  8
estabelecimento_escolar_privado
 10
-9.403074
 20
38.705915
  0
VERTEX
  8
estabelecimento_escolar_privado
 10
-9.403194
 20
38.706183
  0
VERTEX
  8
estabelecimento_escolar_privado
 10
-9.403359
 20
38.706558
  0
VERTEX
  8
estabelecimento_escolar_privado
 10
-9.403379
 20
38.706604
  0
VERTEX
  8
estabelecimento_escolar_privado
 10
-9.403581
 20
38.707060
  0
VERTEX
  8
estabelecimento_escolar_privado
 10
-9.403560
 20
38.707065
  0
SEQEND
  0
POLYLINE
  8
estabelecimento_escolar_privado
  6
BYLAYER
 66
1
 70
1
 40
0.000000
 41
0.000000
  0
VERTEX
  8
estabelecimento_escolar_privado
 10
-9.388519
 20
38.702346
  0
VERTEX
  8
estabelecimento_escolar_privado
 10
-9.388553
 20
38.702360
  0
VERTEX
  8
estabelecimento_escolar_privado
 10
-9.388735
 20
38.702437
  0
VERTEX
  8
estabelecimento_escolar_privado
 10
-9.388750
 20
38.702448
  0
VERTEX
  8
estabelecimento_escolar_privado
 10
-9.388977
 20
38.702541
  0
VERTEX
  8
estabelecimento_escolar_privado
 10
-9.388980
 20
38.702537
  0
VERTEX
  8
estabelecimento_escolar_privado
 10
-9.389112
 20
38.702593
  0
VERTEX
  8
estabelecimento_escolar_privado
 10
-9.389211
 20
38.702634
  0
VERTEX
  8
estabelecimento_escolar_privado
 10
-9.389221
 20
38.702656
  0
VERTEX
  8
estabelecimento_escolar_privado
 10
-9.389131
 20
38.702677
  0
VERTEX
  8
estabelecimento_escolar_privado
 10
-9.388993
 20
38.702710
  0
VERTEX
  8
estabelecimento_escolar_privado
 10
-9.388992
 20
38.702706
  0
VERTEX
  8
estabelecimento_escolar_privado
 10
-9.388870
 20
38.702738
  0
VERTEX
  8
estabelecimento_escolar_privado
 10
-9.388831
 20
38.702749
  0
VERTEX
  8
estabelecimento_escolar_privado
 10
-9.388804
 20
38.702754
  0
VERTEX
  8
estabelecimento_escolar_privado
 10
-9.388641
 20
38.702782
  0
VERTEX
  8
estabelecimento_escolar_privado
 10
-9.388492
 20
38.702808
  0
VERTEX
  8
estabelecimento_escolar_privado
 10
-9.388471
 20
38.702794
  0
VERTEX
  8
estabelecimento_escolar_privado
 10
-9.388465
 20
38.702761
  0
VERTEX
  8
estabelecimento_escolar_privado
 10
-9.388418
 20
38.702522
  0
VERTEX
  8
estabelecimento_escolar_privado
 10
-9.388414
 20
38.702499
  0
VERTEX
  8
estabelecimento_escolar_privado
 10
-9.388411
 20
38.702486
  0
VERTEX
  8
estabelecimento_escolar_privado
 10
-9.388245
 20
38.702506
  0
VERTEX
  8
estabelecimento_escolar_privado
 10
-9.388157
 20
38.702517
  0
VERTEX
  8
estabelecimento_escolar_privado
 10
-9.388126
 20
38.702521
  0
VERTEX
  8
estabelecimento_escolar_privado
 10
-9.388117
 20
38.702522
  0
VERTEX
  8
estabelecimento_escolar_privado
 10
-9.388027
 20
38.702142
  0
VERTEX
  8
estabelecimento_escolar_privado
 10
-9.388519
 20
38.702346
  0
SEQEND
  0
POLYLINE
  8
estabelecimento_escolar_privado
  6
BYLAYER
 66
1
 70
1
 40
0.000000
 41
0.000000
  0
VERTEX
  8
estabelecimento_escolar_privado
 10
-9.446546
 20
38.714952
  0
VERTEX
  8
estabelecimento_escolar_privado
 10
-9.446612
 20
38.714952
  0
VERTEX
  8
estabelecimento_escolar_privado
 10
-9.446640
 20
38.714979
  0
VERTEX
  8
estabelecimento_escolar_privado
 10
-9.446637
 20
38.715001
  0
VERTEX
  8
estabelecimento_escolar_privado
 10
-9.446595
 20
38.715088
  0
VERTEX
  8
estabelecimento_escolar_privado
 10
-9.446593
 20
38.715092
  0
VERTEX
  8
estabelecimento_escolar_privado
 10
-9.446582
 20
38.715104
  0
VERTEX
  8
estabelecimento_escolar_privado
 10
-9.446570
 20
38.715112
  0
VERTEX
  8
estabelecimento_escolar_privado
 10
-9.446490
 20
38.715168
  0
VERTEX
  8
estabelecimento_escolar_privado
 10
-9.446468
 20
38.715184
  0
VERTEX
  8
estabelecimento_escolar_privado
 10
-9.446451
 20
38.715186
  0
VERTEX
  8
estabelecimento_escolar_privado
 10
-9.446408
 20
38.715189
  0
VERTEX
  8
estabelecimento_escolar_privado
 10
-9.446320
 20
38.715237
  0
VERTEX
  8
estabelecimento_escolar_privado
 10
-9.446211
 20
38.715296
  0
VERTEX
  8
estabelecimento_escolar_privado
 10
-9.446176
 20
38.715314
  0
VERTEX
  8
estabelecimento_escolar_privado
 10
-9.446161
 20
38.715322
  0
VERTEX
  8
estabelecimento_escolar_privado
 10
-9.446114
 20
38.715302
  0
VERTEX
  8
estabelecimento_escolar_privado
 10
-9.446092
 20
38.715292
  0
VERTEX
  8
estabelecimento_escolar_privado
 10
-9.446082
 20
38.715276
  0
VERTEX
  8
estabelecimento_escolar_privado
 10
-9.446053
 20
38.715232
  0
VERTEX
  8
estabelecimento_escolar_privado
 10
-9.446050
 20
38.715223
  0
VERTEX
  8
estabelecimento_escolar_privado
 10
-9.446049
 20
38.715213
  0
VERTEX
  8
estabelecimento_escolar_privado
 10
-9.446049
 20
38.715204
  0
VERTEX
  8
estabelecimento_escolar_privado
 10
-9.446050
 20
38.715197
  0
VERTEX
  8
estabelecimento_escolar_privado
 10
-9.446107
 20
38.715093
  0
VERTEX
  8
estabelecimento_escolar_privado
 10
-9.446141
 20
38.715031
  0
VERTEX
  8
estabelecimento_escolar_privado
 10
-9.446158
 20
38.715018
  0
VERTEX
  8
estabelecimento_escolar_privado
 10
-9.446167
 20
38.715011
  0
VERTEX
  8
estabelecimento_escolar_privado
 10
-9.446186
 20
38.715000
  0
VERTEX
  8
estabelecimento_escolar_privado
 10
-9.446206
 20
38.714990
  0
VERTEX
  8
estabelecimento_escolar_privado
 10
-9.446227
 20
38.714981
  0
VERTEX
  8
estabelecimento_escolar_privado
 10
-9.446249
 20
38.714973
  0
VERTEX
  8
estabelecimento_escolar_privado
 10
-9.446301
 20
38.714970
  0
VERTEX
  8
estabelecimento_escolar_privado
 10
-9.446343
 20
38.714967
  0
VERTEX
  8
estabelecimento_escolar_privado
 10
-9.446383
 20
38.714963
  0
VERTEX
  8
estabelecimento_escolar_privado
 10
-9.446546
 20
38.714952
  0
SEQEND
  0
POLYLINE
  8
estabelecimento_escolar_privado
  6
BYLAYER
 66
1
 70
1
 40
0.000000
 41
0.000000
  0
VERTEX
  8
estabelecimento_escolar_privado
 10
-9.369141
 20
38.696023
  0
VERTEX
  8
estabelecimento_escolar_privado
 10
-9.369083
 20
38.695996
  0
VERTEX
  8
estabelecimento_escolar_privado
 10
-9.368963
 20
38.695954
  0
VERTEX
  8
estabelecimento_escolar_privado
 10
-9.369086
 20
38.695762
  0
VERTEX
  8
estabelecimento_escolar_privado
 10
-9.369198
 20
38.695684
  0
VERTEX
  8
estabelecimento_escolar_privado
 10
-9.369353
 20
38.695721
  0
VERTEX
  8
estabelecimento_escolar_privado
 10
-9.369141
 20
38.696023
  0
SEQEND
  0
POLYLINE
  8
estabelecimento_escolar_privado
  6
BYLAYER
 66
1
 70
1
 40
0.000000
 41
0.000000
  0
VERTEX
  8
estabelecimento_escolar_privado
 10
-9.354158
 20
38.705172
  0
VERTEX
  8
estabelecimento_escolar_privado
 10
-9.353980
 20
38.705275
  0
VERTEX
  8
estabelecimento_escolar_privado
 10
-9.353970
 20
38.705264
  0
VERTEX
  8
estabelecimento_escolar_privado
 10
-9.353913
 20
38.705242
  0
VERTEX
  8
estabelecimento_escolar_privado
 10
-9.353897
 20
38.705242
  0
VERTEX
  8
estabelecimento_escolar_privado
 10
-9.353888
 20
38.704763
  0
VERTEX
  8
estabelecimento_escolar_privado
 10
-9.353888
 20
38.704749
  0
VERTEX
  8
estabelecimento_escolar_privado
 10
-9.353947
 20
38.704746
  0
VERTEX
  8
estabelecimento_escolar_privado
 10
-9.354064
 20
38.704945
  0
VERTEX
  8
estabelecimento_escolar_privado
 10
-9.354151
 20
38.704942
  0
VERTEX
  8
estabelecimento_escolar_privado
 10
-9.354158
 20
38.705172
  0
SEQEND
  0
POLYLINE
  8
estabelecimento_escolar_privado
  6
BYLAYER
 66
1
 70
1
 40
0.000000
 41
0.000000
  0
VERTEX
  8
estabelecimento_escolar_privado
 10
-9.421008
 20
38.711919
  0
VERTEX
  8
estabelecimento_escolar_privado
 10
-9.421008
 20
38.711968
  0
VERTEX
  8
estabelecimento_escolar_privado
 10
-9.421009
 20
38.712034
  0
VERTEX
  8
estabelecimento_escolar_privado
 10
-9.421011
 20
38.712072
  0
VERTEX
  8
estabelecimento_escolar_privado
 10
-9.420947
 20
38.712083
  0
VERTEX
  8
estabelecimento_escolar_privado
 10
-9.420759
 20
38.712117
  0
VERTEX
  8
estabelecimento_escolar_privado
 10
-9.420336
 20
38.712192
  0
VERTEX
  8
estabelecimento_escolar_privado
 10
-9.420191
 20
38.711865
  0
VERTEX
  8
estabelecimento_escolar_privado
 10
-9.420264
 20
38.711845
  0
VERTEX
  8
estabelecimento_escolar_privado
 10
-9.420752
 20
38.711684
  0
VERTEX
  8
estabelecimento_escolar_privado
 10
-9.420866
 20
38.711646
  0
VERTEX
  8
estabelecimento_escolar_privado
 10
-9.421008
 20
38.711919
  0
SEQEND
  0
POLYLINE
  8
estabelecimento_escolar_privado
  6
BYLAYER
 66
1
 70
1
 40
0.000000
 41
0.000000
  0
VERTEX
  8
estabelecimento_escolar_privado
 10
-9.362560
 20
38.692021
  0
VERTEX
  8
estabelecimento_escolar_privado
 10
-9.362467
 20
38.692024
  0
VERTEX
  8
estabelecimento_escolar_privado
 10
-9.362347
 20
38.692027
  0
VERTEX
  8
estabelecimento_escolar_privado
 10
-9.362347
 20
38.691960
  0
VERTEX
  8
estabelecimento_escolar_privado
 10
-9.362349
 20
38.691666
  0
VERTEX
  8
estabelecimento_escolar_privado
 10
-9.362360
 20
38.691666
  0
VERTEX
  8
estabelecimento_escolar_privado
 10
-9.362389
 20
38.691667
  0
VERTEX
  8
estabelecimento_escolar_privado
 10
-9.362587
 20
38.691669
  0
VERTEX
  8
estabelecimento_escolar_privado
 10
-9.362616
 20
38.691669
  0
VERTEX
  8
estabelecimento_escolar_privado
 10
-9.362639
 20
38.691669
  0
VERTEX
  8
estabelecimento_escolar_privado
 10
-9.362599
 20
38.691830
  0
VERTEX
  8
estabelecimento_escolar_privado
 10
-9.362582
 20
38.691924
  0
VERTEX
  8
estabelecimento_escolar_privado
 10
-9.362576
 20
38.691950
  0
VERTEX
  8
estabelecimento_escolar_privado
 10
-9.362560
 20
38.692021
  0
SEQEND
  0
POLYLINE
  8
estabelecimento_escolar_privado
  6
BYLAYER
 66
1
 70
1
 40
0.000000
 41
0.000000
  0
VERTEX
  8
estabelecimento_escolar_privado
 10
-9.341457
 20
38.723313
  0
VERTEX
  8
estabelecimento_escolar_privado
 10
-9.341323
 20
38.722996
  0
VERTEX
  8
estabelecimento_escolar_privado
 10
-9.341320
 20
38.722981
  0
VERTEX
  8
estabelecimento_escolar_privado
 10
-9.341301
 20
38.722937
  0
VERTEX
  8
estabelecimento_escolar_privado
 10
-9.341304
 20
38.722926
  0
VERTEX
  8
estabelecimento_escolar_privado
 10
-9.341312
 20
38.722920
  0
VERTEX
  8
estabelecimento_escolar_privado
 10
-9.341548
 20
38.722879
  0
VERTEX
  8
estabelecimento_escolar_privado
 10
-9.341558
 20
38.722885
  0
VERTEX
  8
estabelecimento_escolar_privado
 10
-9.341596
 20
38.723000
  0
VERTEX
  8
estabelecimento_escolar_privado
 10
-9.341681
 20
38.723269
  0
VERTEX
  8
estabelecimento_escolar_privado
 10
-9.341535
 20
38.723326
  0
VERTEX
  8
estabelecimento_escolar_privado
 10
-9.341519
 20
38.723332
  0
VERTEX
  8
estabelecimento_escolar_privado
 10
-9.341505
 20
38.723334
  0
VERTEX
  8
estabelecimento_escolar_privado
 10
-9.341495
 20
38.723333
  0
VERTEX
  8
estabelecimento_escolar_privado
 10
-9.341477
 20
38.723329
  0
VERTEX
  8
estabelecimento_escolar_privado
 10
-9.341469
 20
38.723324
  0
VERTEX
  8
estabelecimento_escolar_privado
 10
-9.341457
 20
38.723313
  0
SEQEND
  0
POLYLINE
  8
estabelecimento_escolar_privado
  6
BYLAYER
 66
1
 70
1
 40
0.000000
 41
0.000000
  0
VERTEX
  8
estabelecimento_escolar_privado
 10
-9.410166
 20
38.708826
  0
VERTEX
  8
estabelecimento_escolar_privado
 10
-9.410140
 20
38.708823
  0
VERTEX
  8
estabelecimento_escolar_privado
 10
-9.410084
 20
38.708816
  0
VERTEX
  8
estabelecimento_escolar_privado
 10
-9.410029
 20
38.708810
  0
VERTEX
  8
estabelecimento_escolar_privado
 10
-9.410030
 20
38.708806
  0
VERTEX
  8
estabelecimento_escolar_privado
 10
-9.410009
 20
38.708804
  0
VERTEX
  8
estabelecimento_escolar_privado
 10
-9.409926
 20
38.708793
  0
VERTEX
  8
estabelecimento_escolar_privado
 10
-9.409936
 20
38.708774
  0
VERTEX
  8
estabelecimento_escolar_privado
 10
-9.409952
 20
38.708708
  0
VERTEX
  8
estabelecimento_escolar_privado
 10
-9.409954
 20
38.708701
  0
VERTEX
  8
estabelecimento_escolar_privado
 10
-9.409973
 20
38.708620
  0
VERTEX
  8
estabelecimento_escolar_privado
 10
-9.409979
 20
38.708591
  0
VERTEX
  8
estabelecimento_escolar_privado
 10
-9.410116
 20
38.708607
  0
VERTEX
  8
estabelecimento_escolar_privado
 10
-9.410191
 20
38.708617
  0
VERTEX
  8
estabelecimento_escolar_privado
 10
-9.410207
 20
38.708618
  0
VERTEX
  8
estabelecimento_escolar_privado
 10
-9.410182
 20
38.708747
  0
VERTEX
  8
estabelecimento_escolar_privado
 10
-9.410177
 20
38.708771
  0
VERTEX
  8
estabelecimento_escolar_privado
 10
-9.410166
 20
38.708826
  0
SEQEND
  0
POLYLINE
  8
estabelecimento_escolar_privado
  6
BYLAYER
 66
1
 70
1
 40
0.000000
 41
0.000000
  0
VERTEX
  8
estabelecimento_escolar_privado
 10
-9.336305
 20
38.688437
  0
VERTEX
  8
estabelecimento_escolar_privado
 10
-9.336248
 20
38.688440
  0
VERTEX
  8
estabelecimento_escolar_privado
 10
-9.336237
 20
38.688440
  0
VERTEX
  8
estabelecimento_escolar_privado
 10
-9.336226
 20
38.688441
  0
VERTEX
  8
estabelecimento_escolar_privado
 10
-9.336221
 20
38.688441
  0
VERTEX
  8
estabelecimento_escolar_privado
 10
-9.336211
 20
38.688442
  0
VERTEX
  8
estabelecimento_escolar_privado
 10
-9.335914
 20
38.688455
  0
VERTEX
  8
estabelecimento_escolar_privado
 10
-9.335905
 20
38.688455
  0
VERTEX
  8
estabelecimento_escolar_privado
 10
-9.335835
 20
38.688458
  0
VERTEX
  8
estabelecimento_escolar_privado
 10
-9.335834
 20
38.688456
  0
VERTEX
  8
estabelecimento_escolar_privado
 10
-9.335784
 20
38.688455
  0
VERTEX
  8
estabelecimento_escolar_privado
 10
-9.335775
 20
38.688385
  0
VERTEX
  8
estabelecimento_escolar_privado
 10
-9.335751
 20
38.688382
  0
VERTEX
  8
estabelecimento_escolar_privado
 10
-9.335754
 20
38.688347
  0
VERTEX
  8
estabelecimento_escolar_privado
 10
-9.335781
 20
38.688240
  0
VERTEX
  8
estabelecimento_escolar_privado
 10
-9.335793
 20
38.688217
  0
VERTEX
  8
estabelecimento_escolar_privado
 10
-9.335807
 20
38.688194
  0
VERTEX
  8
estabelecimento_escolar_privado
 10
-9.335830
 20
38.688166
  0
VERTEX
  8
estabelecimento_escolar_privado
 10
-9.335862
 20
38.688138
  0
VERTEX
  8
estabelecimento_escolar_privado
 10
-9.335895
 20
38.688116
  0
VERTEX
  8
estabelecimento_escolar_privado
 10
-9.335931
 20
38.688098
  0
VERTEX
  8
estabelecimento_escolar_privado
 10
-9.335970
 20
38.688083
  0
VERTEX
  8
estabelecimento_escolar_privado
 10
-9.336011
 20
38.688073
  0
VERTEX
  8
estabelecimento_escolar_privado
 10
-9.336076
 20
38.688060
  0
VERTEX
  8
estabelecimento_escolar_privado
 10
-9.336277
 20
38.688058
  0
VERTEX
  8
estabelecimento_escolar_privado
 10
-9.336283
 20
38.688126
  0
VERTEX
  8
estabelecimento_escolar_privado
 10
-9.336300
 20
38.688379
  0
VERTEX
  8
estabelecimento_escolar_privado
 10
-9.336305
 20
38.688437
  0
SEQEND
  0
POLYLINE
  8
estabelecimento_escolar_privado
  6
BYLAYER
 66
1
 70
1
 40
0.000000
 41
0.000000
  0
VERTEX
  8
estabelecimento_escolar_privado
 10
-9.417739
 20
38.711850
  0
VERTEX
  8
estabelecimento_escolar_privado
 10
-9.417358
 20
38.711827
  0
VERTEX
  8
estabelecimento_escolar_privado
 10
-9.417315
 20
38.711826
  0
VERTEX
  8
estabelecimento_escolar_privado
 10
-9.417281
 20
38.711824
  0
VERTEX
  8
estabelecimento_escolar_privado
 10
-9.417285
 20
38.711782
  0
VERTEX
  8
estabelecimento_escolar_privado
 10
-9.417310
 20
38.711543
  0
VERTEX
  8
estabelecimento_escolar_privado
 10
-9.417450
 20
38.711558
  0
VERTEX
  8
estabelecimento_escolar_privado
 10
-9.417471
 20
38.711560
  0
VERTEX
  8
estabelecimento_escolar_privado
 10
-9.417477
 20
38.711561
  0
VERTEX
  8
estabelecimento_escolar_privado
 10
-9.417558
 20
38.711568
  0
VERTEX
  8
estabelecimento_escolar_privado
 10
-9.417569
 20
38.711567
  0
VERTEX
  8
estabelecimento_escolar_privado
 10
-9.417578
 20
38.711564
  0
VERTEX
  8
estabelecimento_escolar_privado
 10
-9.417586
 20
38.711558
  0
VERTEX
  8
estabelecimento_escolar_privado
 10
-9.417591
 20
38.711552
  0
VERTEX
  8
estabelecimento_escolar_privado
 10
-9.417593
 20
38.711548
  0
VERTEX
  8
estabelecimento_escolar_privado
 10
-9.417594
 20
38.711544
  0
VERTEX
  8
estabelecimento_escolar_privado
 10
-9.417602
 20
38.711493
  0
VERTEX
  8
estabelecimento_escolar_privado
 10
-9.417776
 20
38.711512
  0
VERTEX
  8
estabelecimento_escolar_privado
 10
-9.417754
 20
38.711664
  0
VERTEX
  8
estabelecimento_escolar_privado
 10
-9.417735
 20
38.711671
  0
VERTEX
  8
estabelecimento_escolar_privado
 10
-9.417726
 20
38.711699
  0
VERTEX
  8
estabelecimento_escolar_privado
 10
-9.417749
 20
38.711708
  0
VERTEX
  8
estabelecimento_escolar_privado
 10
-9.417739
 20
38.711850
  0
SEQEND
  0
POLYLINE
  8
estabelecimento_escolar_privado
  6
BYLAYER
 66
1
 70
1
 40
0.000000
 41
0.000000
  0
VERTEX
  8
estabelecimento_escolar_privado
 10
-9.328794
 20
38.712625
  0
VERTEX
  8
estabelecimento_escolar_privado
 10
-9.328797
 20
38.712623
  0
VERTEX
  8
estabelecimento_escolar_privado
 10
-9.328802
 20
38.712620
  0
VERTEX
  8
estabelecimento_escolar_privado
 10
-9.328808
 20
38.712615
  0
VERTEX
  8
estabelecimento_escolar_privado
 10
-9.328814
 20
38.712610
  0
VERTEX
  8
estabelecimento_escolar_privado
 10
-9.328821
 20
38.712606
  0
VERTEX
  8
estabelecimento_escolar_privado
 10
-9.328827
 20
38.712601
  0
VERTEX
  8
estabelecimento_escolar_privado
 10
-9.328833
 20
38.712597
  0
VERTEX
  8
estabelecimento_escolar_privado
 10
-9.328839
 20
38.712592
  0
VERTEX
  8
estabelecimento_escolar_privado
 10
-9.328845
 20
38.712587
  0
VERTEX
  8
estabelecimento_escolar_privado
 10
-9.328852
 20
38.712583
  0
VERTEX
  8
estabelecimento_escolar_privado
 10
-9.328858
 20
38.712578
  0
VERTEX
  8
estabelecimento_escolar_privado
 10
-9.328864
 20
38.712574
  0
VERTEX
  8
estabelecimento_escolar_privado
 10
-9.328870
 20
38.712569
  0
VERTEX
  8
estabelecimento_escolar_privado
 10
-9.328876
 20
38.712564
  0
VERTEX
  8
estabelecimento_escolar_privado
 10
-9.328882
 20
38.712560
  0
VERTEX
  8
estabelecimento_escolar_privado
 10
-9.328888
 20
38.712555
  0
VERTEX
  8
estabelecimento_escolar_privado
 10
-9.328895
 20
38.712550
  0
VERTEX
  8
estabelecimento_escolar_privado
 10
-9.328901
 20
38.712546
  0
VERTEX
  8
estabelecimento_escolar_privado
 10
-9.328907
 20
38.712541
  0
VERTEX
  8
estabelecimento_escolar_privado
 10
-9.328913
 20
38.712536
  0
VERTEX
  8
estabelecimento_escolar_privado
 10
-9.328919
 20
38.712532
  0
VERTEX
  8
estabelecimento_escolar_privado
 10
-9.328925
 20
38.712527
  0
VERTEX
  8
estabelecimento_escolar_privado
 10
-9.328981
 20
38.712485
  0
VERTEX
  8
estabelecimento_escolar_privado
 10
-9.329082
 20
38.712411
  0
VERTEX
  8
estabelecimento_escolar_privado
 10
-9.329222
 20
38.712322
  0
VERTEX
  8
estabelecimento_escolar_privado
 10
-9.329865
 20
38.712796
  0
VERTEX
  8
estabelecimento_escolar_privado
 10
-9.330005
 20
38.712903
  0
VERTEX
  8
estabelecimento_escolar_privado
 10
-9.329950
 20
38.712977
  0
VERTEX
  8
estabelecimento_escolar_privado
 10
-9.329541
 20
38.713538
  0
VERTEX
  8
estabelecimento_escolar_privado
 10
-9.329028
 20
38.713681
  0
VERTEX
  8
estabelecimento_escolar_privado
 10
-9.328813
 20
38.713740
  0
VERTEX
  8
estabelecimento_escolar_privado
 10
-9.328639
 20
38.713787
  0
VERTEX
  8
estabelecimento_escolar_privado
 10
-9.328450
 20
38.713840
  0
VERTEX
  8
estabelecimento_escolar_privado
 10
-9.328254
 20
38.713895
  0
VERTEX
  8
estabelecimento_escolar_privado
 10
-9.328169
 20
38.713918
  0
VERTEX
  8
estabelecimento_escolar_privado
 10
-9.327917
 20
38.713987
  0
VERTEX
  8
estabelecimento_escolar_privado
 10
-9.327856
 20
38.713973
  0
VERTEX
  8
estabelecimento_escolar_privado
 10
-9.327765
 20
38.713952
  0
VERTEX
  8
estabelecimento_escolar_privado
 10
-9.327705
 20
38.713720
  0
VERTEX
  8
estabelecimento_escolar_privado
 10
-9.327697
 20
38.713684
  0
VERTEX
  8
estabelecimento_escolar_privado
 10
-9.327696
 20
38.713681
  0
VERTEX
  8
estabelecimento_escolar_privado
 10
-9.327696
 20
38.713678
  0
VERTEX
  8
estabelecimento_escolar_privado
 10
-9.327695
 20
38.713675
  0
VERTEX
  8
estabelecimento_escolar_privado
 10
-9.327695
 20
38.713671
  0
VERTEX
  8
estabelecimento_escolar_privado
 10
-9.327696
 20
38.713668
  0
VERTEX
  8
estabelecimento_escolar_privado
 10
-9.327696
 20
38.713665
  0
VERTEX
  8
estabelecimento_escolar_privado
 10
-9.327697
 20
38.713662
  0
VERTEX
  8
estabelecimento_escolar_privado
 10
-9.327697
 20
38.713659
  0
VERTEX
  8
estabelecimento_escolar_privado
 10
-9.327699
 20
38.713656
  0
VERTEX
  8
estabelecimento_escolar_privado
 10
-9.327700
 20
38.713653
  0
VERTEX
  8
estabelecimento_escolar_privado
 10
-9.327701
 20
38.713650
  0
VERTEX
  8
estabelecimento_escolar_privado
 10
-9.327703
 20
38.713647
  0
VERTEX
  8
estabelecimento_escolar_privado
 10
-9.327705
 20
38.713644
  0
VERTEX
  8
estabelecimento_escolar_privado
 10
-9.327707
 20
38.713641
  0
VERTEX
  8
estabelecimento_escolar_privado
 10
-9.327709
 20
38.713638
  0
VERTEX
  8
estabelecimento_escolar_privado
 10
-9.327712
 20
38.713636
  0
VERTEX
  8
estabelecimento_escolar_privado
 10
-9.327714
 20
38.713633
  0
VERTEX
  8
estabelecimento_escolar_privado
 10
-9.327717
 20
38.713631
  0
VERTEX
  8
estabelecimento_escolar_privado
 10
-9.327720
 20
38.713629
  0
VERTEX
  8
estabelecimento_escolar_privado
 10
-9.327723
 20
38.713627
  0
VERTEX
  8
estabelecimento_escolar_privado
 10
-9.327781
 20
38.713589
  0
VERTEX
  8
estabelecimento_escolar_privado
 10
-9.327865
 20
38.713534
  0
VERTEX
  8
estabelecimento_escolar_privado
 10
-9.328052
 20
38.713402
  0
VERTEX
  8
estabelecimento_escolar_privado
 10
-9.328214
 20
38.713277
  0
VERTEX
  8
estabelecimento_escolar_privado
 10
-9.328255
 20
38.713245
  0
VERTEX
  8
estabelecimento_escolar_privado
 10
-9.328258
 20
38.713243
  0
VERTEX
  8
estabelecimento_escolar_privado
 10
-9.328260
 20
38.713241
  0
VERTEX
  8
estabelecimento_escolar_privado
 10
-9.328262
 20
38.713240
  0
VERTEX
  8
estabelecimento_escolar_privado
 10
-9.328264
 20
38.713239
  0
VERTEX
  8
estabelecimento_escolar_privado
 10
-9.328266
 20
38.713237
  0
VERTEX
  8
estabelecimento_escolar_privado
 10
-9.328268
 20
38.713236
  0
VERTEX
  8
estabelecimento_escolar_privado
 10
-9.328271
 20
38.713235
  0
VERTEX
  8
estabelecimento_escolar_privado
 10
-9.328273
 20
38.713234
  0
VERTEX
  8
estabelecimento_escolar_privado
 10
-9.328276
 20
38.713234
  0
VERTEX
  8
estabelecimento_escolar_privado
 10
-9.328278
 20
38.713233
  0
VERTEX
  8
estabelecimento_escolar_privado
 10
-9.328281
 20
38.713232
  0
VERTEX
  8
estabelecimento_escolar_privado
 10
-9.328284
 20
38.713233
  0
VERTEX
  8
estabelecimento_escolar_privado
 10
-9.328287
 20
38.713234
  0
VERTEX
  8
estabelecimento_escolar_privado
 10
-9.328290
 20
38.713235
  0
VERTEX
  8
estabelecimento_escolar_privado
 10
-9.328293
 20
38.713236
  0
VERTEX
  8
estabelecimento_escolar_privado
 10
-9.328296
 20
38.713237
  0
VERTEX
  8
estabelecimento_escolar_privado
 10
-9.328299
 20
38.713239
  0
VERTEX
  8
estabelecimento_escolar_privado
 10
-9.328301
 20
38.713240
  0
VERTEX
  8
estabelecimento_escolar_privado
 10
-9.328304
 20
38.713242
  0
VERTEX
  8
estabelecimento_escolar_privado
 10
-9.328306
 20
38.713243
  0
VERTEX
  8
estabelecimento_escolar_privado
 10
-9.328309
 20
38.713245
  0
VERTEX
  8
estabelecimento_escolar_privado
 10
-9.328350
 20
38.713213
  0
VERTEX
  8
estabelecimento_escolar_privado
 10
-9.328362
 20
38.713204
  0
VERTEX
  8
estabelecimento_escolar_privado
 10
-9.328367
 20
38.713197
  0
VERTEX
  8
estabelecimento_escolar_privado
 10
-9.328363
 20
38.713195
  0
VERTEX
  8
estabelecimento_escolar_privado
 10
-9.328361
 20
38.713193
  0
VERTEX
  8
estabelecimento_escolar_privado
 10
-9.328359
 20
38.713191
  0
VERTEX
  8
estabelecimento_escolar_privado
 10
-9.328358
 20
38.713190
  0
VERTEX
  8
estabelecimento_escolar_privado
 10
-9.328356
 20
38.713188
  0
VERTEX
  8
estabelecimento_escolar_privado
 10
-9.328355
 20
38.713186
  0
VERTEX
  8
estabelecimento_escolar_privado
 10
-9.328354
 20
38.713184
  0
VERTEX
  8
estabelecimento_escolar_privado
 10
-9.328354
 20
38.713181
  0
VERTEX
  8
estabelecimento_escolar_privado
 10
-9.328353
 20
38.713179
  0
VERTEX
  8
estabelecimento_escolar_privado
 10
-9.328353
 20
38.713177
  0
VERTEX
  8
estabelecimento_escolar_privado
 10
-9.328354
 20
38.713175
  0
VERTEX
  8
estabelecimento_escolar_privado
 10
-9.328354
 20
38.713173
  0
VERTEX
  8
estabelecimento_escolar_privado
 10
-9.328355
 20
38.713170
  0
VERTEX
  8
estabelecimento_escolar_privado
 10
-9.328356
 20
38.713168
  0
VERTEX
  8
estabelecimento_escolar_privado
 10
-9.328358
 20
38.713166
  0
VERTEX
  8
estabelecimento_escolar_privado
 10
-9.328402
 20
38.713108
  0
VERTEX
  8
estabelecimento_escolar_privado
 10
-9.328398
 20
38.713106
  0
VERTEX
  8
estabelecimento_escolar_privado
 10
-9.328445
 20
38.713044
  0
VERTEX
  8
estabelecimento_escolar_privado
 10
-9.328450
 20
38.713046
  0
VERTEX
  8
estabelecimento_escolar_privado
 10
-9.328454
 20
38.713039
  0
VERTEX
  8
estabelecimento_escolar_privado
 10
-9.328435
 20
38.712971
  0
VERTEX
  8
estabelecimento_escolar_privado
 10
-9.328452
 20
38.712950
  0
VERTEX
  8
estabelecimento_escolar_privado
 10
-9.328560
 20
38.712844
  0
VERTEX
  8
estabelecimento_escolar_privado
 10
-9.328563
 20
38.712839
  0
VERTEX
  8
estabelecimento_escolar_privado
 10
-9.328567
 20
38.712834
  0
VERTEX
  8
estabelecimento_escolar_privado
 10
-9.328571
 20
38.712829
  0
VERTEX
  8
estabelecimento_escolar_privado
 10
-9.328575
 20
38.712824
  0
VERTEX
  8
estabelecimento_escolar_privado
 10
-9.328579
 20
38.712819
  0
VERTEX
  8
estabelecimento_escolar_privado
 10
-9.328583
 20
38.712814
  0
VERTEX
  8
estabelecimento_escolar_privado
 10
-9.328587
 20
38.712809
  0
VERTEX
  8
estabelecimento_escolar_privado
 10
-9.328591
 20
38.712804
  0
VERTEX
  8
estabelecimento_escolar_privado
 10
-9.328596
 20
38.712800
  0
VERTEX
  8
estabelecimento_escolar_privado
 10
-9.328600
 20
38.712795
  0
VERTEX
  8
estabelecimento_escolar_privado
 10
-9.328604
 20
38.712790
  0
VERTEX
  8
estabelecimento_escolar_privado
 10
-9.328609
 20
38.712785
  0
VERTEX
  8
estabelecimento_escolar_privado
 10
-9.328613
 20
38.712780
  0
VERTEX
  8
estabelecimento_escolar_privado
 10
-9.328618
 20
38.712776
  0
VERTEX
  8
estabelecimento_escolar_privado
 10
-9.328622
 20
38.712771
  0
VERTEX
  8
estabelecimento_escolar_privado
 10
-9.328627
 20
38.712767
  0
VERTEX
  8
estabelecimento_escolar_privado
 10
-9.328632
 20
38.712762
  0
VERTEX
  8
estabelecimento_escolar_privado
 10
-9.328637
 20
38.712757
  0
VERTEX
  8
estabelecimento_escolar_privado
 10
-9.328641
 20
38.712753
  0
VERTEX
  8
estabelecimento_escolar_privado
 10
-9.328646
 20
38.712748
  0
VERTEX
  8
estabelecimento_escolar_privado
 10
-9.328649
 20
38.712746
  0
VERTEX
  8
estabelecimento_escolar_privado
 10
-9.328653
 20
38.712743
  0
VERTEX
  8
estabelecimento_escolar_privado
 10
-9.328656
 20
38.712740
  0
VERTEX
  8
estabelecimento_escolar_privado
 10
-9.328659
 20
38.712737
  0
VERTEX
  8
estabelecimento_escolar_privado
 10
-9.328662
 20
38.712735
  0
VERTEX
  8
estabelecimento_escolar_privado
 10
-9.328665
 20
38.712732
  0
VERTEX
  8
estabelecimento_escolar_privado
 10
-9.328668
 20
38.712729
  0
VERTEX
  8
estabelecimento_escolar_privado
 10
-9.328672
 20
38.712726
  0
VERTEX
  8
estabelecimento_escolar_privado
 10
-9.328675
 20
38.712723
  0
VERTEX
  8
estabelecimento_escolar_privado
 10
-9.328678
 20
38.712721
  0
VERTEX
  8
estabelecimento_escolar_privado
 10
-9.328681
 20
38.712718
  0
VERTEX
  8
estabelecimento_escolar_privado
 10
-9.328684
 20
38.712715
  0
VERTEX
  8
estabelecimento_escolar_privado
 10
-9.328687
 20
38.712712
  0
VERTEX
  8
estabelecimento_escolar_privado
 10
-9.328690
 20
38.712709
  0
VERTEX
  8
estabelecimento_escolar_privado
 10
-9.328693
 20
38.712706
  0
VERTEX
  8
estabelecimento_escolar_privado
 10
-9.328696
 20
38.712703
  0
VERTEX
  8
estabelecimento_escolar_privado
 10
-9.328699
 20
38.712700
  0
VERTEX
  8
estabelecimento_escolar_privado
 10
-9.328702
 20
38.712697
  0
VERTEX
  8
estabelecimento_escolar_privado
 10
-9.328705
 20
38.712694
  0
VERTEX
  8
estabelecimento_escolar_privado
 10
-9.328708
 20
38.712691
  0
VERTEX
  8
estabelecimento_escolar_privado
 10
-9.328712
 20
38.712688
  0
VERTEX
  8
estabelecimento_escolar_privado
 10
-9.328717
 20
38.712684
  0
VERTEX
  8
estabelecimento_escolar_privado
 10
-9.328721
 20
38.712680
  0
VERTEX
  8
estabelecimento_escolar_privado
 10
-9.328726
 20
38.712677
  0
VERTEX
  8
estabelecimento_escolar_privado
 10
-9.328731
 20
38.712673
  0
VERTEX
  8
estabelecimento_escolar_privado
 10
-9.328735
 20
38.712670
  0
VERTEX
  8
estabelecimento_escolar_privado
 10
-9.328740
 20
38.712666
  0
VERTEX
  8
estabelecimento_escolar_privado
 10
-9.328745
 20
38.712662
  0
VERTEX
  8
estabelecimento_escolar_privado
 10
-9.328750
 20
38.712659
  0
VERTEX
  8
estabelecimento_escolar_privado
 10
-9.328754
 20
38.712655
  0
VERTEX
  8
estabelecimento_escolar_privado
 10
-9.328759
 20
38.712652
  0
VERTEX
  8
estabelecimento_escolar_privado
 10
-9.328764
 20
38.712648
  0
VERTEX
  8
estabelecimento_escolar_privado
 10
-9.328768
 20
38.712645
  0
VERTEX
  8
estabelecimento_escolar_privado
 10
-9.328773
 20
38.712641
  0
VERTEX
  8
estabelecimento_escolar_privado
 10
-9.328778
 20
38.712637
  0
VERTEX
  8
estabelecimento_escolar_privado
 10
-9.328783
 20
38.712634
  0
VERTEX
  8
estabelecimento_escolar_privado
 10
-9.328787
 20
38.712630
  0
VERTEX
  8
estabelecimento_escolar_privado
 10
-9.328792
 20
38.712627
  0
VERTEX
  8
estabelecimento_escolar_privado
 10
-9.328794
 20
38.712625
  0
SEQEND
  0
POLYLINE
  8
estabelecimento_escolar_privado
  6
BYLAYER
 66
1
 70
1
 40
0.000000
 41
0.000000
  0
VERTEX
  8
estabelecimento_escolar_privado
 10
-9.408146
 20
38.723939
  0
VERTEX
  8
estabelecimento_escolar_privado
 10
-9.408118
 20
38.724107
  0
VERTEX
  8
estabelecimento_escolar_privado
 10
-9.408131
 20
38.724117
  0
VERTEX
  8
estabelecimento_escolar_privado
 10
-9.408141
 20
38.724123
  0
VERTEX
  8
estabelecimento_escolar_privado
 10
-9.408164
 20
38.724131
  0
VERTEX
  8
estabelecimento_escolar_privado
 10
-9.408236
 20
38.724143
  0
VERTEX
  8
estabelecimento_escolar_privado
 10
-9.408252
 20
38.724151
  0
VERTEX
  8
estabelecimento_escolar_privado
 10
-9.408276
 20
38.724171
  0
VERTEX
  8
estabelecimento_escolar_privado
 10
-9.408316
 20
38.724226
  0
VERTEX
  8
estabelecimento_escolar_privado
 10
-9.408362
 20
38.724329
  0
VERTEX
  8
estabelecimento_escolar_privado
 10
-9.408372
 20
38.724372
  0
VERTEX
  8
estabelecimento_escolar_privado
 10
-9.408311
 20
38.724423
  0
VERTEX
  8
estabelecimento_escolar_privado
 10
-9.408260
 20
38.724437
  0
VERTEX
  8
estabelecimento_escolar_privado
 10
-9.408211
 20
38.724441
  0
VERTEX
  8
estabelecimento_escolar_privado
 10
-9.408144
 20
38.724439
  0
VERTEX
  8
estabelecimento_escolar_privado
 10
-9.408065
 20
38.724432
  0
VERTEX
  8
estabelecimento_escolar_privado
 10
-9.407990
 20
38.724420
  0
VERTEX
  8
estabelecimento_escolar_privado
 10
-9.407970
 20
38.724417
  0
VERTEX
  8
estabelecimento_escolar_privado
 10
-9.407936
 20
38.724411
  0
VERTEX
  8
estabelecimento_escolar_privado
 10
-9.407887
 20
38.724403
  0
VERTEX
  8
estabelecimento_escolar_privado
 10
-9.407781
 20
38.724386
  0
VERTEX
  8
estabelecimento_escolar_privado
 10
-9.407811
 20
38.724213
  0
VERTEX
  8
estabelecimento_escolar_privado
 10
-9.407819
 20
38.724171
  0
VERTEX
  8
estabelecimento_escolar_privado
 10
-9.407835
 20
38.724085
  0
VERTEX
  8
estabelecimento_escolar_privado
 10
-9.407838
 20
38.724069
  0
VERTEX
  8
estabelecimento_escolar_privado
 10
-9.407865
 20
38.723931
  0
VERTEX
  8
estabelecimento_escolar_privado
 10
-9.407871
 20
38.723888
  0
VERTEX
  8
estabelecimento_escolar_privado
 10
-9.407919
 20
38.723889
  0
VERTEX
  8
estabelecimento_escolar_privado
 10
-9.408108
 20
38.723912
  0
VERTEX
  8
estabelecimento_escolar_privado
 10
-9.408135
 20
38.723913
  0
VERTEX
  8
estabelecimento_escolar_privado
 10
-9.408146
 20
38.723939
  0
SEQEND
  0
POLYLINE
  8
estabelecimento_escolar_privado
  6
BYLAYER
 66
1
 70
1
 40
0.000000
 41
0.000000
  0
VERTEX
  8
estabelecimento_escolar_privado
 10
-9.371761
 20
38.694974
  0
VERTEX
  8
estabelecimento_escolar_privado
 10
-9.371657
 20
38.695141
  0
VERTEX
  8
estabelecimento_escolar_privado
 10
-9.371641
 20
38.695138
  0
VERTEX
  8
estabelecimento_escolar_privado
 10
-9.371631
 20
38.695136
  0
VERTEX
  8
estabelecimento_escolar_privado
 10
-9.371484
 20
38.695105
  0
VERTEX
  8
estabelecimento_escolar_privado
 10
-9.371456
 20
38.695099
  0
VERTEX
  8
estabelecimento_escolar_privado
 10
-9.371464
 20
38.695076
  0
VERTEX
  8
estabelecimento_escolar_privado
 10
-9.371482
 20
38.695032
  0
VERTEX
  8
estabelecimento_escolar_privado
 10
-9.371534
 20
38.694916
  0
VERTEX
  8
estabelecimento_escolar_privado
 10
-9.371537
 20
38.694911
  0
VERTEX
  8
estabelecimento_escolar_privado
 10
-9.371564
 20
38.694922
  0
VERTEX
  8
estabelecimento_escolar_privado
 10
-9.371571
 20
38.694908
  0
VERTEX
  8
estabelecimento_escolar_privado
 10
-9.371580
 20
38.694912
  0
VERTEX
  8
estabelecimento_escolar_privado
 10
-9.371730
 20
38.694964
  0
VERTEX
  8
estabelecimento_escolar_privado
 10
-9.371761
 20
38.694974
  0
SEQEND
  0
POLYLINE
  8
estabelecimento_escolar_privado
  6
BYLAYER
 66
1
 70
1
 40
0.000000
 41
0.000000
  0
VERTEX
  8
estabelecimento_escolar_privado
 10
-9.394748
 20
38.705233
  0
VERTEX
  8
estabelecimento_escolar_privado
 10
-9.394638
 20
38.705343
  0
VERTEX
  8
estabelecimento_escolar_privado
 10
-9.394617
 20
38.705365
  0
VERTEX
  8
estabelecimento_escolar_privado
 10
-9.394604
 20
38.705379
  0
VERTEX
  8
estabelecimento_escolar_privado
 10
-9.394597
 20
38.705387
  0
VERTEX
  8
estabelecimento_escolar_privado
 10
-9.394585
 20
38.705402
  0
VERTEX
  8
estabelecimento_escolar_privado
 10
-9.394570
 20
38.705426
  0
VERTEX
  8
estabelecimento_escolar_privado
 10
-9.394499
 20
38.705414
  0
VERTEX
  8
estabelecimento_escolar_privado
 10
-9.394467
 20
38.705414
  0
VERTEX
  8
estabelecimento_escolar_privado
 10
-9.394225
 20
38.705407
  0
VERTEX
  8
estabelecimento_escolar_privado
 10
-9.394228
 20
38.705348
  0
VERTEX
  8
estabelecimento_escolar_privado
 10
-9.394237
 20
38.705229
  0
VERTEX
  8
estabelecimento_escolar_privado
 10
-9.394239
 20
38.705213
  0
VERTEX
  8
estabelecimento_escolar_privado
 10
-9.394247
 20
38.705111
  0
VERTEX
  8
estabelecimento_escolar_privado
 10
-9.394293
 20
38.705112
  0
VERTEX
  8
estabelecimento_escolar_privado
 10
-9.394310
 20
38.705112
  0
VERTEX
  8
estabelecimento_escolar_privado
 10
-9.394337
 20
38.705113
  0
VERTEX
  8
estabelecimento_escolar_privado
 10
-9.394551
 20
38.705119
  0
VERTEX
  8
estabelecimento_escolar_privado
 10
-9.394748
 20
38.705233
  0
SEQEND
  0
POLYLINE
  8
estabelecimento_escolar_privado
  6
BYLAYER
 66
1
 70
1
 40
0.000000
 41
0.000000
  0
VERTEX
  8
estabelecimento_escolar_privado
 10
-9.443727
 20
38.705286
  0
VERTEX
  8
estabelecimento_escolar_privado
 10
-9.443605
 20
38.705333
  0
VERTEX
  8
estabelecimento_escolar_privado
 10
-9.443572
 20
38.705337
  0
VERTEX
  8
estabelecimento_escolar_privado
 10
-9.443572
 20
38.705214
  0
VERTEX
  8
estabelecimento_escolar_privado
 10
-9.443573
 20
38.705070
  0
VERTEX
  8
estabelecimento_escolar_privado
 10
-9.443573
 20
38.704918
  0
VERTEX
  8
estabelecimento_escolar_privado
 10
-9.443642
 20
38.704910
  0
VERTEX
  8
estabelecimento_escolar_privado
 10
-9.443727
 20
38.705286
  0
SEQEND
  0
POLYLINE
  8
estabelecimento_escolar_privado
  6
BYLAYER
 66
1
 70
1
 40
0.000000
 41
0.000000
  0
VERTEX
  8
estabelecimento_escolar_privado
 10
-9.443159
 20
38.704082
  0
VERTEX
  8
estabelecimento_escolar_privado
 10
-9.443169
 20
38.704174
  0
VERTEX
  8
estabelecimento_escolar_privado
 10
-9.443141
 20
38.704178
  0
VERTEX
  8
estabelecimento_escolar_privado
 10
-9.443112
 20
38.704181
  0
VERTEX
  8
estabelecimento_escolar_privado
 10
-9.442896
 20
38.704209
  0
VERTEX
  8
estabelecimento_escolar_privado
 10
-9.442870
 20
38.704126
  0
VERTEX
  8
estabelecimento_escolar_privado
 10
-9.442865
 20
38.704110
  0
VERTEX
  8
estabelecimento_escolar_privado
 10
-9.442810
 20
38.703931
  0
VERTEX
  8
estabelecimento_escolar_privado
 10
-9.442909
 20
38.703921
  0
VERTEX
  8
estabelecimento_escolar_privado
 10
-9.442933
 20
38.703918
  0
VERTEX
  8
estabelecimento_escolar_privado
 10
-9.443112
 20
38.703899
  0
VERTEX
  8
estabelecimento_escolar_privado
 10
-9.443137
 20
38.703896
  0
VERTEX
  8
estabelecimento_escolar_privado
 10
-9.443149
 20
38.703997
  0
VERTEX
  8
estabelecimento_escolar_privado
 10
-9.443159
 20
38.704082
  0
SEQEND
  0
POLYLINE
  8
estabelecimento_escolar_privado
  6
BYLAYER
 66
1
 70
1
 40
0.000000
 41
0.000000
  0
VERTEX
  8
estabelecimento_escolar_privado
 10
-9.400675
 20
38.710535
  0
VERTEX
  8
estabelecimento_escolar_privado
 10
-9.400398
 20
38.710458
  0
VERTEX
  8
estabelecimento_escolar_privado
 10
-9.400612
 20
38.710019
  0
VERTEX
  8
estabelecimento_escolar_privado
 10
-9.400918
 20
38.710100
  0
VERTEX
  8
estabelecimento_escolar_privado
 10
-9.400675
 20
38.710535
  0
SEQEND
  0
POLYLINE
  8
estabelecimento_escolar_privado
  6
BYLAYER
 66
1
 70
1
 40
0.000000
 41
0.000000
  0
VERTEX
  8
estabelecimento_escolar_privado
 10
-9.363016
 20
38.735959
  0
VERTEX
  8
estabelecimento_escolar_privado
 10
-9.362981
 20
38.735969
  0
VERTEX
  8
estabelecimento_escolar_privado
 10
-9.362866
 20
38.735996
  0
VERTEX
  8
estabelecimento_escolar_privado
 10
-9.362673
 20
38.736041
  0
VERTEX
  8
estabelecimento_escolar_privado
 10
-9.362648
 20
38.736047
  0
VERTEX
  8
estabelecimento_escolar_privado
 10
-9.362544
 20
38.736074
  0
VERTEX
  8
estabelecimento_escolar_privado
 10
-9.362545
 20
38.736079
  0
VERTEX
  8
estabelecimento_escolar_privado
 10
-9.362547
 20
38.736080
  0
VERTEX
  8
estabelecimento_escolar_privado
 10
-9.362604
 20
38.736226
  0
VERTEX
  8
estabelecimento_escolar_privado
 10
-9.362570
 20
38.736266
  0
VERTEX
  8
estabelecimento_escolar_privado
 10
-9.362578
 20
38.736287
  0
VERTEX
  8
estabelecimento_escolar_privado
 10
-9.362605
 20
38.736350
  0
VERTEX
  8
estabelecimento_escolar_privado
 10
-9.362449
 20
38.736378
  0
VERTEX
  8
estabelecimento_escolar_privado
 10
-9.362420
 20
38.736382
  0
VERTEX
  8
estabelecimento_escolar_privado
 10
-9.362486
 20
38.736496
  0
VERTEX
  8
estabelecimento_escolar_privado
 10
-9.362517
 20
38.736542
  0
VERTEX
  8
estabelecimento_escolar_privado
 10
-9.362574
 20
38.736610
  0
VERTEX
  8
estabelecimento_escolar_privado
 10
-9.362551
 20
38.736625
  0
VERTEX
  8
estabelecimento_escolar_privado
 10
-9.362437
 20
38.736702
  0
VERTEX
  8
estabelecimento_escolar_privado
 10
-9.362391
 20
38.736731
  0
VERTEX
  8
estabelecimento_escolar_privado
 10
-9.362353
 20
38.736755
  0
VERTEX
  8
estabelecimento_escolar_privado
 10
-9.362321
 20
38.736775
  0
VERTEX
  8
estabelecimento_escolar_privado
 10
-9.362296
 20
38.736784
  0
VERTEX
  8
estabelecimento_escolar_privado
 10
-9.362210
 20
38.736813
  0
VERTEX
  8
estabelecimento_escolar_privado
 10
-9.362180
 20
38.736823
  0
VERTEX
  8
estabelecimento_escolar_privado
 10
-9.361812
 20
38.736943
  0
VERTEX
  8
estabelecimento_escolar_privado
 10
-9.361868
 20
38.737110
  0
VERTEX
  8
estabelecimento_escolar_privado
 10
-9.361335
 20
38.737174
  0
VERTEX
  8
estabelecimento_escolar_privado
 10
-9.361288
 20
38.737142
  0
VERTEX
  8
estabelecimento_escolar_privado
 10
-9.361212
 20
38.737151
  0
VERTEX
  8
estabelecimento_escolar_privado
 10
-9.361161
 20
38.737191
  0
VERTEX
  8
estabelecimento_escolar_privado
 10
-9.361110
 20
38.736842
  0
VERTEX
  8
estabelecimento_escolar_privado
 10
-9.361101
 20
38.736806
  0
VERTEX
  8
estabelecimento_escolar_privado
 10
-9.361048
 20
38.736633
  0
VERTEX
  8
estabelecimento_escolar_privado
 10
-9.360990
 20
38.736444
  0
VERTEX
  8
estabelecimento_escolar_privado
 10
-9.360950
 20
38.736323
  0
VERTEX
  8
estabelecimento_escolar_privado
 10
-9.360939
 20
38.736275
  0
VERTEX
  8
estabelecimento_escolar_privado
 10
-9.360937
 20
38.736271
  0
VERTEX
  8
estabelecimento_escolar_privado
 10
-9.360688
 20
38.736315
  0
VERTEX
  8
estabelecimento_escolar_privado
 10
-9.359968
 20
38.736428
  0
VERTEX
  8
estabelecimento_escolar_privado
 10
-9.359983
 20
38.736333
  0
VERTEX
  8
estabelecimento_escolar_privado
 10
-9.359987
 20
38.736294
  0
VERTEX
  8
estabelecimento_escolar_privado
 10
-9.359987
 20
38.736255
  0
VERTEX
  8
estabelecimento_escolar_privado
 10
-9.359969
 20
38.736111
  0
VERTEX
  8
estabelecimento_escolar_privado
 10
-9.359959
 20
38.736094
  0
VERTEX
  8
estabelecimento_escolar_privado
 10
-9.359815
 20
38.735980
  0
VERTEX
  8
estabelecimento_escolar_privado
 10
-9.359791
 20
38.735959
  0
VERTEX
  8
estabelecimento_escolar_privado
 10
-9.359782
 20
38.735948
  0
VERTEX
  8
estabelecimento_escolar_privado
 10
-9.359766
 20
38.735913
  0
VERTEX
  8
estabelecimento_escolar_privado
 10
-9.359746
 20
38.735864
  0
VERTEX
  8
estabelecimento_escolar_privado
 10
-9.359735
 20
38.735825
  0
VERTEX
  8
estabelecimento_escolar_privado
 10
-9.359725
 20
38.735781
  0
VERTEX
  8
estabelecimento_escolar_privado
 10
-9.359703
 20
38.735632
  0
VERTEX
  8
estabelecimento_escolar_privado
 10
-9.359701
 20
38.735611
  0
VERTEX
  8
estabelecimento_escolar_privado
 10
-9.359702
 20
38.735571
  0
VERTEX
  8
estabelecimento_escolar_privado
 10
-9.359705
 20
38.735286
  0
VERTEX
  8
estabelecimento_escolar_privado
 10
-9.359708
 20
38.735232
  0
VERTEX
  8
estabelecimento_escolar_privado
 10
-9.359711
 20
38.735192
  0
VERTEX
  8
estabelecimento_escolar_privado
 10
-9.359715
 20
38.735157
  0
VERTEX
  8
estabelecimento_escolar_privado
 10
-9.359718
 20
38.735141
  0
VERTEX
  8
estabelecimento_escolar_privado
 10
-9.359829
 20
38.734902
  0
VERTEX
  8
estabelecimento_escolar_privado
 10
-9.359846
 20
38.734856
  0
VERTEX
  8
estabelecimento_escolar_privado
 10
-9.359853
 20
38.734829
  0
VERTEX
  8
estabelecimento_escolar_privado
 10
-9.359856
 20
38.734787
  0
VERTEX
  8
estabelecimento_escolar_privado
 10
-9.359857
 20
38.734768
  0
VERTEX
  8
estabelecimento_escolar_privado
 10
-9.359874
 20
38.734506
  0
VERTEX
  8
estabelecimento_escolar_privado
 10
-9.359874
 20
38.734464
  0
VERTEX
  8
estabelecimento_escolar_privado
 10
-9.359873
 20
38.734430
  0
VERTEX
  8
estabelecimento_escolar_privado
 10
-9.359875
 20
38.734392
  0
VERTEX
  8
estabelecimento_escolar_privado
 10
-9.359883
 20
38.734349
  0
VERTEX
  8
estabelecimento_escolar_privado
 10
-9.359891
 20
38.734213
  0
VERTEX
  8
estabelecimento_escolar_privado
 10
-9.359885
 20
38.734192
  0
VERTEX
  8
estabelecimento_escolar_privado
 10
-9.359884
 20
38.734189
  0
VERTEX
  8
estabelecimento_escolar_privado
 10
-9.359867
 20
38.734153
  0
VERTEX
  8
estabelecimento_escolar_privado
 10
-9.359817
 20
38.734047
  0
VERTEX
  8
estabelecimento_escolar_privado
 10
-9.359785
 20
38.733981
  0
VERTEX
  8
estabelecimento_escolar_privado
 10
-9.359793
 20
38.733948
  0
VERTEX
  8
estabelecimento_escolar_privado
 10
-9.359967
 20
38.733407
  0
VERTEX
  8
estabelecimento_escolar_privado
 10
-9.360897
 20
38.733343
  0
VERTEX
  8
estabelecimento_escolar_privado
 10
-9.360945
 20
38.733338
  0
VERTEX
  8
estabelecimento_escolar_privado
 10
-9.361005
 20
38.733331
  0
VERTEX
  8
estabelecimento_escolar_privado
 10
-9.361151
 20
38.733314
  0
VERTEX
  8
estabelecimento_escolar_privado
 10
-9.361251
 20
38.733303
  0
VERTEX
  8
estabelecimento_escolar_privado
 10
-9.361554
 20
38.733265
  0
VERTEX
  8
estabelecimento_escolar_privado
 10
-9.361743
 20
38.733236
  0
VERTEX
  8
estabelecimento_escolar_privado
 10
-9.362298
 20
38.733176
  0
VERTEX
  8
estabelecimento_escolar_privado
 10
-9.362498
 20
38.733906
  0
VERTEX
  8
estabelecimento_escolar_privado
 10
-9.362526
 20
38.734018
  0
VERTEX
  8
estabelecimento_escolar_privado
 10
-9.362749
 20
38.734910
  0
VERTEX
  8
estabelecimento_escolar_privado
 10
-9.362754
 20
38.734943
  0
VERTEX
  8
estabelecimento_escolar_privado
 10
-9.362772
 20
38.735020
  0
VERTEX
  8
estabelecimento_escolar_privado
 10
-9.362795
 20
38.735119
  0
VERTEX
  8
estabelecimento_escolar_privado
 10
-9.362804
 20
38.735147
  0
VERTEX
  8
estabelecimento_escolar_privado
 10
-9.362823
 20
38.735237
  0
VERTEX
  8
estabelecimento_escolar_privado
 10
-9.362833
 20
38.735276
  0
VERTEX
  8
estabelecimento_escolar_privado
 10
-9.362836
 20
38.735293
  0
VERTEX
  8
estabelecimento_escolar_privado
 10
-9.362840
 20
38.735316
  0
VERTEX
  8
estabelecimento_escolar_privado
 10
-9.362850
 20
38.735360
  0
VERTEX
  8
estabelecimento_escolar_privado
 10
-9.362862
 20
38.735408
  0
VERTEX
  8
estabelecimento_escolar_privado
 10
-9.362865
 20
38.735423
  0
VERTEX
  8
estabelecimento_escolar_privado
 10
-9.362877
 20
38.735465
  0
VERTEX
  8
estabelecimento_escolar_privado
 10
-9.362892
 20
38.735526
  0
VERTEX
  8
estabelecimento_escolar_privado
 10
-9.362941
 20
38.735707
  0
VERTEX
  8
estabelecimento_escolar_privado
 10
-9.362944
 20
38.735718
  0
VERTEX
  8
estabelecimento_escolar_privado
 10
-9.362966
 20
38.735780
  0
VERTEX
  8
estabelecimento_escolar_privado
 10
-9.363016
 20
38.735959
  0
SEQEND
  0
POLYLINE
  8
estabelecimento_escolar_privado
  6
BYLAYER
 66
1
 70
1
 40
0.000000
 41
0.000000
  0
VERTEX
  8
estabelecimento_escolar_privado
 10
-9.353900
 20
38.688689
  0
VERTEX
  8
estabelecimento_escolar_privado
 10
-9.353918
 20
38.688545
  0
VERTEX
  8
estabelecimento_escolar_privado
 10
-9.353937
 20
38.688308
  0
VERTEX
  8
estabelecimento_escolar_privado
 10
-9.353908
 20
38.687758
  0
VERTEX
  8
estabelecimento_escolar_privado
 10
-9.354119
 20
38.687751
  0
VERTEX
  8
estabelecimento_escolar_privado
 10
-9.354119
 20
38.687766
  0
VERTEX
  8
estabelecimento_escolar_privado
 10
-9.354121
 20
38.687805
  0
VERTEX
  8
estabelecimento_escolar_privado
 10
-9.354129
 20
38.687940
  0
VERTEX
  8
estabelecimento_escolar_privado
 10
-9.354133
 20
38.688007
  0
VERTEX
  8
estabelecimento_escolar_privado
 10
-9.354135
 20
38.688035
  0
VERTEX
  8
estabelecimento_escolar_privado
 10
-9.354138
 20
38.688069
  0
VERTEX
  8
estabelecimento_escolar_privado
 10
-9.354138
 20
38.688074
  0
VERTEX
  8
estabelecimento_escolar_privado
 10
-9.354142
 20
38.688132
  0
VERTEX
  8
estabelecimento_escolar_privado
 10
-9.354147
 20
38.688198
  0
VERTEX
  8
estabelecimento_escolar_privado
 10
-9.354157
 20
38.688324
  0
VERTEX
  8
estabelecimento_escolar_privado
 10
-9.354158
 20
38.688382
  0
VERTEX
  8
estabelecimento_escolar_privado
 10
-9.354164
 20
38.688444
  0
VERTEX
  8
estabelecimento_escolar_privado
 10
-9.354177
 20
38.688652
  0
VERTEX
  8
estabelecimento_escolar_privado
 10
-9.354187
 20
38.688799
  0
VERTEX
  8
estabelecimento_escolar_privado
 10
-9.354074
 20
38.688756
  0
VERTEX
  8
estabelecimento_escolar_privado
 10
-9.354060
 20
38.688750
  0
VERTEX
  8
estabelecimento_escolar_privado
 10
-9.354033
 20
38.688740
  0
VERTEX
  8
estabelecimento_escolar_privado
 10
-9.353900
 20
38.688689
  0
SEQEND
  0
POLYLINE
  8
estabelecimento_escolar_privado
  6
BYLAYER
 66
1
 70
1
 40
0.000000
 41
0.000000
  0
VERTEX
  8
estabelecimento_escolar_privado
 10
-9.344465
 20
38.686807
  0
VERTEX
  8
estabelecimento_escolar_privado
 10
-9.344482
 20
38.686845
  0
VERTEX
  8
estabelecimento_escolar_privado
 10
-9.344526
 20
38.686994
  0
VERTEX
  8
estabelecimento_escolar_privado
 10
-9.344485
 20
38.687004
  0
VERTEX
  8
estabelecimento_escolar_privado
 10
-9.344238
 20
38.687039
  0
VERTEX
  8
estabelecimento_escolar_privado
 10
-9.344163
 20
38.687043
  0
VERTEX
  8
estabelecimento_escolar_privado
 10
-9.344099
 20
38.687048
  0
VERTEX
  8
estabelecimento_escolar_privado
 10
-9.344059
 20
38.687050
  0
VERTEX
  8
estabelecimento_escolar_privado
 10
-9.343964
 20
38.687054
  0
VERTEX
  8
estabelecimento_escolar_privado
 10
-9.343838
 20
38.687061
  0
VERTEX
  8
estabelecimento_escolar_privado
 10
-9.343791
 20
38.687063
  0
VERTEX
  8
estabelecimento_escolar_privado
 10
-9.343680
 20
38.687068
  0
VERTEX
  8
estabelecimento_escolar_privado
 10
-9.343538
 20
38.687072
  0
VERTEX
  8
estabelecimento_escolar_privado
 10
-9.343494
 20
38.687072
  0
VERTEX
  8
estabelecimento_escolar_privado
 10
-9.343433
 20
38.687074
  0
VERTEX
  8
estabelecimento_escolar_privado
 10
-9.343408
 20
38.686655
  0
VERTEX
  8
estabelecimento_escolar_privado
 10
-9.343405
 20
38.686456
  0
VERTEX
  8
estabelecimento_escolar_privado
 10
-9.343450
 20
38.686456
  0
VERTEX
  8
estabelecimento_escolar_privado
 10
-9.343501
 20
38.686457
  0
VERTEX
  8
estabelecimento_escolar_privado
 10
-9.343524
 20
38.686457
  0
VERTEX
  8
estabelecimento_escolar_privado
 10
-9.343741
 20
38.686459
  0
VERTEX
  8
estabelecimento_escolar_privado
 10
-9.343833
 20
38.686460
  0
VERTEX
  8
estabelecimento_escolar_privado
 10
-9.344016
 20
38.686462
  0
VERTEX
  8
estabelecimento_escolar_privado
 10
-9.344026
 20
38.686462
  0
VERTEX
  8
estabelecimento_escolar_privado
 10
-9.344035
 20
38.686462
  0
VERTEX
  8
estabelecimento_escolar_privado
 10
-9.344271
 20
38.686465
  0
VERTEX
  8
estabelecimento_escolar_privado
 10
-9.344293
 20
38.686467
  0
VERTEX
  8
estabelecimento_escolar_privado
 10
-9.344315
 20
38.686472
  0
VERTEX
  8
estabelecimento_escolar_privado
 10
-9.344335
 20
38.686480
  0
VERTEX
  8
estabelecimento_escolar_privado
 10
-9.344355
 20
38.686495
  0
VERTEX
  8
estabelecimento_escolar_privado
 10
-9.344369
 20
38.686509
  0
VERTEX
  8
estabelecimento_escolar_privado
 10
-9.344378
 20
38.686525
  0
VERTEX
  8
estabelecimento_escolar_privado
 10
-9.344465
 20
38.686807
  0
SEQEND
  0
POLYLINE
  8
estabelecimento_escolar_privado
  6
BYLAYER
 66
1
 70
1
 40
0.000000
 41
0.000000
  0
VERTEX
  8
estabelecimento_escolar_privado
 10
-9.387826
 20
38.710545
  0
VERTEX
  8
estabelecimento_escolar_privado
 10
-9.386498
 20
38.710504
  0
VERTEX
  8
estabelecimento_escolar_privado
 10
-9.386553
 20
38.709578
  0
VERTEX
  8
estabelecimento_escolar_privado
 10
-9.387127
 20
38.709687
  0
VERTEX
  8
estabelecimento_escolar_privado
 10
-9.387254
 20
38.709508
  0
VERTEX
  8
estabelecimento_escolar_privado
 10
-9.388145
 20
38.709762
  0
VERTEX
  8
estabelecimento_escolar_privado
 10
-9.387826
 20
38.710545
  0
SEQEND
  0
POLYLINE
  8
estabelecimento_escolar_privado
  6
BYLAYER
 66
1
 70
1
 40
0.000000
 41
0.000000
  0
VERTEX
  8
estabelecimento_escolar_privado
 10
-9.353889
 20
38.699015
  0
VERTEX
  8
estabelecimento_escolar_privado
 10
-9.353739
 20
38.698807
  0
VERTEX
  8
estabelecimento_escolar_privado
 10
-9.353826
 20
38.698764
  0
VERTEX
  8
estabelecimento_escolar_privado
 10
-9.353863
 20
38.698750
  0
VERTEX
  8
estabelecimento_escolar_privado
 10
-9.354033
 20
38.698689
  0
VERTEX
  8
estabelecimento_escolar_privado
 10
-9.354043
 20
38.698704
  0
VERTEX
  8
estabelecimento_escolar_privado
 10
-9.354064
 20
38.698745
  0
VERTEX
  8
estabelecimento_escolar_privado
 10
-9.354079
 20
38.698778
  0
VERTEX
  8
estabelecimento_escolar_privado
 10
-9.354082
 20
38.698786
  0
VERTEX
  8
estabelecimento_escolar_privado
 10
-9.354093
 20
38.698812
  0
VERTEX
  8
estabelecimento_escolar_privado
 10
-9.354134
 20
38.698906
  0
VERTEX
  8
estabelecimento_escolar_privado
 10
-9.354145
 20
38.698932
  0
VERTEX
  8
estabelecimento_escolar_privado
 10
-9.354134
 20
38.698935
  0
VERTEX
  8
estabelecimento_escolar_privado
 10
-9.354005
 20
38.698977
  0
VERTEX
  8
estabelecimento_escolar_privado
 10
-9.353940
 20
38.698998
  0
VERTEX
  8
estabelecimento_escolar_privado
 10
-9.353900
 20
38.699011
  0
VERTEX
  8
estabelecimento_escolar_privado
 10
-9.353889
 20
38.699015
  0
SEQEND
  0
POLYLINE
  8
estabelecimento_escolar_privado
  6
BYLAYER
 66
1
 70
1
 40
0.000000
 41
0.000000
  0
VERTEX
  8
estabelecimento_escolar_privado
 10
-9.392255
 20
38.702698
  0
VERTEX
  8
estabelecimento_escolar_privado
 10
-9.392152
 20
38.702698
  0
VERTEX
  8
estabelecimento_escolar_privado
 10
-9.392143
 20
38.702697
  0
VERTEX
  8
estabelecimento_escolar_privado
 10
-9.392128
 20
38.702692
  0
VERTEX
  8
estabelecimento_escolar_privado
 10
-9.392115
 20
38.702685
  0
VERTEX
  8
estabelecimento_escolar_privado
 10
-9.392104
 20
38.702675
  0
VERTEX
  8
estabelecimento_escolar_privado
 10
-9.392097
 20
38.702663
  0
VERTEX
  8
estabelecimento_escolar_privado
 10
-9.392095
 20
38.702657
  0
VERTEX
  8
estabelecimento_escolar_privado
 10
-9.392095
 20
38.702649
  0
VERTEX
  8
estabelecimento_escolar_privado
 10
-9.392100
 20
38.702626
  0
VERTEX
  8
estabelecimento_escolar_privado
 10
-9.392118
 20
38.702534
  0
VERTEX
  8
estabelecimento_escolar_privado
 10
-9.392146
 20
38.702404
  0
VERTEX
  8
estabelecimento_escolar_privado
 10
-9.392148
 20
38.702399
  0
VERTEX
  8
estabelecimento_escolar_privado
 10
-9.392150
 20
38.702396
  0
VERTEX
  8
estabelecimento_escolar_privado
 10
-9.392156
 20
38.702389
  0
VERTEX
  8
estabelecimento_escolar_privado
 10
-9.392163
 20
38.702382
  0
VERTEX
  8
estabelecimento_escolar_privado
 10
-9.392172
 20
38.702377
  0
VERTEX
  8
estabelecimento_escolar_privado
 10
-9.392188
 20
38.702372
  0
VERTEX
  8
estabelecimento_escolar_privado
 10
-9.392376
 20
38.702349
  0
VERTEX
  8
estabelecimento_escolar_privado
 10
-9.392375
 20
38.702337
  0
VERTEX
  8
estabelecimento_escolar_privado
 10
-9.392377
 20
38.702329
  0
VERTEX
  8
estabelecimento_escolar_privado
 10
-9.392379
 20
38.702326
  0
VERTEX
  8
estabelecimento_escolar_privado
 10
-9.392382
 20
38.702323
  0
VERTEX
  8
estabelecimento_escolar_privado
 10
-9.392389
 20
38.702318
  0
VERTEX
  8
estabelecimento_escolar_privado
 10
-9.392398
 20
38.702314
  0
VERTEX
  8
estabelecimento_escolar_privado
 10
-9.392402
 20
38.702313
  0
VERTEX
  8
estabelecimento_escolar_privado
 10
-9.392917
 20
38.702260
  0
VERTEX
  8
estabelecimento_escolar_privado
 10
-9.392968
 20
38.702575
  0
VERTEX
  8
estabelecimento_escolar_privado
 10
-9.392966
 20
38.702584
  0
VERTEX
  8
estabelecimento_escolar_privado
 10
-9.392962
 20
38.702594
  0
VERTEX
  8
estabelecimento_escolar_privado
 10
-9.392955
 20
38.702602
  0
VERTEX
  8
estabelecimento_escolar_privado
 10
-9.392946
 20
38.702608
  0
VERTEX
  8
estabelecimento_escolar_privado
 10
-9.392941
 20
38.702611
  0
VERTEX
  8
estabelecimento_escolar_privado
 10
-9.392929
 20
38.702614
  0
VERTEX
  8
estabelecimento_escolar_privado
 10
-9.392770
 20
38.702636
  0
VERTEX
  8
estabelecimento_escolar_privado
 10
-9.392631
 20
38.702657
  0
VERTEX
  8
estabelecimento_escolar_privado
 10
-9.392621
 20
38.702658
  0
VERTEX
  8
estabelecimento_escolar_privado
 10
-9.392417
 20
38.702687
  0
VERTEX
  8
estabelecimento_escolar_privado
 10
-9.392353
 20
38.702693
  0
VERTEX
  8
estabelecimento_escolar_privado
 10
-9.392304
 20
38.702697
  0
VERTEX
  8
estabelecimento_escolar_privado
 10
-9.392255
 20
38.702698
  0
SEQEND
  0
POLYLINE
  8
estabelecimento_escolar_privado
  6
BYLAYER
 66
1
 70
1
 40
0.000000
 41
0.000000
  0
VERTEX
  8
estabelecimento_escolar_privado
 10
-9.424346
 20
38.712852
  0
VERTEX
  8
estabelecimento_escolar_privado
 10
-9.424332
 20
38.712820
  0
VERTEX
  8
estabelecimento_escolar_privado
 10
-9.424280
 20
38.712834
  0
VERTEX
  8
estabelecimento_escolar_privado
 10
-9.424266
 20
38.712802
  0
VERTEX
  8
estabelecimento_escolar_privado
 10
-9.424258
 20
38.712804
  0
VERTEX
  8
estabelecimento_escolar_privado
 10
-9.424250
 20
38.712785
  0
VERTEX
  8
estabelecimento_escolar_privado
 10
-9.424428
 20
38.712741
  0
VERTEX
  8
estabelecimento_escolar_privado
 10
-9.424463
 20
38.712821
  0
VERTEX
  8
estabelecimento_escolar_privado
 10
-9.424346
 20
38.712852
  0
SEQEND
  0
POLYLINE
  8
estabelecimento_escolar_privado
  6
BYLAYER
 66
1
 70
1
 40
0.000000
 41
0.000000
  0
VERTEX
  8
estabelecimento_escolar_privado
 10
-9.375602
 20
38.696884
  0
VERTEX
  8
estabelecimento_escolar_privado
 10
-9.375418
 20
38.697094
  0
VERTEX
  8
estabelecimento_escolar_privado
 10
-9.375408
 20
38.697089
  0
VERTEX
  8
estabelecimento_escolar_privado
 10
-9.375381
 20
38.697072
  0
VERTEX
  8
estabelecimento_escolar_privado
 10
-9.375370
 20
38.697064
  0
VERTEX
  8
estabelecimento_escolar_privado
 10
-9.375334
 20
38.697039
  0
VERTEX
  8
estabelecimento_escolar_privado
 10
-9.375300
 20
38.697013
  0
VERTEX
  8
estabelecimento_escolar_privado
 10
-9.375266
 20
38.696986
  0
VERTEX
  8
estabelecimento_escolar_privado
 10
-9.375235
 20
38.696959
  0
VERTEX
  8
estabelecimento_escolar_privado
 10
-9.375204
 20
38.696930
  0
VERTEX
  8
estabelecimento_escolar_privado
 10
-9.375185
 20
38.696911
  0
VERTEX
  8
estabelecimento_escolar_privado
 10
-9.375165
 20
38.696889
  0
VERTEX
  8
estabelecimento_escolar_privado
 10
-9.375159
 20
38.696883
  0
VERTEX
  8
estabelecimento_escolar_privado
 10
-9.375217
 20
38.696840
  0
VERTEX
  8
estabelecimento_escolar_privado
 10
-9.375220
 20
38.696842
  0
VERTEX
  8
estabelecimento_escolar_privado
 10
-9.375280
 20
38.696795
  0
VERTEX
  8
estabelecimento_escolar_privado
 10
-9.375278
 20
38.696793
  0
VERTEX
  8
estabelecimento_escolar_privado
 10
-9.375282
 20
38.696790
  0
VERTEX
  8
estabelecimento_escolar_privado
 10
-9.375410
 20
38.696689
  0
VERTEX
  8
estabelecimento_escolar_privado
 10
-9.375425
 20
38.696695
  0
VERTEX
  8
estabelecimento_escolar_privado
 10
-9.375495
 20
38.696726
  0
VERTEX
  8
estabelecimento_escolar_privado
 10
-9.375566
 20
38.696773
  0
VERTEX
  8
estabelecimento_escolar_privado
 10
-9.375650
 20
38.696816
  0
VERTEX
  8
estabelecimento_escolar_privado
 10
-9.375611
 20
38.696871
  0
VERTEX
  8
estabelecimento_escolar_privado
 10
-9.375602
 20
38.696884
  0
SEQEND
  0
POLYLINE
  8
estabelecimento_escolar_privado
  6
BYLAYER
 66
1
 70
1
 40
0.000000
 41
0.000000
  0
VERTEX
  8
estabelecimento_escolar_privado
 10
-9.340107
 20
38.690005
  0
VERTEX
  8
estabelecimento_escolar_privado
 10
-9.340128
 20
38.690214
  0
VERTEX
  8
estabelecimento_escolar_privado
 10
-9.340031
 20
38.690218
  0
VERTEX
  8
estabelecimento_escolar_privado
 10
-9.339935
 20
38.690219
  0
VERTEX
  8
estabelecimento_escolar_privado
 10
-9.339832
 20
38.690225
  0
VERTEX
  8
estabelecimento_escolar_privado
 10
-9.339802
 20
38.690224
  0
VERTEX
  8
estabelecimento_escolar_privado
 10
-9.339783
 20
38.689984
  0
VERTEX
  8
estabelecimento_escolar_privado
 10
-9.339755
 20
38.689798
  0
VERTEX
  8
estabelecimento_escolar_privado
 10
-9.339750
 20
38.689761
  0
VERTEX
  8
estabelecimento_escolar_privado
 10
-9.339751
 20
38.689700
  0
VERTEX
  8
estabelecimento_escolar_privado
 10
-9.339991
 20
38.689678
  0
VERTEX
  8
estabelecimento_escolar_privado
 10
-9.339999
 20
38.689758
  0
VERTEX
  8
estabelecimento_escolar_privado
 10
-9.340000
 20
38.689843
  0
VERTEX
  8
estabelecimento_escolar_privado
 10
-9.340002
 20
38.689871
  0
VERTEX
  8
estabelecimento_escolar_privado
 10
-9.340007
 20
38.689911
  0
VERTEX
  8
estabelecimento_escolar_privado
 10
-9.340104
 20
38.689914
  0
VERTEX
  8
estabelecimento_escolar_privado
 10
-9.340107
 20
38.690005
  0
SEQEND
  0
POLYLINE
  8
estabelecimento_escolar_privado
  6
BYLAYER
 66
1
 70
1
 40
0.000000
 41
0.000000
  0
VERTEX
  8
estabelecimento_escolar_privado
 10
-9.349666
 20
38.713572
  0
VERTEX
  8
estabelecimento_escolar_privado
 10
-9.349875
 20
38.713557
  0
VERTEX
  8
estabelecimento_escolar_privado
 10
-9.349942
 20
38.713645
  0
VERTEX
  8
estabelecimento_escolar_privado
 10
-9.349879
 20
38.713643
  0
VERTEX
  8
estabelecimento_escolar_privado
 10
-9.349774
 20
38.713649
  0
VERTEX
  8
estabelecimento_escolar_privado
 10
-9.349729
 20
38.713652
  0
VERTEX
  8
estabelecimento_escolar_privado
 10
-9.349575
 20
38.713663
  0
VERTEX
  8
estabelecimento_escolar_privado
 10
-9.349561
 20
38.713522
  0
VERTEX
  8
estabelecimento_escolar_privado
 10
-9.349659
 20
38.713516
  0
VERTEX
  8
estabelecimento_escolar_privado
 10
-9.349666
 20
38.713572
  0
SEQEND
  0
POLYLINE
  8
estabelecimento_escolar_privado
  6
BYLAYER
 66
1
 70
1
 40
0.000000
 41
0.000000
  0
VERTEX
  8
estabelecimento_escolar_privado
 10
-9.345825
 20
38.702620
  0
VERTEX
  8
estabelecimento_escolar_privado
 10
-9.345798
 20
38.702642
  0
VERTEX
  8
estabelecimento_escolar_privado
 10
-9.345551
 20
38.702700
  0
VERTEX
  8
estabelecimento_escolar_privado
 10
-9.345435
 20
38.702768
  0
VERTEX
  8
estabelecimento_escolar_privado
 10
-9.345365
 20
38.702786
  0
VERTEX
  8
estabelecimento_escolar_privado
 10
-9.345337
 20
38.702780
  0
VERTEX
  8
estabelecimento_escolar_privado
 10
-9.345321
 20
38.702765
  0
VERTEX
  8
estabelecimento_escolar_privado
 10
-9.345313
 20
38.702695
  0
VERTEX
  8
estabelecimento_escolar_privado
 10
-9.345305
 20
38.702631
  0
VERTEX
  8
estabelecimento_escolar_privado
 10
-9.345284
 20
38.702629
  0
VERTEX
  8
estabelecimento_escolar_privado
 10
-9.345266
 20
38.702507
  0
VERTEX
  8
estabelecimento_escolar_privado
 10
-9.345868
 20
38.702460
  0
VERTEX
  8
estabelecimento_escolar_privado
 10
-9.345825
 20
38.702620
  0
SEQEND
  0
POLYLINE
  8
estabelecimento_escolar_privado
  6
BYLAYER
 66
1
 70
1
 40
0.000000
 41
0.000000
  0
VERTEX
  8
estabelecimento_escolar_privado
 10
-9.325889
 20
38.705799
  0
VERTEX
  8
estabelecimento_escolar_privado
 10
-9.325823
 20
38.705816
  0
VERTEX
  8
estabelecimento_escolar_privado
 10
-9.325776
 20
38.705828
  0
VERTEX
  8
estabelecimento_escolar_privado
 10
-9.325744
 20
38.705837
  0
VERTEX
  8
estabelecimento_escolar_privado
 10
-9.325677
 20
38.705847
  0
VERTEX
  8
estabelecimento_escolar_privado
 10
-9.325605
 20
38.705856
  0
VERTEX
  8
estabelecimento_escolar_privado
 10
-9.325602
 20
38.705855
  0
VERTEX
  8
estabelecimento_escolar_privado
 10
-9.325568
 20
38.705859
  0
VERTEX
  8
estabelecimento_escolar_privado
 10
-9.325555
 20
38.705860
  0
VERTEX
  8
estabelecimento_escolar_privado
 10
-9.325551
 20
38.705861
  0
VERTEX
  8
estabelecimento_escolar_privado
 10
-9.325532
 20
38.705863
  0
VERTEX
  8
estabelecimento_escolar_privado
 10
-9.325494
 20
38.705867
  0
VERTEX
  8
estabelecimento_escolar_privado
 10
-9.325485
 20
38.705849
  0
VERTEX
  8
estabelecimento_escolar_privado
 10
-9.325470
 20
38.705813
  0
VERTEX
  8
estabelecimento_escolar_privado
 10
-9.325462
 20
38.705797
  0
VERTEX
  8
estabelecimento_escolar_privado
 10
-9.325426
 20
38.705715
  0
VERTEX
  8
estabelecimento_escolar_privado
 10
-9.325404
 20
38.705666
  0
VERTEX
  8
estabelecimento_escolar_privado
 10
-9.325432
 20
38.705662
  0
VERTEX
  8
estabelecimento_escolar_privado
 10
-9.325471
 20
38.705658
  0
VERTEX
  8
estabelecimento_escolar_privado
 10
-9.325492
 20
38.705656
  0
VERTEX
  8
estabelecimento_escolar_privado
 10
-9.325486
 20
38.705639
  0
VERTEX
  8
estabelecimento_escolar_privado
 10
-9.325471
 20
38.705599
  0
VERTEX
  8
estabelecimento_escolar_privado
 10
-9.325509
 20
38.705588
  0
VERTEX
  8
estabelecimento_escolar_privado
 10
-9.325493
 20
38.705541
  0
VERTEX
  8
estabelecimento_escolar_privado
 10
-9.325532
 20
38.705539
  0
VERTEX
  8
estabelecimento_escolar_privado
 10
-9.325553
 20
38.705538
  0
VERTEX
  8
estabelecimento_escolar_privado
 10
-9.325825
 20
38.705524
  0
VERTEX
  8
estabelecimento_escolar_privado
 10
-9.325889
 20
38.705799
  0
SEQEND
  0
POLYLINE
  8
estabelecimento_escolar_privado
  6
BYLAYER
 66
1
 70
1
 40
0.000000
 41
0.000000
  0
VERTEX
  8
estabelecimento_escolar_privado
 10
-9.419020
 20
38.704302
  0
VERTEX
  8
estabelecimento_escolar_privado
 10
-9.419012
 20
38.704528
  0
VERTEX
  8
estabelecimento_escolar_privado
 10
-9.418457
 20
38.704516
  0
VERTEX
  8
estabelecimento_escolar_privado
 10
-9.418560
 20
38.704293
  0
VERTEX
  8
estabelecimento_escolar_privado
 10
-9.418663
 20
38.704296
  0
VERTEX
  8
estabelecimento_escolar_privado
 10
-9.419020
 20
38.704302
  0
SEQEND
  0
POLYLINE
  8
estabelecimento_escolar_privado
  6
BYLAYER
 66
1
 70
1
 40
0.000000
 41
0.000000
  0
VERTEX
  8
estabelecimento_escolar_privado
 10
-9.338701
 20
38.690720
  0
VERTEX
  8
estabelecimento_escolar_privado
 10
-9.338701
 20
38.690789
  0
VERTEX
  8
estabelecimento_escolar_privado
 10
-9.338659
 20
38.690791
  0
VERTEX
  8
estabelecimento_escolar_privado
 10
-9.338456
 20
38.690791
  0
VERTEX
  8
estabelecimento_escolar_privado
 10
-9.338381
 20
38.690792
  0
VERTEX
  8
estabelecimento_escolar_privado
 10
-9.338378
 20
38.690642
  0
VERTEX
  8
estabelecimento_escolar_privado
 10
-9.338378
 20
38.690618
  0
VERTEX
  8
estabelecimento_escolar_privado
 10
-9.338378
 20
38.690438
  0
VERTEX
  8
estabelecimento_escolar_privado
 10
-9.338391
 20
38.690437
  0
VERTEX
  8
estabelecimento_escolar_privado
 10
-9.338421
 20
38.690437
  0
VERTEX
  8
estabelecimento_escolar_privado
 10
-9.338437
 20
38.690437
  0
VERTEX
  8
estabelecimento_escolar_privado
 10
-9.338445
 20
38.690437
  0
VERTEX
  8
estabelecimento_escolar_privado
 10
-9.338701
 20
38.690434
  0
VERTEX
  8
estabelecimento_escolar_privado
 10
-9.338701
 20
38.690720
  0
SEQEND
  0
POLYLINE
  8
estabelecimento_escolar_privado
  6
BYLAYER
 66
1
 70
1
 40
0.000000
 41
0.000000
  0
VERTEX
  8
estabelecimento_escolar_privado
 10
-9.386194
 20
38.703581
  0
VERTEX
  8
estabelecimento_escolar_privado
 10
-9.386114
 20
38.703585
  0
VERTEX
  8
estabelecimento_escolar_privado
 10
-9.386096
 20
38.703586
  0
VERTEX
  8
estabelecimento_escolar_privado
 10
-9.385970
 20
38.703588
  0
VERTEX
  8
estabelecimento_escolar_privado
 10
-9.385789
 20
38.703585
  0
VERTEX
  8
estabelecimento_escolar_privado
 10
-9.385802
 20
38.703489
  0
VERTEX
  8
estabelecimento_escolar_privado
 10
-9.385803
 20
38.703482
  0
VERTEX
  8
estabelecimento_escolar_privado
 10
-9.385814
 20
38.703397
  0
VERTEX
  8
estabelecimento_escolar_privado
 10
-9.385815
 20
38.703391
  0
VERTEX
  8
estabelecimento_escolar_privado
 10
-9.385825
 20
38.703359
  0
VERTEX
  8
estabelecimento_escolar_privado
 10
-9.385833
 20
38.703339
  0
VERTEX
  8
estabelecimento_escolar_privado
 10
-9.385846
 20
38.703328
  0
VERTEX
  8
estabelecimento_escolar_privado
 10
-9.385858
 20
38.703324
  0
VERTEX
  8
estabelecimento_escolar_privado
 10
-9.386035
 20
38.703292
  0
VERTEX
  8
estabelecimento_escolar_privado
 10
-9.386045
 20
38.703290
  0
VERTEX
  8
estabelecimento_escolar_privado
 10
-9.386065
 20
38.703286
  0
VERTEX
  8
estabelecimento_escolar_privado
 10
-9.386094
 20
38.703281
  0
VERTEX
  8
estabelecimento_escolar_privado
 10
-9.386118
 20
38.703277
  0
VERTEX
  8
estabelecimento_escolar_privado
 10
-9.386166
 20
38.703271
  0
VERTEX
  8
estabelecimento_escolar_privado
 10
-9.386180
 20
38.703417
  0
VERTEX
  8
estabelecimento_escolar_privado
 10
-9.386181
 20
38.703449
  0
VERTEX
  8
estabelecimento_escolar_privado
 10
-9.386181
 20
38.703472
  0
VERTEX
  8
estabelecimento_escolar_privado
 10
-9.386115
 20
38.703475
  0
VERTEX
  8
estabelecimento_escolar_privado
 10
-9.386122
 20
38.703556
  0
VERTEX
  8
estabelecimento_escolar_privado
 10
-9.386190
 20
38.703552
  0
VERTEX
  8
estabelecimento_escolar_privado
 10
-9.386194
 20
38.703581
  0
SEQEND
  0
POLYLINE
  8
estabelecimento_escolar_privado
  6
BYLAYER
 66
1
 70
1
 40
0.000000
 41
0.000000
  0
VERTEX
  8
estabelecimento_escolar_privado
 10
-9.432079
 20
38.701468
  0
VERTEX
  8
estabelecimento_escolar_privado
 10
-9.432054
 20
38.701443
  0
VERTEX
  8
estabelecimento_escolar_privado
 10
-9.432023
 20
38.701421
  0
VERTEX
  8
estabelecimento_escolar_privado
 10
-9.431993
 20
38.701402
  0
VERTEX
  8
estabelecimento_escolar_privado
 10
-9.431944
 20
38.701378
  0
VERTEX
  8
estabelecimento_escolar_privado
 10
-9.432138
 20
38.701077
  0
VERTEX
  8
estabelecimento_escolar_privado
 10
-9.432242
 20
38.700921
  0
VERTEX
  8
estabelecimento_escolar_privado
 10
-9.432652
 20
38.701189
  0
VERTEX
  8
estabelecimento_escolar_privado
 10
-9.432499
 20
38.701258
  0
VERTEX
  8
estabelecimento_escolar_privado
 10
-9.432079
 20
38.701468
  0
SEQEND
  0
POLYLINE
  8
estabelecimento_escolar_privado
  6
BYLAYER
 66
1
 70
1
 40
0.000000
 41
0.000000
  0
VERTEX
  8
estabelecimento_escolar_privado
 10
-9.384724
 20
38.734961
  0
VERTEX
  8
estabelecimento_escolar_privado
 10
-9.384472
 20
38.735024
  0
VERTEX
  8
estabelecimento_escolar_privado
 10
-9.384449
 20
38.734953
  0
VERTEX
  8
estabelecimento_escolar_privado
 10
-9.384206
 20
38.735043
  0
VERTEX
  8
estabelecimento_escolar_privado
 10
-9.384102
 20
38.735046
  0
VERTEX
  8
estabelecimento_escolar_privado
 10
-9.383911
 20
38.734777
  0
VERTEX
  8
estabelecimento_escolar_privado
 10
-9.384531
 20
38.734584
  0
VERTEX
  8
estabelecimento_escolar_privado
 10
-9.384724
 20
38.734961
  0
SEQEND
  0
POLYLINE
  8
estabelecimento_escolar_privado
  6
BYLAYER
 66
1
 70
1
 40
0.000000
 41
0.000000
  0
VERTEX
  8
estabelecimento_escolar_privado
 10
-9.439875
 20
38.701760
  0
VERTEX
  8
estabelecimento_escolar_privado
 10
-9.439409
 20
38.701821
  0
VERTEX
  8
estabelecimento_escolar_privado
 10
-9.439296
 20
38.701331
  0
VERTEX
  8
estabelecimento_escolar_privado
 10
-9.439248
 20
38.701124
  0
VERTEX
  8
estabelecimento_escolar_privado
 10
-9.439744
 20
38.701061
  0
VERTEX
  8
estabelecimento_escolar_privado
 10
-9.439875
 20
38.701760
  0
SEQEND
  0
POLYLINE
  8
estabelecimento_escolar_privado
  6
BYLAYER
 66
1
 70
1
 40
0.000000
 41
0.000000
  0
VERTEX
  8
estabelecimento_escolar_privado
 10
-9.370488
 20
38.706723
  0
VERTEX
  8
estabelecimento_escolar_privado
 10
-9.369495
 20
38.707568
  0
VERTEX
  8
estabelecimento_escolar_privado
 10
-9.369077
 20
38.707497
  0
VERTEX
  8
estabelecimento_escolar_privado
 10
-9.369147
 20
38.707070
  0
VERTEX
  8
estabelecimento_escolar_privado
 10
-9.369528
 20
38.706614
  0
VERTEX
  8
estabelecimento_escolar_privado
 10
-9.369973
 20
38.706622
  0
VERTEX
  8
estabelecimento_escolar_privado
 10
-9.370091
 20
38.706534
  0
VERTEX
  8
estabelecimento_escolar_privado
 10
-9.370488
 20
38.706723
  0
SEQEND
  0
POLYLINE
  8
estabelecimento_escolar_privado
  6
BYLAYER
 66
1
 70
1
 40
0.000000
 41
0.000000
  0
VERTEX
  8
estabelecimento_escolar_privado
 10
-9.326831
 20
38.682065
  0
VERTEX
  8
estabelecimento_escolar_privado
 10
-9.326802
 20
38.682087
  0
VERTEX
  8
estabelecimento_escolar_privado
 10
-9.326783
 20
38.682070
  0
VERTEX
  8
estabelecimento_escolar_privado
 10
-9.326754
 20
38.682091
  0
VERTEX
  8
estabelecimento_escolar_privado
 10
-9.326644
 20
38.681993
  0
VERTEX
  8
estabelecimento_escolar_privado
 10
-9.326685
 20
38.681963
  0
VERTEX
  8
estabelecimento_escolar_privado
 10
-9.326679
 20
38.681957
  0
VERTEX
  8
estabelecimento_escolar_privado
 10
-9.326707
 20
38.681937
  0
VERTEX
  8
estabelecimento_escolar_privado
 10
-9.326842
 20
38.682057
  0
VERTEX
  8
estabelecimento_escolar_privado
 10
-9.326831
 20
38.682065
  0
SEQEND
  0
POLYLINE
  8
estabelecimento_escolar_privado
  6
BYLAYER
 66
1
 70
1
 40
0.000000
 41
0.000000
  0
VERTEX
  8
estabelecimento_escolar_privado
 10
-9.332806
 20
38.714365
  0
VERTEX
  8
estabelecimento_escolar_privado
 10
-9.332616
 20
38.714474
  0
VERTEX
  8
estabelecimento_escolar_privado
 10
-9.332514
 20
38.714363
  0
VERTEX
  8
estabelecimento_escolar_privado
 10
-9.332753
 20
38.714259
  0
VERTEX
  8
estabelecimento_escolar_privado
 10
-9.332806
 20
38.714365
  0
SEQEND
  0
POLYLINE
  8
estabelecimento_escolar_privado
  6
BYLAYER
 66
1
 70
1
 40
0.000000
 41
0.000000
  0
VERTEX
  8
estabelecimento_escolar_privado
 10
-9.406538
 20
38.730917
  0
VERTEX
  8
estabelecimento_escolar_privado
 10
-9.406562
 20
38.730972
  0
VERTEX
  8
estabelecimento_escolar_privado
 10
-9.406545
 20
38.730982
  0
VERTEX
  8
estabelecimento_escolar_privado
 10
-9.406530
 20
38.730975
  0
VERTEX
  8
estabelecimento_escolar_privado
 10
-9.406435
 20
38.731085
  0
VERTEX
  8
estabelecimento_escolar_privado
 10
-9.406195
 20
38.730781
  0
VERTEX
  8
estabelecimento_escolar_privado
 10
-9.406015
 20
38.730578
  0
VERTEX
  8
estabelecimento_escolar_privado
 10
-9.406222
 20
38.730430
  0
VERTEX
  8
estabelecimento_escolar_privado
 10
-9.406300
 20
38.730457
  0
VERTEX
  8
estabelecimento_escolar_privado
 10
-9.406538
 20
38.730917
  0
SEQEND
  0
POLYLINE
  8
estabelecimento_escolar_privado
  6
BYLAYER
 66
1
 70
1
 40
0.000000
 41
0.000000
  0
VERTEX
  8
estabelecimento_escolar_privado
 10
-9.331069
 20
38.713724
  0
VERTEX
  8
estabelecimento_escolar_privado
 10
-9.330921
 20
38.713873
  0
VERTEX
  8
estabelecimento_escolar_privado
 10
-9.330857
 20
38.713834
  0
VERTEX
  8
estabelecimento_escolar_privado
 10
-9.330689
 20
38.713795
  0
VERTEX
  8
estabelecimento_escolar_privado
 10
-9.330880
 20
38.713603
  0
VERTEX
  8
estabelecimento_escolar_privado
 10
-9.331069
 20
38.713724
  0
SEQEND
  0
POLYLINE
  8
estabelecimento_escolar_privado
  6
BYLAYER
 66
1
 70
1
 40
0.000000
 41
0.000000
  0
VERTEX
  8
estabelecimento_escolar_privado
 10
-9.356860
 20
38.697750
  0
VERTEX
  8
estabelecimento_escolar_privado
 10
-9.356648
 20
38.697905
  0
VERTEX
  8
estabelecimento_escolar_privado
 10
-9.356533
 20
38.697849
  0
VERTEX
  8
estabelecimento_escolar_privado
 10
-9.356580
 20
38.697690
  0
VERTEX
  8
estabelecimento_escolar_privado
 10
-9.356654
 20
38.697627
  0
VERTEX
  8
estabelecimento_escolar_privado
 10
-9.356676
 20
38.697624
  0
VERTEX
  8
estabelecimento_escolar_privado
 10
-9.356698
 20
38.697619
  0
VERTEX
  8
estabelecimento_escolar_privado
 10
-9.356723
 20
38.697626
  0
VERTEX
  8
estabelecimento_escolar_privado
 10
-9.356739
 20
38.697637
  0
VERTEX
  8
estabelecimento_escolar_privado
 10
-9.356860
 20
38.697750
  0
SEQEND
  0
POLYLINE
  8
estabelecimento_escolar_privado
  6
BYLAYER
 66
1
 70
1
 40
0.000000
 41
0.000000
  0
VERTEX
  8
estabelecimento_escolar_privado
 10
-9.348314
 20
38.717109
  0
VERTEX
  8
estabelecimento_escolar_privado
 10
-9.348240
 20
38.717215
  0
VERTEX
  8
estabelecimento_escolar_privado
 10
-9.348166
 20
38.717184
  0
VERTEX
  8
estabelecimento_escolar_privado
 10
-9.348161
 20
38.717191
  0
VERTEX
  8
estabelecimento_escolar_privado
 10
-9.348085
 20
38.717158
  0
VERTEX
  8
estabelecimento_escolar_privado
 10
-9.348186
 20
38.717028
  0
VERTEX
  8
estabelecimento_escolar_privado
 10
-9.348314
 20
38.717109
  0
SEQEND
  0
POLYLINE
  8
estabelecimento_escolar_privado
  6
BYLAYER
 66
1
 70
1
 40
0.000000
 41
0.000000
  0
VERTEX
  8
estabelecimento_escolar_privado
 10
-9.406347
 20
38.706161
  0
VERTEX
  8
estabelecimento_escolar_privado
 10
-9.406178
 20
38.706220
  0
VERTEX
  8
estabelecimento_escolar_privado
 10
-9.405989
 20
38.706015
  0
VERTEX
  8
estabelecimento_escolar_privado
 10
-9.406097
 20
38.705936
  0
VERTEX
  8
estabelecimento_escolar_privado
 10
-9.406314
 20
38.705694
  0
VERTEX
  8
estabelecimento_escolar_privado
 10
-9.406628
 20
38.705914
  0
VERTEX
  8
estabelecimento_escolar_privado
 10
-9.406347
 20
38.706161
  0
SEQEND
  0
POLYLINE
  8
estabelecimento_escolar_privado
  6
BYLAYER
 66
1
 70
1
 40
0.000000
 41
0.000000
  0
VERTEX
  8
estabelecimento_escolar_privado
 10
-9.369477
 20
38.694611
  0
VERTEX
  8
estabelecimento_escolar_privado
 10
-9.367865
 20
38.694012
  0
VERTEX
  8
estabelecimento_escolar_privado
 10
-9.368103
 20
38.693602
  0
VERTEX
  8
estabelecimento_escolar_privado
 10
-9.369085
 20
38.693998
  0
VERTEX
  8
estabelecimento_escolar_privado
 10
-9.369399
 20
38.694097
  0
VERTEX
  8
estabelecimento_escolar_privado
 10
-9.369713
 20
38.694176
  0
VERTEX
  8
estabelecimento_escolar_privado
 10
-9.369477
 20
38.694611
  0
SEQEND
  0
POLYLINE
  8
estabelecimento_escolar_privado
  6
BYLAYER
 66
1
 70
1
 40
0.000000
 41
0.000000
  0
VERTEX
  8
estabelecimento_escolar_privado
 10
-9.423920
 20
38.706675
  0
VERTEX
  8
estabelecimento_escolar_privado
 10
-9.423717
 20
38.706757
  0
VERTEX
  8
estabelecimento_escolar_privado
 10
-9.423652
 20
38.706482
  0
VERTEX
  8
estabelecimento_escolar_privado
 10
-9.423864
 20
38.706433
  0
VERTEX
  8
estabelecimento_escolar_privado
 10
-9.423920
 20
38.706675
  0
SEQEND
  0
POLYLINE
  8
estabelecimento_escolar_privado
  6
BYLAYER
 66
1
 70
1
 40
0.000000
 41
0.000000
  0
VERTEX
  8
estabelecimento_escolar_privado
 10
-9.337221
 20
38.691967
  0
VERTEX
  8
estabelecimento_escolar_privado
 10
-9.337095
 20
38.691971
  0
VERTEX
  8
estabelecimento_escolar_privado
 10
-9.337099
 20
38.691741
  0
VERTEX
  8
estabelecimento_escolar_privado
 10
-9.337238
 20
38.691745
  0
VERTEX
  8
estabelecimento_escolar_privado
 10
-9.337221
 20
38.691967
  0
SEQEND
  0
POLYLINE
  8
estabelecimento_escolar_privado
  6
BYLAYER
 66
1
 70
1
 40
0.000000
 41
0.000000
  0
VERTEX
  8
estabelecimento_escolar_privado
 10
-9.324464
 20
38.729289
  0
VERTEX
  8
estabelecimento_escolar_privado
 10
-9.324409
 20
38.729114
  0
VERTEX
  8
estabelecimento_escolar_privado
 10
-9.324398
 20
38.729097
  0
VERTEX
  8
estabelecimento_escolar_privado
 10
-9.324422
 20
38.729086
  0
VERTEX
  8
estabelecimento_escolar_privado
 10
-9.324637
 20
38.728979
  0
VERTEX
  8
estabelecimento_escolar_privado
 10
-9.324748
 20
38.729259
  0
VERTEX
  8
estabelecimento_escolar_privado
 10
-9.324464
 20
38.729289
  0
SEQEND
  0
POLYLINE
  8
estabelecimento_escolar_privado
  6
BYLAYER
 66
1
 70
1
 40
0.000000
 41
0.000000
  0
VERTEX
  8
estabelecimento_escolar_privado
 10
-9.334817
 20
38.718527
  0
VERTEX
  8
estabelecimento_escolar_privado
 10
-9.334600
 20
38.718575
  0
VERTEX
  8
estabelecimento_escolar_privado
 10
-9.334517
 20
38.718470
  0
VERTEX
  8
estabelecimento_escolar_privado
 10
-9.334514
 20
38.718387
  0
VERTEX
  8
estabelecimento_escolar_privado
 10
-9.334546
 20
38.718397
  0
VERTEX
  8
estabelecimento_escolar_privado
 10
-9.334743
 20
38.718349
  0
VERTEX
  8
estabelecimento_escolar_privado
 10
-9.334817
 20
38.718527
  0
SEQEND
  0
POLYLINE
  8
estabelecimento_escolar_privado
  6
BYLAYER
 66
1
 70
1
 40
0.000000
 41
0.000000
  0
VERTEX
  8
estabelecimento_escolar_privado
 10
-9.327487
 20
38.707528
  0
VERTEX
  8
estabelecimento_escolar_privado
 10
-9.327454
 20
38.707529
  0
VERTEX
  8
estabelecimento_escolar_privado
 10
-9.327430
 20
38.707545
  0
VERTEX
  8
estabelecimento_escolar_privado
 10
-9.327388
 20
38.707475
  0
VERTEX
  8
estabelecimento_escolar_privado
 10
-9.327384
 20
38.707173
  0
VERTEX
  8
estabelecimento_escolar_privado
 10
-9.327489
 20
38.707172
  0
VERTEX
  8
estabelecimento_escolar_privado
 10
-9.327487
 20
38.707528
  0
SEQEND
  0
POLYLINE
  8
estabelecimento_escolar_privado
  6
BYLAYER
 66
1
 70
1
 40
0.000000
 41
0.000000
  0
VERTEX
  8
estabelecimento_escolar_privado
 10
-9.434780
 20
38.711015
  0
VERTEX
  8
estabelecimento_escolar_privado
 10
-9.434544
 20
38.710779
  0
VERTEX
  8
estabelecimento_escolar_privado
 10
-9.434830
 20
38.710606
  0
VERTEX
  8
estabelecimento_escolar_privado
 10
-9.434865
 20
38.710637
  0
VERTEX
  8
estabelecimento_escolar_privado
 10
-9.435003
 20
38.710703
  0
VERTEX
  8
estabelecimento_escolar_privado
 10
-9.435123
 20
38.710800
  0
VERTEX
  8
estabelecimento_escolar_privado
 10
-9.434780
 20
38.711015
  0
SEQEND
  0
POLYLINE
  8
estabelecimento_escolar_privado
  6
BYLAYER
 66
1
 70
1
 40
0.000000
 41
0.000000
  0
VERTEX
  8
estabelecimento_escolar_privado
 10
-9.436067
 20
38.719960
  0
VERTEX
  8
estabelecimento_escolar_privado
 10
-9.435933
 20
38.719627
  0
VERTEX
  8
estabelecimento_escolar_privado
 10
-9.436974
 20
38.719537
  0
VERTEX
  8
estabelecimento_escolar_privado
 10
-9.437390
 20
38.719368
  0
VERTEX
  8
estabelecimento_escolar_privado
 10
-9.437473
 20
38.719697
  0
VERTEX
  8
estabelecimento_escolar_privado
 10
-9.436067
 20
38.719960
  0
SEQEND
  0
ENDSEC
  0
EOF
