  0
SECTION
  2
HEADER
  9
$LTSCALE
 40
1.000000
  9
$LUNITS
 70
2
  9
$LUPREC
 70
4
  9
$AUNITS
 70
1
  9
$AUPREC
 70
4
  9
$FILLMODE
 70
1
  0
ENDSEC
  0
SECTION
  2
TABLES
  0
TABLE
  2
VPORT
 70
0
  0
ENDTAB
  0
TABLE
  2
LTYPE
 70
1
  0
LTYPE
  2
CONTINUOUS
 70
64
  3
Solid line
 72
65
 73
0
 40
0.000000
  0
ENDTAB
  0
TABLE
  2
LAYER
 70
1
  0
LAYER
  2
0
 62
1
  6
CONTINUOUS
 70
64
  0
ENDTAB
  0
TABLE
  2
STYLE
 70
1
  0
STYLE
  2
STANDARD
 70
64
 40
0.000000
 41
1.000000
 50
0.000000
 71
0
 42
2.000000
  3
txt
  4

  0
ENDTAB
  0
TABLE
  2
VIEW
 70
0
  0
ENDTAB
  0
TABLE
  2
UCS
 70
0
  0
ENDTAB
  0
TABLE
  2
APPID
 70
0
  0
ENDTAB
  0
TABLE
  2
DIMSTYLE
 70
1
  0
DIMSTYLE
  2
STANDARD
 70
0
  3

  4

  5

  6

  7

 40
1.000000
 41
3.000000
 42
2.500000
 43
10.000000
 44
2.500000
 45
0.000000
 46
1.250000
 47
0.000000
 48
0.000000
140
3.000000
141
-3.000000
142
0.000000
143
0.039000
144
1.000000
145
1.500000
146
0.750000
147
1.500000
 71
0
 72
0
 73
0
 74
0
 75
0
 76
0
 77
0
 78
0
170
0
171
0
172
0
173
0
174
0
175
0
176
0
177
0
178
0
  0
ENDTAB
  0
ENDSEC
  0
SECTION
  2
ENTITIES
  0
POLYLINE
  8
sensibilidade_ambiental
  6
BYLAYER
 66
1
 70
0
 40
0.000000
 41
0.000000
  0
VERTEX
  8
sensibilidade_ambiental
 10
-9.472452
 20
38.736909
  0
VERTEX
  8
sensibilidade_ambiental
 10
-9.472544
 20
38.736505
  0
VERTEX
  8
sensibilidade_ambiental
 10
-9.472746
 20
38.736068
  0
VERTEX
  8
sensibilidade_ambiental
 10
-9.473101
 20
38.735479
  0
VERTEX
  8
sensibilidade_ambiental
 10
-9.473317
 20
38.734770
  0
VERTEX
  8
sensibilidade_ambiental
 10
-9.473328
 20
38.734736
  0
VERTEX
  8
sensibilidade_ambiental
 10
-9.473347
 20
38.734675
  0
VERTEX
  8
sensibilidade_ambiental
 10
-9.473371
 20
38.734087
  0
VERTEX
  8
sensibilidade_ambiental
 10
-9.473445
 20
38.733534
  0
VERTEX
  8
sensibilidade_ambiental
 10
-9.473533
 20
38.732982
  0
VERTEX
  8
sensibilidade_ambiental
 10
-9.473628
 20
38.732796
  0
VERTEX
  8
sensibilidade_ambiental
 10
-9.473782
 20
38.732641
  0
VERTEX
  8
sensibilidade_ambiental
 10
-9.473916
 20
38.732424
  0
VERTEX
  8
sensibilidade_ambiental
 10
-9.474124
 20
38.732127
  0
VERTEX
  8
sensibilidade_ambiental
 10
-9.474257
 20
38.731878
  0
VERTEX
  8
sensibilidade_ambiental
 10
-9.474375
 20
38.731637
  0
VERTEX
  8
sensibilidade_ambiental
 10
-9.474404
 20
38.731561
  0
VERTEX
  8
sensibilidade_ambiental
 10
-9.474420
 20
38.731541
  0
VERTEX
  8
sensibilidade_ambiental
 10
-9.474462
 20
38.731488
  0
VERTEX
  8
sensibilidade_ambiental
 10
-9.474519
 20
38.731417
  0
VERTEX
  8
sensibilidade_ambiental
 10
-9.474557
 20
38.731282
  0
VERTEX
  8
sensibilidade_ambiental
 10
-9.474733
 20
38.730889
  0
VERTEX
  8
sensibilidade_ambiental
 10
-9.474762
 20
38.730789
  0
VERTEX
  8
sensibilidade_ambiental
 10
-9.474814
 20
38.730573
  0
VERTEX
  8
sensibilidade_ambiental
 10
-9.474820
 20
38.730397
  0
VERTEX
  8
sensibilidade_ambiental
 10
-9.474823
 20
38.730238
  0
VERTEX
  8
sensibilidade_ambiental
 10
-9.474816
 20
38.730126
  0
VERTEX
  8
sensibilidade_ambiental
 10
-9.474887
 20
38.730020
  0
SEQEND
  0
POLYLINE
  8
sensibilidade_ambiental
  6
BYLAYER
 66
1
 70
0
 40
0.000000
 41
0.000000
  0
VERTEX
  8
sensibilidade_ambiental
 10
-9.478924
 20
38.721687
  0
VERTEX
  8
sensibilidade_ambiental
 10
-9.478864
 20
38.721657
  0
VERTEX
  8
sensibilidade_ambiental
 10
-9.478822
 20
38.721618
  0
VERTEX
  8
sensibilidade_ambiental
 10
-9.478801
 20
38.721575
  0
VERTEX
  8
sensibilidade_ambiental
 10
-9.478728
 20
38.721525
  0
VERTEX
  8
sensibilidade_ambiental
 10
-9.478693
 20
38.721462
  0
VERTEX
  8
sensibilidade_ambiental
 10
-9.478632
 20
38.721409
  0
VERTEX
  8
sensibilidade_ambiental
 10
-9.478581
 20
38.721358
  0
VERTEX
  8
sensibilidade_ambiental
 10
-9.478515
 20
38.721266
  0
VERTEX
  8
sensibilidade_ambiental
 10
-9.478485
 20
38.721170
  0
VERTEX
  8
sensibilidade_ambiental
 10
-9.478498
 20
38.721084
  0
VERTEX
  8
sensibilidade_ambiental
 10
-9.478548
 20
38.720974
  0
VERTEX
  8
sensibilidade_ambiental
 10
-9.478626
 20
38.720929
  0
VERTEX
  8
sensibilidade_ambiental
 10
-9.478786
 20
38.720903
  0
VERTEX
  8
sensibilidade_ambiental
 10
-9.478842
 20
38.720873
  0
VERTEX
  8
sensibilidade_ambiental
 10
-9.478869
 20
38.720858
  0
VERTEX
  8
sensibilidade_ambiental
 10
-9.478890
 20
38.720836
  0
VERTEX
  8
sensibilidade_ambiental
 10
-9.478906
 20
38.720812
  0
VERTEX
  8
sensibilidade_ambiental
 10
-9.478937
 20
38.720769
  0
VERTEX
  8
sensibilidade_ambiental
 10
-9.478954
 20
38.720739
  0
VERTEX
  8
sensibilidade_ambiental
 10
-9.478969
 20
38.720703
  0
VERTEX
  8
sensibilidade_ambiental
 10
-9.478978
 20
38.720664
  0
VERTEX
  8
sensibilidade_ambiental
 10
-9.478992
 20
38.720601
  0
VERTEX
  8
sensibilidade_ambiental
 10
-9.479019
 20
38.720534
  0
VERTEX
  8
sensibilidade_ambiental
 10
-9.479060
 20
38.720464
  0
VERTEX
  8
sensibilidade_ambiental
 10
-9.479081
 20
38.720411
  0
VERTEX
  8
sensibilidade_ambiental
 10
-9.479118
 20
38.720336
  0
VERTEX
  8
sensibilidade_ambiental
 10
-9.479159
 20
38.720220
  0
VERTEX
  8
sensibilidade_ambiental
 10
-9.479181
 20
38.720119
  0
VERTEX
  8
sensibilidade_ambiental
 10
-9.479206
 20
38.720040
  0
VERTEX
  8
sensibilidade_ambiental
 10
-9.479233
 20
38.719968
  0
VERTEX
  8
sensibilidade_ambiental
 10
-9.479271
 20
38.719912
  0
VERTEX
  8
sensibilidade_ambiental
 10
-9.479306
 20
38.719850
  0
VERTEX
  8
sensibilidade_ambiental
 10
-9.479354
 20
38.719797
  0
VERTEX
  8
sensibilidade_ambiental
 10
-9.479434
 20
38.719764
  0
VERTEX
  8
sensibilidade_ambiental
 10
-9.479520
 20
38.719758
  0
VERTEX
  8
sensibilidade_ambiental
 10
-9.479561
 20
38.719768
  0
VERTEX
  8
sensibilidade_ambiental
 10
-9.479624
 20
38.719771
  0
SEQEND
  0
POLYLINE
  8
sensibilidade_ambiental
  6
BYLAYER
 66
1
 70
0
 40
0.000000
 41
0.000000
  0
VERTEX
  8
sensibilidade_ambiental
 10
-9.479624
 20
38.719771
  0
VERTEX
  8
sensibilidade_ambiental
 10
-9.479676
 20
38.719758
  0
VERTEX
  8
sensibilidade_ambiental
 10
-9.479713
 20
38.719746
  0
VERTEX
  8
sensibilidade_ambiental
 10
-9.479783
 20
38.719698
  0
VERTEX
  8
sensibilidade_ambiental
 10
-9.479823
 20
38.719648
  0
VERTEX
  8
sensibilidade_ambiental
 10
-9.479877
 20
38.719573
  0
VERTEX
  8
sensibilidade_ambiental
 10
-9.479875
 20
38.719483
  0
VERTEX
  8
sensibilidade_ambiental
 10
-9.479901
 20
38.719414
  0
VERTEX
  8
sensibilidade_ambiental
 10
-9.479968
 20
38.719373
  0
VERTEX
  8
sensibilidade_ambiental
 10
-9.480014
 20
38.719323
  0
VERTEX
  8
sensibilidade_ambiental
 10
-9.480101
 20
38.719265
  0
VERTEX
  8
sensibilidade_ambiental
 10
-9.480125
 20
38.719223
  0
VERTEX
  8
sensibilidade_ambiental
 10
-9.480205
 20
38.719192
  0
VERTEX
  8
sensibilidade_ambiental
 10
-9.480329
 20
38.719172
  0
VERTEX
  8
sensibilidade_ambiental
 10
-9.480444
 20
38.719171
  0
VERTEX
  8
sensibilidade_ambiental
 10
-9.480601
 20
38.719160
  0
VERTEX
  8
sensibilidade_ambiental
 10
-9.480632
 20
38.719131
  0
VERTEX
  8
sensibilidade_ambiental
 10
-9.480661
 20
38.719023
  0
VERTEX
  8
sensibilidade_ambiental
 10
-9.480659
 20
38.718953
  0
VERTEX
  8
sensibilidade_ambiental
 10
-9.480687
 20
38.718812
  0
VERTEX
  8
sensibilidade_ambiental
 10
-9.480665
 20
38.718775
  0
VERTEX
  8
sensibilidade_ambiental
 10
-9.480669
 20
38.718730
  0
VERTEX
  8
sensibilidade_ambiental
 10
-9.480826
 20
38.718655
  0
VERTEX
  8
sensibilidade_ambiental
 10
-9.481041
 20
38.718601
  0
VERTEX
  8
sensibilidade_ambiental
 10
-9.481083
 20
38.718568
  0
VERTEX
  8
sensibilidade_ambiental
 10
-9.481135
 20
38.718508
  0
VERTEX
  8
sensibilidade_ambiental
 10
-9.481288
 20
38.718442
  0
VERTEX
  8
sensibilidade_ambiental
 10
-9.481398
 20
38.718330
  0
VERTEX
  8
sensibilidade_ambiental
 10
-9.481377
 20
38.718286
  0
VERTEX
  8
sensibilidade_ambiental
 10
-9.481228
 20
38.718178
  0
VERTEX
  8
sensibilidade_ambiental
 10
-9.481144
 20
38.718124
  0
VERTEX
  8
sensibilidade_ambiental
 10
-9.481141
 20
38.718065
  0
VERTEX
  8
sensibilidade_ambiental
 10
-9.481195
 20
38.718021
  0
VERTEX
  8
sensibilidade_ambiental
 10
-9.481420
 20
38.717866
  0
VERTEX
  8
sensibilidade_ambiental
 10
-9.481623
 20
38.717754
  0
VERTEX
  8
sensibilidade_ambiental
 10
-9.481798
 20
38.717600
  0
VERTEX
  8
sensibilidade_ambiental
 10
-9.481937
 20
38.717579
  0
VERTEX
  8
sensibilidade_ambiental
 10
-9.481972
 20
38.717575
  0
VERTEX
  8
sensibilidade_ambiental
 10
-9.481988
 20
38.717566
  0
VERTEX
  8
sensibilidade_ambiental
 10
-9.482092
 20
38.717466
  0
VERTEX
  8
sensibilidade_ambiental
 10
-9.482282
 20
38.717337
  0
VERTEX
  8
sensibilidade_ambiental
 10
-9.482298
 20
38.717291
  0
VERTEX
  8
sensibilidade_ambiental
 10
-9.482276
 20
38.717136
  0
VERTEX
  8
sensibilidade_ambiental
 10
-9.482248
 20
38.716940
  0
VERTEX
  8
sensibilidade_ambiental
 10
-9.482257
 20
38.716743
  0
VERTEX
  8
sensibilidade_ambiental
 10
-9.482269
 20
38.716700
  0
VERTEX
  8
sensibilidade_ambiental
 10
-9.482323
 20
38.716682
  0
VERTEX
  8
sensibilidade_ambiental
 10
-9.482611
 20
38.716682
  0
VERTEX
  8
sensibilidade_ambiental
 10
-9.482659
 20
38.716664
  0
VERTEX
  8
sensibilidade_ambiental
 10
-9.482732
 20
38.716637
  0
VERTEX
  8
sensibilidade_ambiental
 10
-9.482743
 20
38.716633
  0
VERTEX
  8
sensibilidade_ambiental
 10
-9.482848
 20
38.716455
  0
VERTEX
  8
sensibilidade_ambiental
 10
-9.482869
 20
38.716363
  0
VERTEX
  8
sensibilidade_ambiental
 10
-9.482890
 20
38.716325
  0
VERTEX
  8
sensibilidade_ambiental
 10
-9.482922
 20
38.716315
  0
VERTEX
  8
sensibilidade_ambiental
 10
-9.482949
 20
38.716330
  0
VERTEX
  8
sensibilidade_ambiental
 10
-9.483010
 20
38.716464
  0
VERTEX
  8
sensibilidade_ambiental
 10
-9.483035
 20
38.716479
  0
VERTEX
  8
sensibilidade_ambiental
 10
-9.483148
 20
38.716473
  0
VERTEX
  8
sensibilidade_ambiental
 10
-9.483412
 20
38.716312
  0
VERTEX
  8
sensibilidade_ambiental
 10
-9.483476
 20
38.716140
  0
VERTEX
  8
sensibilidade_ambiental
 10
-9.483715
 20
38.715835
  0
VERTEX
  8
sensibilidade_ambiental
 10
-9.483828
 20
38.715744
  0
VERTEX
  8
sensibilidade_ambiental
 10
-9.483942
 20
38.715653
  0
VERTEX
  8
sensibilidade_ambiental
 10
-9.483999
 20
38.715602
  0
VERTEX
  8
sensibilidade_ambiental
 10
-9.484055
 20
38.715561
  0
VERTEX
  8
sensibilidade_ambiental
 10
-9.484126
 20
38.715504
  0
VERTEX
  8
sensibilidade_ambiental
 10
-9.484168
 20
38.715469
  0
VERTEX
  8
sensibilidade_ambiental
 10
-9.484282
 20
38.715378
  0
VERTEX
  8
sensibilidade_ambiental
 10
-9.484311
 20
38.715285
  0
VERTEX
  8
sensibilidade_ambiental
 10
-9.484279
 20
38.715198
  0
VERTEX
  8
sensibilidade_ambiental
 10
-9.484162
 20
38.715110
  0
VERTEX
  8
sensibilidade_ambiental
 10
-9.484126
 20
38.714986
  0
VERTEX
  8
sensibilidade_ambiental
 10
-9.484159
 20
38.714929
  0
VERTEX
  8
sensibilidade_ambiental
 10
-9.484159
 20
38.714929
  0
VERTEX
  8
sensibilidade_ambiental
 10
-9.484227
 20
38.714917
  0
VERTEX
  8
sensibilidade_ambiental
 10
-9.484371
 20
38.714973
  0
VERTEX
  8
sensibilidade_ambiental
 10
-9.484454
 20
38.714972
  0
VERTEX
  8
sensibilidade_ambiental
 10
-9.484517
 20
38.714933
  0
VERTEX
  8
sensibilidade_ambiental
 10
-9.484549
 20
38.714818
  0
VERTEX
  8
sensibilidade_ambiental
 10
-9.484617
 20
38.714731
  0
VERTEX
  8
sensibilidade_ambiental
 10
-9.484674
 20
38.714653
  0
VERTEX
  8
sensibilidade_ambiental
 10
-9.484685
 20
38.714609
  0
VERTEX
  8
sensibilidade_ambiental
 10
-9.484668
 20
38.714550
  0
VERTEX
  8
sensibilidade_ambiental
 10
-9.484666
 20
38.714511
  0
VERTEX
  8
sensibilidade_ambiental
 10
-9.484688
 20
38.714456
  0
VERTEX
  8
sensibilidade_ambiental
 10
-9.484738
 20
38.714427
  0
VERTEX
  8
sensibilidade_ambiental
 10
-9.484769
 20
38.714382
  0
VERTEX
  8
sensibilidade_ambiental
 10
-9.484779
 20
38.714333
  0
VERTEX
  8
sensibilidade_ambiental
 10
-9.484788
 20
38.714273
  0
VERTEX
  8
sensibilidade_ambiental
 10
-9.484791
 20
38.714223
  0
VERTEX
  8
sensibilidade_ambiental
 10
-9.484848
 20
38.714162
  0
VERTEX
  8
sensibilidade_ambiental
 10
-9.484910
 20
38.714105
  0
VERTEX
  8
sensibilidade_ambiental
 10
-9.484917
 20
38.714039
  0
VERTEX
  8
sensibilidade_ambiental
 10
-9.484876
 20
38.713941
  0
VERTEX
  8
sensibilidade_ambiental
 10
-9.484849
 20
38.713862
  0
VERTEX
  8
sensibilidade_ambiental
 10
-9.484789
 20
38.713825
  0
VERTEX
  8
sensibilidade_ambiental
 10
-9.484765
 20
38.713786
  0
VERTEX
  8
sensibilidade_ambiental
 10
-9.484790
 20
38.713721
  0
VERTEX
  8
sensibilidade_ambiental
 10
-9.484805
 20
38.713675
  0
VERTEX
  8
sensibilidade_ambiental
 10
-9.484832
 20
38.713631
  0
VERTEX
  8
sensibilidade_ambiental
 10
-9.484894
 20
38.713587
  0
VERTEX
  8
sensibilidade_ambiental
 10
-9.484891
 20
38.713525
  0
VERTEX
  8
sensibilidade_ambiental
 10
-9.484827
 20
38.713348
  0
VERTEX
  8
sensibilidade_ambiental
 10
-9.484842
 20
38.713338
  0
VERTEX
  8
sensibilidade_ambiental
 10
-9.484861
 20
38.713343
  0
VERTEX
  8
sensibilidade_ambiental
 10
-9.484938
 20
38.713485
  0
VERTEX
  8
sensibilidade_ambiental
 10
-9.484980
 20
38.713493
  0
VERTEX
  8
sensibilidade_ambiental
 10
-9.485184
 20
38.713458
  0
VERTEX
  8
sensibilidade_ambiental
 10
-9.485249
 20
38.713419
  0
VERTEX
  8
sensibilidade_ambiental
 10
-9.485271
 20
38.713378
  0
VERTEX
  8
sensibilidade_ambiental
 10
-9.485298
 20
38.713327
  0
VERTEX
  8
sensibilidade_ambiental
 10
-9.485312
 20
38.713283
  0
VERTEX
  8
sensibilidade_ambiental
 10
-9.485313
 20
38.713237
  0
VERTEX
  8
sensibilidade_ambiental
 10
-9.485309
 20
38.713181
  0
VERTEX
  8
sensibilidade_ambiental
 10
-9.485307
 20
38.713170
  0
VERTEX
  8
sensibilidade_ambiental
 10
-9.485294
 20
38.713108
  0
VERTEX
  8
sensibilidade_ambiental
 10
-9.485293
 20
38.713106
  0
VERTEX
  8
sensibilidade_ambiental
 10
-9.485261
 20
38.713030
  0
VERTEX
  8
sensibilidade_ambiental
 10
-9.485217
 20
38.713005
  0
VERTEX
  8
sensibilidade_ambiental
 10
-9.485160
 20
38.713000
  0
VERTEX
  8
sensibilidade_ambiental
 10
-9.485030
 20
38.713048
  0
VERTEX
  8
sensibilidade_ambiental
 10
-9.484970
 20
38.713062
  0
VERTEX
  8
sensibilidade_ambiental
 10
-9.484927
 20
38.713054
  0
VERTEX
  8
sensibilidade_ambiental
 10
-9.484850
 20
38.713013
  0
VERTEX
  8
sensibilidade_ambiental
 10
-9.484764
 20
38.712988
  0
VERTEX
  8
sensibilidade_ambiental
 10
-9.484681
 20
38.712950
  0
VERTEX
  8
sensibilidade_ambiental
 10
-9.484632
 20
38.712852
  0
VERTEX
  8
sensibilidade_ambiental
 10
-9.484686
 20
38.712758
  0
VERTEX
  8
sensibilidade_ambiental
 10
-9.484743
 20
38.712641
  0
VERTEX
  8
sensibilidade_ambiental
 10
-9.484764
 20
38.712589
  0
VERTEX
  8
sensibilidade_ambiental
 10
-9.484753
 20
38.712429
  0
VERTEX
  8
sensibilidade_ambiental
 10
-9.484764
 20
38.712409
  0
VERTEX
  8
sensibilidade_ambiental
 10
-9.484789
 20
38.712401
  0
VERTEX
  8
sensibilidade_ambiental
 10
-9.484907
 20
38.712402
  0
VERTEX
  8
sensibilidade_ambiental
 10
-9.484987
 20
38.712398
  0
VERTEX
  8
sensibilidade_ambiental
 10
-9.485191
 20
38.712378
  0
VERTEX
  8
sensibilidade_ambiental
 10
-9.485225
 20
38.712358
  0
VERTEX
  8
sensibilidade_ambiental
 10
-9.485231
 20
38.712319
  0
VERTEX
  8
sensibilidade_ambiental
 10
-9.485217
 20
38.712290
  0
VERTEX
  8
sensibilidade_ambiental
 10
-9.485085
 20
38.712263
  0
VERTEX
  8
sensibilidade_ambiental
 10
-9.484993
 20
38.712239
  0
VERTEX
  8
sensibilidade_ambiental
 10
-9.484935
 20
38.712160
  0
VERTEX
  8
sensibilidade_ambiental
 10
-9.484940
 20
38.712067
  0
VERTEX
  8
sensibilidade_ambiental
 10
-9.484982
 20
38.712028
  0
VERTEX
  8
sensibilidade_ambiental
 10
-9.485070
 20
38.711992
  0
VERTEX
  8
sensibilidade_ambiental
 10
-9.485163
 20
38.711974
  0
VERTEX
  8
sensibilidade_ambiental
 10
-9.485306
 20
38.711996
  0
VERTEX
  8
sensibilidade_ambiental
 10
-9.485426
 20
38.712002
  0
VERTEX
  8
sensibilidade_ambiental
 10
-9.485558
 20
38.712001
  0
VERTEX
  8
sensibilidade_ambiental
 10
-9.485619
 20
38.711989
  0
VERTEX
  8
sensibilidade_ambiental
 10
-9.485680
 20
38.711995
  0
VERTEX
  8
sensibilidade_ambiental
 10
-9.485780
 20
38.712011
  0
VERTEX
  8
sensibilidade_ambiental
 10
-9.485809
 20
38.712005
  0
VERTEX
  8
sensibilidade_ambiental
 10
-9.485899
 20
38.711958
  0
VERTEX
  8
sensibilidade_ambiental
 10
-9.485896
 20
38.711934
  0
VERTEX
  8
sensibilidade_ambiental
 10
-9.485864
 20
38.711843
  0
VERTEX
  8
sensibilidade_ambiental
 10
-9.485896
 20
38.711811
  0
VERTEX
  8
sensibilidade_ambiental
 10
-9.485893
 20
38.711770
  0
VERTEX
  8
sensibilidade_ambiental
 10
-9.485902
 20
38.711717
  0
VERTEX
  8
sensibilidade_ambiental
 10
-9.485946
 20
38.711678
  0
VERTEX
  8
sensibilidade_ambiental
 10
-9.485960
 20
38.711621
  0
VERTEX
  8
sensibilidade_ambiental
 10
-9.485959
 20
38.711552
  0
VERTEX
  8
sensibilidade_ambiental
 10
-9.485967
 20
38.711492
  0
VERTEX
  8
sensibilidade_ambiental
 10
-9.485985
 20
38.711446
  0
VERTEX
  8
sensibilidade_ambiental
 10
-9.486022
 20
38.711402
  0
VERTEX
  8
sensibilidade_ambiental
 10
-9.486027
 20
38.711338
  0
VERTEX
  8
sensibilidade_ambiental
 10
-9.486029
 20
38.711272
  0
VERTEX
  8
sensibilidade_ambiental
 10
-9.486014
 20
38.711222
  0
VERTEX
  8
sensibilidade_ambiental
 10
-9.486015
 20
38.711182
  0
VERTEX
  8
sensibilidade_ambiental
 10
-9.486050
 20
38.711155
  0
VERTEX
  8
sensibilidade_ambiental
 10
-9.486081
 20
38.711135
  0
VERTEX
  8
sensibilidade_ambiental
 10
-9.486140
 20
38.711006
  0
VERTEX
  8
sensibilidade_ambiental
 10
-9.486120
 20
38.710966
  0
VERTEX
  8
sensibilidade_ambiental
 10
-9.486088
 20
38.710949
  0
VERTEX
  8
sensibilidade_ambiental
 10
-9.485936
 20
38.710888
  0
VERTEX
  8
sensibilidade_ambiental
 10
-9.485854
 20
38.710862
  0
VERTEX
  8
sensibilidade_ambiental
 10
-9.485843
 20
38.710838
  0
VERTEX
  8
sensibilidade_ambiental
 10
-9.485862
 20
38.710764
  0
VERTEX
  8
sensibilidade_ambiental
 10
-9.485830
 20
38.710677
  0
VERTEX
  8
sensibilidade_ambiental
 10
-9.485835
 20
38.710592
  0
VERTEX
  8
sensibilidade_ambiental
 10
-9.485851
 20
38.710563
  0
VERTEX
  8
sensibilidade_ambiental
 10
-9.485991
 20
38.710485
  0
VERTEX
  8
sensibilidade_ambiental
 10
-9.486028
 20
38.710482
  0
VERTEX
  8
sensibilidade_ambiental
 10
-9.486170
 20
38.710528
  0
VERTEX
  8
sensibilidade_ambiental
 10
-9.486188
 20
38.710521
  0
VERTEX
  8
sensibilidade_ambiental
 10
-9.486204
 20
38.710501
  0
VERTEX
  8
sensibilidade_ambiental
 10
-9.486285
 20
38.710416
  0
VERTEX
  8
sensibilidade_ambiental
 10
-9.486293
 20
38.710324
  0
VERTEX
  8
sensibilidade_ambiental
 10
-9.486306
 20
38.710306
  0
VERTEX
  8
sensibilidade_ambiental
 10
-9.486323
 20
38.710301
  0
VERTEX
  8
sensibilidade_ambiental
 10
-9.486455
 20
38.710304
  0
VERTEX
  8
sensibilidade_ambiental
 10
-9.486524
 20
38.710287
  0
VERTEX
  8
sensibilidade_ambiental
 10
-9.486548
 20
38.710226
  0
VERTEX
  8
sensibilidade_ambiental
 10
-9.486500
 20
38.710161
  0
VERTEX
  8
sensibilidade_ambiental
 10
-9.486400
 20
38.710133
  0
VERTEX
  8
sensibilidade_ambiental
 10
-9.486380
 20
38.710112
  0
VERTEX
  8
sensibilidade_ambiental
 10
-9.486369
 20
38.710090
  0
VERTEX
  8
sensibilidade_ambiental
 10
-9.486304
 20
38.710081
  0
VERTEX
  8
sensibilidade_ambiental
 10
-9.486262
 20
38.710129
  0
VERTEX
  8
sensibilidade_ambiental
 10
-9.486229
 20
38.710149
  0
VERTEX
  8
sensibilidade_ambiental
 10
-9.486239
 20
38.710218
  0
VERTEX
  8
sensibilidade_ambiental
 10
-9.486195
 20
38.710233
  0
VERTEX
  8
sensibilidade_ambiental
 10
-9.486057
 20
38.710195
  0
VERTEX
  8
sensibilidade_ambiental
 10
-9.485886
 20
38.710147
  0
VERTEX
  8
sensibilidade_ambiental
 10
-9.485849
 20
38.710095
  0
VERTEX
  8
sensibilidade_ambiental
 10
-9.485842
 20
38.709991
  0
VERTEX
  8
sensibilidade_ambiental
 10
-9.485866
 20
38.709929
  0
VERTEX
  8
sensibilidade_ambiental
 10
-9.485910
 20
38.709892
  0
VERTEX
  8
sensibilidade_ambiental
 10
-9.485938
 20
38.709885
  0
VERTEX
  8
sensibilidade_ambiental
 10
-9.486085
 20
38.709887
  0
VERTEX
  8
sensibilidade_ambiental
 10
-9.486159
 20
38.709882
  0
VERTEX
  8
sensibilidade_ambiental
 10
-9.486201
 20
38.709856
  0
VERTEX
  8
sensibilidade_ambiental
 10
-9.486266
 20
38.709768
  0
VERTEX
  8
sensibilidade_ambiental
 10
-9.486287
 20
38.709700
  0
VERTEX
  8
sensibilidade_ambiental
 10
-9.486338
 20
38.709632
  0
VERTEX
  8
sensibilidade_ambiental
 10
-9.486380
 20
38.709609
  0
VERTEX
  8
sensibilidade_ambiental
 10
-9.486417
 20
38.709610
  0
VERTEX
  8
sensibilidade_ambiental
 10
-9.486500
 20
38.709643
  0
VERTEX
  8
sensibilidade_ambiental
 10
-9.486558
 20
38.709627
  0
VERTEX
  8
sensibilidade_ambiental
 10
-9.486570
 20
38.709610
  0
VERTEX
  8
sensibilidade_ambiental
 10
-9.486604
 20
38.709477
  0
VERTEX
  8
sensibilidade_ambiental
 10
-9.486574
 20
38.709418
  0
VERTEX
  8
sensibilidade_ambiental
 10
-9.486528
 20
38.709351
  0
VERTEX
  8
sensibilidade_ambiental
 10
-9.486492
 20
38.709308
  0
VERTEX
  8
sensibilidade_ambiental
 10
-9.486466
 20
38.709238
  0
VERTEX
  8
sensibilidade_ambiental
 10
-9.486457
 20
38.709175
  0
VERTEX
  8
sensibilidade_ambiental
 10
-9.486423
 20
38.709118
  0
VERTEX
  8
sensibilidade_ambiental
 10
-9.486394
 20
38.709064
  0
VERTEX
  8
sensibilidade_ambiental
 10
-9.486378
 20
38.709007
  0
VERTEX
  8
sensibilidade_ambiental
 10
-9.486321
 20
38.708943
  0
VERTEX
  8
sensibilidade_ambiental
 10
-9.486285
 20
38.708901
  0
VERTEX
  8
sensibilidade_ambiental
 10
-9.486281
 20
38.708898
  0
VERTEX
  8
sensibilidade_ambiental
 10
-9.486233
 20
38.708865
  0
VERTEX
  8
sensibilidade_ambiental
 10
-9.486172
 20
38.708870
  0
VERTEX
  8
sensibilidade_ambiental
 10
-9.486101
 20
38.708970
  0
VERTEX
  8
sensibilidade_ambiental
 10
-9.486062
 20
38.709024
  0
VERTEX
  8
sensibilidade_ambiental
 10
-9.485987
 20
38.709037
  0
VERTEX
  8
sensibilidade_ambiental
 10
-9.485926
 20
38.708999
  0
VERTEX
  8
sensibilidade_ambiental
 10
-9.485931
 20
38.708949
  0
VERTEX
  8
sensibilidade_ambiental
 10
-9.485986
 20
38.708912
  0
VERTEX
  8
sensibilidade_ambiental
 10
-9.486007
 20
38.708881
  0
VERTEX
  8
sensibilidade_ambiental
 10
-9.485979
 20
38.708817
  0
VERTEX
  8
sensibilidade_ambiental
 10
-9.485999
 20
38.708740
  0
VERTEX
  8
sensibilidade_ambiental
 10
-9.486049
 20
38.708710
  0
VERTEX
  8
sensibilidade_ambiental
 10
-9.486131
 20
38.708647
  0
VERTEX
  8
sensibilidade_ambiental
 10
-9.486156
 20
38.708616
  0
VERTEX
  8
sensibilidade_ambiental
 10
-9.486209
 20
38.708600
  0
VERTEX
  8
sensibilidade_ambiental
 10
-9.486234
 20
38.708585
  0
VERTEX
  8
sensibilidade_ambiental
 10
-9.486238
 20
38.708560
  0
VERTEX
  8
sensibilidade_ambiental
 10
-9.486202
 20
38.708472
  0
VERTEX
  8
sensibilidade_ambiental
 10
-9.486215
 20
38.708409
  0
VERTEX
  8
sensibilidade_ambiental
 10
-9.486186
 20
38.708349
  0
VERTEX
  8
sensibilidade_ambiental
 10
-9.486205
 20
38.708304
  0
VERTEX
  8
sensibilidade_ambiental
 10
-9.486232
 20
38.708250
  0
VERTEX
  8
sensibilidade_ambiental
 10
-9.486235
 20
38.708193
  0
VERTEX
  8
sensibilidade_ambiental
 10
-9.486221
 20
38.708131
  0
VERTEX
  8
sensibilidade_ambiental
 10
-9.486207
 20
38.708082
  0
VERTEX
  8
sensibilidade_ambiental
 10
-9.486134
 20
38.708028
  0
VERTEX
  8
sensibilidade_ambiental
 10
-9.486066
 20
38.708035
  0
VERTEX
  8
sensibilidade_ambiental
 10
-9.486048
 20
38.708012
  0
VERTEX
  8
sensibilidade_ambiental
 10
-9.486047
 20
38.707963
  0
VERTEX
  8
sensibilidade_ambiental
 10
-9.485997
 20
38.707864
  0
VERTEX
  8
sensibilidade_ambiental
 10
-9.485936
 20
38.707848
  0
VERTEX
  8
sensibilidade_ambiental
 10
-9.485868
 20
38.707871
  0
VERTEX
  8
sensibilidade_ambiental
 10
-9.485769
 20
38.707902
  0
VERTEX
  8
sensibilidade_ambiental
 10
-9.485741
 20
38.707959
  0
VERTEX
  8
sensibilidade_ambiental
 10
-9.485668
 20
38.708086
  0
VERTEX
  8
sensibilidade_ambiental
 10
-9.485616
 20
38.708120
  0
VERTEX
  8
sensibilidade_ambiental
 10
-9.485507
 20
38.708097
  0
VERTEX
  8
sensibilidade_ambiental
 10
-9.485477
 20
38.708068
  0
VERTEX
  8
sensibilidade_ambiental
 10
-9.485509
 20
38.707966
  0
VERTEX
  8
sensibilidade_ambiental
 10
-9.485530
 20
38.707908
  0
VERTEX
  8
sensibilidade_ambiental
 10
-9.485623
 20
38.707800
  0
VERTEX
  8
sensibilidade_ambiental
 10
-9.485644
 20
38.707732
  0
VERTEX
  8
sensibilidade_ambiental
 10
-9.485607
 20
38.707617
  0
VERTEX
  8
sensibilidade_ambiental
 10
-9.485576
 20
38.707552
  0
VERTEX
  8
sensibilidade_ambiental
 10
-9.485507
 20
38.707546
  0
VERTEX
  8
sensibilidade_ambiental
 10
-9.485405
 20
38.707563
  0
VERTEX
  8
sensibilidade_ambiental
 10
-9.485330
 20
38.707509
  0
VERTEX
  8
sensibilidade_ambiental
 10
-9.485252
 20
38.707549
  0
VERTEX
  8
sensibilidade_ambiental
 10
-9.485171
 20
38.707577
  0
VERTEX
  8
sensibilidade_ambiental
 10
-9.485126
 20
38.707612
  0
VERTEX
  8
sensibilidade_ambiental
 10
-9.485090
 20
38.707669
  0
VERTEX
  8
sensibilidade_ambiental
 10
-9.485071
 20
38.707721
  0
VERTEX
  8
sensibilidade_ambiental
 10
-9.484988
 20
38.707726
  0
VERTEX
  8
sensibilidade_ambiental
 10
-9.484931
 20
38.707710
  0
VERTEX
  8
sensibilidade_ambiental
 10
-9.484842
 20
38.707656
  0
VERTEX
  8
sensibilidade_ambiental
 10
-9.484777
 20
38.707620
  0
VERTEX
  8
sensibilidade_ambiental
 10
-9.484757
 20
38.707608
  0
VERTEX
  8
sensibilidade_ambiental
 10
-9.484694
 20
38.707549
  0
VERTEX
  8
sensibilidade_ambiental
 10
-9.484686
 20
38.707501
  0
VERTEX
  8
sensibilidade_ambiental
 10
-9.484664
 20
38.707481
  0
VERTEX
  8
sensibilidade_ambiental
 10
-9.484629
 20
38.707438
  0
VERTEX
  8
sensibilidade_ambiental
 10
-9.484668
 20
38.707340
  0
VERTEX
  8
sensibilidade_ambiental
 10
-9.484702
 20
38.707294
  0
VERTEX
  8
sensibilidade_ambiental
 10
-9.484712
 20
38.707243
  0
VERTEX
  8
sensibilidade_ambiental
 10
-9.484715
 20
38.707185
  0
VERTEX
  8
sensibilidade_ambiental
 10
-9.484703
 20
38.707134
  0
VERTEX
  8
sensibilidade_ambiental
 10
-9.484701
 20
38.707087
  0
VERTEX
  8
sensibilidade_ambiental
 10
-9.484724
 20
38.707005
  0
VERTEX
  8
sensibilidade_ambiental
 10
-9.484757
 20
38.706954
  0
VERTEX
  8
sensibilidade_ambiental
 10
-9.484771
 20
38.706903
  0
VERTEX
  8
sensibilidade_ambiental
 10
-9.484768
 20
38.706850
  0
VERTEX
  8
sensibilidade_ambiental
 10
-9.484730
 20
38.706810
  0
VERTEX
  8
sensibilidade_ambiental
 10
-9.484650
 20
38.706863
  0
VERTEX
  8
sensibilidade_ambiental
 10
-9.484453
 20
38.706844
  0
VERTEX
  8
sensibilidade_ambiental
 10
-9.484301
 20
38.706765
  0
VERTEX
  8
sensibilidade_ambiental
 10
-9.484195
 20
38.706667
  0
VERTEX
  8
sensibilidade_ambiental
 10
-9.483868
 20
38.706553
  0
VERTEX
  8
sensibilidade_ambiental
 10
-9.483717
 20
38.706536
  0
SEQEND
  0
POLYLINE
  8
sensibilidade_ambiental
  6
BYLAYER
 66
1
 70
0
 40
0.000000
 41
0.000000
  0
VERTEX
  8
sensibilidade_ambiental
 10
-9.483717
 20
38.706536
  0
VERTEX
  8
sensibilidade_ambiental
 10
-9.483605
 20
38.706599
  0
VERTEX
  8
sensibilidade_ambiental
 10
-9.483519
 20
38.706600
  0
VERTEX
  8
sensibilidade_ambiental
 10
-9.483457
 20
38.706547
  0
VERTEX
  8
sensibilidade_ambiental
 10
-9.483448
 20
38.706469
  0
SEQEND
  0
POLYLINE
  8
sensibilidade_ambiental
  6
BYLAYER
 66
1
 70
0
 40
0.000000
 41
0.000000
  0
VERTEX
  8
sensibilidade_ambiental
 10
-9.483448
 20
38.706469
  0
VERTEX
  8
sensibilidade_ambiental
 10
-9.483539
 20
38.706355
  0
VERTEX
  8
sensibilidade_ambiental
 10
-9.483598
 20
38.706218
  0
VERTEX
  8
sensibilidade_ambiental
 10
-9.483586
 20
38.706118
  0
VERTEX
  8
sensibilidade_ambiental
 10
-9.483552
 20
38.706067
  0
VERTEX
  8
sensibilidade_ambiental
 10
-9.483482
 20
38.706021
  0
VERTEX
  8
sensibilidade_ambiental
 10
-9.483420
 20
38.706018
  0
VERTEX
  8
sensibilidade_ambiental
 10
-9.483361
 20
38.706020
  0
VERTEX
  8
sensibilidade_ambiental
 10
-9.483252
 20
38.706031
  0
VERTEX
  8
sensibilidade_ambiental
 10
-9.483222
 20
38.706088
  0
VERTEX
  8
sensibilidade_ambiental
 10
-9.483184
 20
38.706094
  0
VERTEX
  8
sensibilidade_ambiental
 10
-9.483114
 20
38.706028
  0
VERTEX
  8
sensibilidade_ambiental
 10
-9.483029
 20
38.706012
  0
VERTEX
  8
sensibilidade_ambiental
 10
-9.482965
 20
38.706032
  0
VERTEX
  8
sensibilidade_ambiental
 10
-9.482943
 20
38.706021
  0
VERTEX
  8
sensibilidade_ambiental
 10
-9.482948
 20
38.705928
  0
VERTEX
  8
sensibilidade_ambiental
 10
-9.482841
 20
38.705876
  0
VERTEX
  8
sensibilidade_ambiental
 10
-9.482732
 20
38.705881
  0
VERTEX
  8
sensibilidade_ambiental
 10
-9.482697
 20
38.705898
  0
VERTEX
  8
sensibilidade_ambiental
 10
-9.482621
 20
38.705968
  0
VERTEX
  8
sensibilidade_ambiental
 10
-9.482504
 20
38.705945
  0
VERTEX
  8
sensibilidade_ambiental
 10
-9.482472
 20
38.705906
  0
VERTEX
  8
sensibilidade_ambiental
 10
-9.482411
 20
38.705899
  0
VERTEX
  8
sensibilidade_ambiental
 10
-9.482342
 20
38.705877
  0
VERTEX
  8
sensibilidade_ambiental
 10
-9.482306
 20
38.705845
  0
VERTEX
  8
sensibilidade_ambiental
 10
-9.482296
 20
38.705816
  0
VERTEX
  8
sensibilidade_ambiental
 10
-9.482317
 20
38.705770
  0
VERTEX
  8
sensibilidade_ambiental
 10
-9.482371
 20
38.705715
  0
VERTEX
  8
sensibilidade_ambiental
 10
-9.482399
 20
38.705672
  0
VERTEX
  8
sensibilidade_ambiental
 10
-9.482410
 20
38.705645
  0
VERTEX
  8
sensibilidade_ambiental
 10
-9.482420
 20
38.705610
  0
VERTEX
  8
sensibilidade_ambiental
 10
-9.482441
 20
38.705481
  0
VERTEX
  8
sensibilidade_ambiental
 10
-9.482479
 20
38.705395
  0
VERTEX
  8
sensibilidade_ambiental
 10
-9.482506
 20
38.705299
  0
VERTEX
  8
sensibilidade_ambiental
 10
-9.482507
 20
38.705275
  0
VERTEX
  8
sensibilidade_ambiental
 10
-9.482483
 20
38.705232
  0
VERTEX
  8
sensibilidade_ambiental
 10
-9.482395
 20
38.705126
  0
VERTEX
  8
sensibilidade_ambiental
 10
-9.482381
 20
38.705124
  0
VERTEX
  8
sensibilidade_ambiental
 10
-9.482369
 20
38.705130
  0
VERTEX
  8
sensibilidade_ambiental
 10
-9.482375
 20
38.705199
  0
VERTEX
  8
sensibilidade_ambiental
 10
-9.482364
 20
38.705248
  0
VERTEX
  8
sensibilidade_ambiental
 10
-9.482345
 20
38.705260
  0
VERTEX
  8
sensibilidade_ambiental
 10
-9.482292
 20
38.705278
  0
VERTEX
  8
sensibilidade_ambiental
 10
-9.482245
 20
38.705290
  0
VERTEX
  8
sensibilidade_ambiental
 10
-9.482187
 20
38.705290
  0
VERTEX
  8
sensibilidade_ambiental
 10
-9.482137
 20
38.705253
  0
VERTEX
  8
sensibilidade_ambiental
 10
-9.482104
 20
38.705237
  0
VERTEX
  8
sensibilidade_ambiental
 10
-9.482053
 20
38.705235
  0
VERTEX
  8
sensibilidade_ambiental
 10
-9.481999
 20
38.705245
  0
VERTEX
  8
sensibilidade_ambiental
 10
-9.481882
 20
38.705254
  0
VERTEX
  8
sensibilidade_ambiental
 10
-9.481759
 20
38.705252
  0
VERTEX
  8
sensibilidade_ambiental
 10
-9.481668
 20
38.705244
  0
VERTEX
  8
sensibilidade_ambiental
 10
-9.481650
 20
38.705237
  0
VERTEX
  8
sensibilidade_ambiental
 10
-9.481641
 20
38.705229
  0
VERTEX
  8
sensibilidade_ambiental
 10
-9.481619
 20
38.705135
  0
VERTEX
  8
sensibilidade_ambiental
 10
-9.481581
 20
38.705073
  0
VERTEX
  8
sensibilidade_ambiental
 10
-9.481534
 20
38.705068
  0
VERTEX
  8
sensibilidade_ambiental
 10
-9.481456
 20
38.705103
  0
VERTEX
  8
sensibilidade_ambiental
 10
-9.481389
 20
38.705117
  0
VERTEX
  8
sensibilidade_ambiental
 10
-9.481376
 20
38.705132
  0
VERTEX
  8
sensibilidade_ambiental
 10
-9.481374
 20
38.705168
  0
VERTEX
  8
sensibilidade_ambiental
 10
-9.481402
 20
38.705276
  0
VERTEX
  8
sensibilidade_ambiental
 10
-9.481406
 20
38.705317
  0
VERTEX
  8
sensibilidade_ambiental
 10
-9.481391
 20
38.705352
  0
VERTEX
  8
sensibilidade_ambiental
 10
-9.481371
 20
38.705368
  0
VERTEX
  8
sensibilidade_ambiental
 10
-9.481332
 20
38.705375
  0
VERTEX
  8
sensibilidade_ambiental
 10
-9.481266
 20
38.705363
  0
VERTEX
  8
sensibilidade_ambiental
 10
-9.481206
 20
38.705335
  0
VERTEX
  8
sensibilidade_ambiental
 10
-9.481194
 20
38.705320
  0
VERTEX
  8
sensibilidade_ambiental
 10
-9.481186
 20
38.705278
  0
VERTEX
  8
sensibilidade_ambiental
 10
-9.481172
 20
38.705248
  0
VERTEX
  8
sensibilidade_ambiental
 10
-9.481101
 20
38.705190
  0
VERTEX
  8
sensibilidade_ambiental
 10
-9.481069
 20
38.705175
  0
VERTEX
  8
sensibilidade_ambiental
 10
-9.481053
 20
38.705156
  0
VERTEX
  8
sensibilidade_ambiental
 10
-9.481036
 20
38.705097
  0
VERTEX
  8
sensibilidade_ambiental
 10
-9.481023
 20
38.705083
  0
VERTEX
  8
sensibilidade_ambiental
 10
-9.480994
 20
38.705077
  0
VERTEX
  8
sensibilidade_ambiental
 10
-9.480901
 20
38.705073
  0
VERTEX
  8
sensibilidade_ambiental
 10
-9.480863
 20
38.705061
  0
VERTEX
  8
sensibilidade_ambiental
 10
-9.480824
 20
38.705018
  0
VERTEX
  8
sensibilidade_ambiental
 10
-9.480802
 20
38.705006
  0
VERTEX
  8
sensibilidade_ambiental
 10
-9.480734
 20
38.704994
  0
VERTEX
  8
sensibilidade_ambiental
 10
-9.480597
 20
38.704987
  0
VERTEX
  8
sensibilidade_ambiental
 10
-9.480578
 20
38.704984
  0
VERTEX
  8
sensibilidade_ambiental
 10
-9.480502
 20
38.704965
  0
VERTEX
  8
sensibilidade_ambiental
 10
-9.480462
 20
38.704947
  0
VERTEX
  8
sensibilidade_ambiental
 10
-9.480424
 20
38.704945
  0
VERTEX
  8
sensibilidade_ambiental
 10
-9.480390
 20
38.704949
  0
VERTEX
  8
sensibilidade_ambiental
 10
-9.480335
 20
38.704971
  0
VERTEX
  8
sensibilidade_ambiental
 10
-9.480261
 20
38.704989
  0
VERTEX
  8
sensibilidade_ambiental
 10
-9.480126
 20
38.705004
  0
VERTEX
  8
sensibilidade_ambiental
 10
-9.480003
 20
38.705011
  0
VERTEX
  8
sensibilidade_ambiental
 10
-9.479917
 20
38.705015
  0
VERTEX
  8
sensibilidade_ambiental
 10
-9.479813
 20
38.705002
  0
VERTEX
  8
sensibilidade_ambiental
 10
-9.479770
 20
38.704989
  0
VERTEX
  8
sensibilidade_ambiental
 10
-9.479731
 20
38.704959
  0
VERTEX
  8
sensibilidade_ambiental
 10
-9.479705
 20
38.704923
  0
VERTEX
  8
sensibilidade_ambiental
 10
-9.479676
 20
38.704794
  0
VERTEX
  8
sensibilidade_ambiental
 10
-9.479683
 20
38.704691
  0
VERTEX
  8
sensibilidade_ambiental
 10
-9.479716
 20
38.704621
  0
VERTEX
  8
sensibilidade_ambiental
 10
-9.479789
 20
38.704565
  0
VERTEX
  8
sensibilidade_ambiental
 10
-9.479881
 20
38.704507
  0
VERTEX
  8
sensibilidade_ambiental
 10
-9.479953
 20
38.704478
  0
VERTEX
  8
sensibilidade_ambiental
 10
-9.480066
 20
38.704416
  0
SEQEND
  0
POLYLINE
  8
sensibilidade_ambiental
  6
BYLAYER
 66
1
 70
0
 40
0.000000
 41
0.000000
  0
VERTEX
  8
sensibilidade_ambiental
 10
-9.480066
 20
38.704416
  0
VERTEX
  8
sensibilidade_ambiental
 10
-9.480189
 20
38.704325
  0
VERTEX
  8
sensibilidade_ambiental
 10
-9.480244
 20
38.704259
  0
VERTEX
  8
sensibilidade_ambiental
 10
-9.480290
 20
38.704198
  0
VERTEX
  8
sensibilidade_ambiental
 10
-9.480289
 20
38.704129
  0
VERTEX
  8
sensibilidade_ambiental
 10
-9.480274
 20
38.704076
  0
VERTEX
  8
sensibilidade_ambiental
 10
-9.480259
 20
38.704037
  0
VERTEX
  8
sensibilidade_ambiental
 10
-9.480222
 20
38.704014
  0
VERTEX
  8
sensibilidade_ambiental
 10
-9.480078
 20
38.704005
  0
VERTEX
  8
sensibilidade_ambiental
 10
-9.479956
 20
38.704004
  0
VERTEX
  8
sensibilidade_ambiental
 10
-9.479834
 20
38.704009
  0
VERTEX
  8
sensibilidade_ambiental
 10
-9.479773
 20
38.704029
  0
VERTEX
  8
sensibilidade_ambiental
 10
-9.479711
 20
38.704042
  0
VERTEX
  8
sensibilidade_ambiental
 10
-9.479672
 20
38.704045
  0
VERTEX
  8
sensibilidade_ambiental
 10
-9.479628
 20
38.704039
  0
VERTEX
  8
sensibilidade_ambiental
 10
-9.479601
 20
38.704009
  0
VERTEX
  8
sensibilidade_ambiental
 10
-9.479593
 20
38.703949
  0
VERTEX
  8
sensibilidade_ambiental
 10
-9.479532
 20
38.703883
  0
VERTEX
  8
sensibilidade_ambiental
 10
-9.479502
 20
38.703786
  0
VERTEX
  8
sensibilidade_ambiental
 10
-9.479499
 20
38.703707
  0
VERTEX
  8
sensibilidade_ambiental
 10
-9.479501
 20
38.703657
  0
VERTEX
  8
sensibilidade_ambiental
 10
-9.479539
 20
38.703566
  0
VERTEX
  8
sensibilidade_ambiental
 10
-9.479577
 20
38.703527
  0
VERTEX
  8
sensibilidade_ambiental
 10
-9.479612
 20
38.703492
  0
VERTEX
  8
sensibilidade_ambiental
 10
-9.479637
 20
38.703446
  0
VERTEX
  8
sensibilidade_ambiental
 10
-9.479627
 20
38.703415
  0
VERTEX
  8
sensibilidade_ambiental
 10
-9.479536
 20
38.703382
  0
VERTEX
  8
sensibilidade_ambiental
 10
-9.479472
 20
38.703375
  0
VERTEX
  8
sensibilidade_ambiental
 10
-9.479449
 20
38.703351
  0
VERTEX
  8
sensibilidade_ambiental
 10
-9.479426
 20
38.703308
  0
VERTEX
  8
sensibilidade_ambiental
 10
-9.479396
 20
38.703289
  0
VERTEX
  8
sensibilidade_ambiental
 10
-9.479377
 20
38.703285
  0
VERTEX
  8
sensibilidade_ambiental
 10
-9.479301
 20
38.703282
  0
VERTEX
  8
sensibilidade_ambiental
 10
-9.479252
 20
38.703288
  0
VERTEX
  8
sensibilidade_ambiental
 10
-9.479166
 20
38.703306
  0
VERTEX
  8
sensibilidade_ambiental
 10
-9.479083
 20
38.703300
  0
VERTEX
  8
sensibilidade_ambiental
 10
-9.478992
 20
38.703281
  0
VERTEX
  8
sensibilidade_ambiental
 10
-9.478905
 20
38.703240
  0
VERTEX
  8
sensibilidade_ambiental
 10
-9.478796
 20
38.703231
  0
VERTEX
  8
sensibilidade_ambiental
 10
-9.478698
 20
38.703208
  0
VERTEX
  8
sensibilidade_ambiental
 10
-9.478640
 20
38.703204
  0
VERTEX
  8
sensibilidade_ambiental
 10
-9.478543
 20
38.703187
  0
VERTEX
  8
sensibilidade_ambiental
 10
-9.478498
 20
38.703166
  0
VERTEX
  8
sensibilidade_ambiental
 10
-9.478450
 20
38.703131
  0
VERTEX
  8
sensibilidade_ambiental
 10
-9.478380
 20
38.703079
  0
VERTEX
  8
sensibilidade_ambiental
 10
-9.478318
 20
38.703021
  0
VERTEX
  8
sensibilidade_ambiental
 10
-9.478308
 20
38.703000
  0
VERTEX
  8
sensibilidade_ambiental
 10
-9.478306
 20
38.702973
  0
VERTEX
  8
sensibilidade_ambiental
 10
-9.478488
 20
38.702846
  0
VERTEX
  8
sensibilidade_ambiental
 10
-9.478500
 20
38.702830
  0
VERTEX
  8
sensibilidade_ambiental
 10
-9.478494
 20
38.702812
  0
VERTEX
  8
sensibilidade_ambiental
 10
-9.478401
 20
38.702741
  0
VERTEX
  8
sensibilidade_ambiental
 10
-9.478281
 20
38.702661
  0
VERTEX
  8
sensibilidade_ambiental
 10
-9.478246
 20
38.702616
  0
VERTEX
  8
sensibilidade_ambiental
 10
-9.478228
 20
38.702560
  0
VERTEX
  8
sensibilidade_ambiental
 10
-9.478190
 20
38.702362
  0
VERTEX
  8
sensibilidade_ambiental
 10
-9.478174
 20
38.702335
  0
VERTEX
  8
sensibilidade_ambiental
 10
-9.478057
 20
38.702245
  0
VERTEX
  8
sensibilidade_ambiental
 10
-9.477973
 20
38.702183
  0
VERTEX
  8
sensibilidade_ambiental
 10
-9.477938
 20
38.702135
  0
VERTEX
  8
sensibilidade_ambiental
 10
-9.477889
 20
38.702091
  0
VERTEX
  8
sensibilidade_ambiental
 10
-9.477817
 20
38.702054
  0
VERTEX
  8
sensibilidade_ambiental
 10
-9.477718
 20
38.701974
  0
VERTEX
  8
sensibilidade_ambiental
 10
-9.477637
 20
38.701925
  0
VERTEX
  8
sensibilidade_ambiental
 10
-9.477593
 20
38.701892
  0
VERTEX
  8
sensibilidade_ambiental
 10
-9.477540
 20
38.701873
  0
VERTEX
  8
sensibilidade_ambiental
 10
-9.477476
 20
38.701856
  0
VERTEX
  8
sensibilidade_ambiental
 10
-9.477398
 20
38.701851
  0
VERTEX
  8
sensibilidade_ambiental
 10
-9.477324
 20
38.701842
  0
VERTEX
  8
sensibilidade_ambiental
 10
-9.477252
 20
38.701815
  0
VERTEX
  8
sensibilidade_ambiental
 10
-9.477204
 20
38.701767
  0
VERTEX
  8
sensibilidade_ambiental
 10
-9.477177
 20
38.701723
  0
VERTEX
  8
sensibilidade_ambiental
 10
-9.477112
 20
38.701675
  0
VERTEX
  8
sensibilidade_ambiental
 10
-9.476998
 20
38.701578
  0
VERTEX
  8
sensibilidade_ambiental
 10
-9.476918
 20
38.701541
  0
VERTEX
  8
sensibilidade_ambiental
 10
-9.476869
 20
38.701511
  0
VERTEX
  8
sensibilidade_ambiental
 10
-9.476824
 20
38.701521
  0
VERTEX
  8
sensibilidade_ambiental
 10
-9.476803
 20
38.701562
  0
VERTEX
  8
sensibilidade_ambiental
 10
-9.476786
 20
38.701632
  0
VERTEX
  8
sensibilidade_ambiental
 10
-9.476784
 20
38.701736
  0
VERTEX
  8
sensibilidade_ambiental
 10
-9.476824
 20
38.701825
  0
VERTEX
  8
sensibilidade_ambiental
 10
-9.476917
 20
38.701920
  0
VERTEX
  8
sensibilidade_ambiental
 10
-9.476950
 20
38.701995
  0
VERTEX
  8
sensibilidade_ambiental
 10
-9.476945
 20
38.702027
  0
VERTEX
  8
sensibilidade_ambiental
 10
-9.476916
 20
38.702044
  0
VERTEX
  8
sensibilidade_ambiental
 10
-9.476882
 20
38.702044
  0
VERTEX
  8
sensibilidade_ambiental
 10
-9.476816
 20
38.702024
  0
VERTEX
  8
sensibilidade_ambiental
 10
-9.476709
 20
38.701953
  0
VERTEX
  8
sensibilidade_ambiental
 10
-9.476596
 20
38.701890
  0
VERTEX
  8
sensibilidade_ambiental
 10
-9.476469
 20
38.701852
  0
VERTEX
  8
sensibilidade_ambiental
 10
-9.476408
 20
38.701809
  0
VERTEX
  8
sensibilidade_ambiental
 10
-9.476382
 20
38.701711
  0
VERTEX
  8
sensibilidade_ambiental
 10
-9.476348
 20
38.701661
  0
VERTEX
  8
sensibilidade_ambiental
 10
-9.476279
 20
38.701629
  0
VERTEX
  8
sensibilidade_ambiental
 10
-9.476192
 20
38.701608
  0
VERTEX
  8
sensibilidade_ambiental
 10
-9.476045
 20
38.701604
  0
VERTEX
  8
sensibilidade_ambiental
 10
-9.475897
 20
38.701651
  0
VERTEX
  8
sensibilidade_ambiental
 10
-9.475834
 20
38.701659
  0
VERTEX
  8
sensibilidade_ambiental
 10
-9.475770
 20
38.701651
  0
VERTEX
  8
sensibilidade_ambiental
 10
-9.475713
 20
38.701615
  0
VERTEX
  8
sensibilidade_ambiental
 10
-9.475632
 20
38.701547
  0
VERTEX
  8
sensibilidade_ambiental
 10
-9.475499
 20
38.701478
  0
VERTEX
  8
sensibilidade_ambiental
 10
-9.475415
 20
38.701448
  0
VERTEX
  8
sensibilidade_ambiental
 10
-9.475286
 20
38.701442
  0
VERTEX
  8
sensibilidade_ambiental
 10
-9.475240
 20
38.701452
  0
VERTEX
  8
sensibilidade_ambiental
 10
-9.475218
 20
38.701493
  0
VERTEX
  8
sensibilidade_ambiental
 10
-9.475270
 20
38.701765
  0
VERTEX
  8
sensibilidade_ambiental
 10
-9.475285
 20
38.701853
  0
VERTEX
  8
sensibilidade_ambiental
 10
-9.475269
 20
38.701904
  0
VERTEX
  8
sensibilidade_ambiental
 10
-9.475228
 20
38.701920
  0
VERTEX
  8
sensibilidade_ambiental
 10
-9.475180
 20
38.701925
  0
VERTEX
  8
sensibilidade_ambiental
 10
-9.475149
 20
38.701927
  0
VERTEX
  8
sensibilidade_ambiental
 10
-9.475063
 20
38.701906
  0
VERTEX
  8
sensibilidade_ambiental
 10
-9.475007
 20
38.701868
  0
VERTEX
  8
sensibilidade_ambiental
 10
-9.474950
 20
38.701792
  0
VERTEX
  8
sensibilidade_ambiental
 10
-9.474897
 20
38.701745
  0
VERTEX
  8
sensibilidade_ambiental
 10
-9.474865
 20
38.701721
  0
VERTEX
  8
sensibilidade_ambiental
 10
-9.474683
 20
38.701638
  0
VERTEX
  8
sensibilidade_ambiental
 10
-9.474583
 20
38.701602
  0
VERTEX
  8
sensibilidade_ambiental
 10
-9.474494
 20
38.701579
  0
VERTEX
  8
sensibilidade_ambiental
 10
-9.474444
 20
38.701582
  0
VERTEX
  8
sensibilidade_ambiental
 10
-9.474392
 20
38.701609
  0
VERTEX
  8
sensibilidade_ambiental
 10
-9.474328
 20
38.701683
  0
VERTEX
  8
sensibilidade_ambiental
 10
-9.474299
 20
38.701695
  0
VERTEX
  8
sensibilidade_ambiental
 10
-9.474239
 20
38.701686
  0
VERTEX
  8
sensibilidade_ambiental
 10
-9.474173
 20
38.701658
  0
VERTEX
  8
sensibilidade_ambiental
 10
-9.473910
 20
38.701565
  0
VERTEX
  8
sensibilidade_ambiental
 10
-9.473820
 20
38.701513
  0
VERTEX
  8
sensibilidade_ambiental
 10
-9.473703
 20
38.701417
  0
VERTEX
  8
sensibilidade_ambiental
 10
-9.473619
 20
38.701281
  0
VERTEX
  8
sensibilidade_ambiental
 10
-9.473526
 20
38.701200
  0
VERTEX
  8
sensibilidade_ambiental
 10
-9.473476
 20
38.701154
  0
VERTEX
  8
sensibilidade_ambiental
 10
-9.473389
 20
38.701107
  0
VERTEX
  8
sensibilidade_ambiental
 10
-9.473298
 20
38.701078
  0
VERTEX
  8
sensibilidade_ambiental
 10
-9.473246
 20
38.701064
  0
VERTEX
  8
sensibilidade_ambiental
 10
-9.473212
 20
38.701043
  0
VERTEX
  8
sensibilidade_ambiental
 10
-9.473184
 20
38.701011
  0
VERTEX
  8
sensibilidade_ambiental
 10
-9.473177
 20
38.700992
  0
VERTEX
  8
sensibilidade_ambiental
 10
-9.473165
 20
38.700974
  0
VERTEX
  8
sensibilidade_ambiental
 10
-9.473114
 20
38.700930
  0
VERTEX
  8
sensibilidade_ambiental
 10
-9.473015
 20
38.700910
  0
VERTEX
  8
sensibilidade_ambiental
 10
-9.472891
 20
38.700902
  0
VERTEX
  8
sensibilidade_ambiental
 10
-9.472818
 20
38.700893
  0
VERTEX
  8
sensibilidade_ambiental
 10
-9.472752
 20
38.700882
  0
VERTEX
  8
sensibilidade_ambiental
 10
-9.472691
 20
38.700879
  0
VERTEX
  8
sensibilidade_ambiental
 10
-9.472607
 20
38.700880
  0
VERTEX
  8
sensibilidade_ambiental
 10
-9.472549
 20
38.700884
  0
VERTEX
  8
sensibilidade_ambiental
 10
-9.472479
 20
38.700880
  0
VERTEX
  8
sensibilidade_ambiental
 10
-9.472374
 20
38.700849
  0
VERTEX
  8
sensibilidade_ambiental
 10
-9.472273
 20
38.700767
  0
VERTEX
  8
sensibilidade_ambiental
 10
-9.472243
 20
38.700735
  0
VERTEX
  8
sensibilidade_ambiental
 10
-9.472198
 20
38.700690
  0
VERTEX
  8
sensibilidade_ambiental
 10
-9.472168
 20
38.700628
  0
VERTEX
  8
sensibilidade_ambiental
 10
-9.472125
 20
38.700551
  0
VERTEX
  8
sensibilidade_ambiental
 10
-9.472063
 20
38.700471
  0
VERTEX
  8
sensibilidade_ambiental
 10
-9.472023
 20
38.700446
  0
VERTEX
  8
sensibilidade_ambiental
 10
-9.471952
 20
38.700438
  0
VERTEX
  8
sensibilidade_ambiental
 10
-9.471908
 20
38.700427
  0
VERTEX
  8
sensibilidade_ambiental
 10
-9.471863
 20
38.700432
  0
VERTEX
  8
sensibilidade_ambiental
 10
-9.471835
 20
38.700428
  0
VERTEX
  8
sensibilidade_ambiental
 10
-9.471805
 20
38.700425
  0
VERTEX
  8
sensibilidade_ambiental
 10
-9.471749
 20
38.700417
  0
VERTEX
  8
sensibilidade_ambiental
 10
-9.471701
 20
38.700400
  0
VERTEX
  8
sensibilidade_ambiental
 10
-9.471663
 20
38.700391
  0
VERTEX
  8
sensibilidade_ambiental
 10
-9.471629
 20
38.700366
  0
VERTEX
  8
sensibilidade_ambiental
 10
-9.471594
 20
38.700344
  0
VERTEX
  8
sensibilidade_ambiental
 10
-9.471548
 20
38.700303
  0
VERTEX
  8
sensibilidade_ambiental
 10
-9.471483
 20
38.700270
  0
VERTEX
  8
sensibilidade_ambiental
 10
-9.471364
 20
38.700194
  0
VERTEX
  8
sensibilidade_ambiental
 10
-9.471278
 20
38.700180
  0
VERTEX
  8
sensibilidade_ambiental
 10
-9.471197
 20
38.700187
  0
VERTEX
  8
sensibilidade_ambiental
 10
-9.471151
 20
38.700195
  0
VERTEX
  8
sensibilidade_ambiental
 10
-9.471082
 20
38.700193
  0
VERTEX
  8
sensibilidade_ambiental
 10
-9.471021
 20
38.700186
  0
VERTEX
  8
sensibilidade_ambiental
 10
-9.470964
 20
38.700185
  0
VERTEX
  8
sensibilidade_ambiental
 10
-9.470898
 20
38.700182
  0
VERTEX
  8
sensibilidade_ambiental
 10
-9.470865
 20
38.700167
  0
VERTEX
  8
sensibilidade_ambiental
 10
-9.470805
 20
38.700095
  0
VERTEX
  8
sensibilidade_ambiental
 10
-9.470706
 20
38.700009
  0
VERTEX
  8
sensibilidade_ambiental
 10
-9.470592
 20
38.699937
  0
VERTEX
  8
sensibilidade_ambiental
 10
-9.470525
 20
38.699868
  0
VERTEX
  8
sensibilidade_ambiental
 10
-9.470443
 20
38.699816
  0
VERTEX
  8
sensibilidade_ambiental
 10
-9.470336
 20
38.699791
  0
VERTEX
  8
sensibilidade_ambiental
 10
-9.470259
 20
38.699773
  0
VERTEX
  8
sensibilidade_ambiental
 10
-9.470162
 20
38.699749
  0
VERTEX
  8
sensibilidade_ambiental
 10
-9.470033
 20
38.699741
  0
VERTEX
  8
sensibilidade_ambiental
 10
-9.469923
 20
38.699713
  0
VERTEX
  8
sensibilidade_ambiental
 10
-9.469850
 20
38.699706
  0
VERTEX
  8
sensibilidade_ambiental
 10
-9.469816
 20
38.699680
  0
VERTEX
  8
sensibilidade_ambiental
 10
-9.469803
 20
38.699602
  0
VERTEX
  8
sensibilidade_ambiental
 10
-9.469808
 20
38.699535
  0
VERTEX
  8
sensibilidade_ambiental
 10
-9.469798
 20
38.699516
  0
VERTEX
  8
sensibilidade_ambiental
 10
-9.469777
 20
38.699492
  0
VERTEX
  8
sensibilidade_ambiental
 10
-9.469725
 20
38.699463
  0
VERTEX
  8
sensibilidade_ambiental
 10
-9.469666
 20
38.699418
  0
VERTEX
  8
sensibilidade_ambiental
 10
-9.469582
 20
38.699396
  0
VERTEX
  8
sensibilidade_ambiental
 10
-9.469482
 20
38.699378
  0
VERTEX
  8
sensibilidade_ambiental
 10
-9.469411
 20
38.699343
  0
VERTEX
  8
sensibilidade_ambiental
 10
-9.469289
 20
38.699282
  0
VERTEX
  8
sensibilidade_ambiental
 10
-9.469220
 20
38.699266
  0
VERTEX
  8
sensibilidade_ambiental
 10
-9.469169
 20
38.699242
  0
VERTEX
  8
sensibilidade_ambiental
 10
-9.469087
 20
38.699239
  0
VERTEX
  8
sensibilidade_ambiental
 10
-9.469017
 20
38.699241
  0
VERTEX
  8
sensibilidade_ambiental
 10
-9.468972
 20
38.699261
  0
VERTEX
  8
sensibilidade_ambiental
 10
-9.468931
 20
38.699276
  0
VERTEX
  8
sensibilidade_ambiental
 10
-9.468840
 20
38.699282
  0
VERTEX
  8
sensibilidade_ambiental
 10
-9.468791
 20
38.699283
  0
VERTEX
  8
sensibilidade_ambiental
 10
-9.468761
 20
38.699275
  0
VERTEX
  8
sensibilidade_ambiental
 10
-9.468702
 20
38.699198
  0
VERTEX
  8
sensibilidade_ambiental
 10
-9.468644
 20
38.699173
  0
VERTEX
  8
sensibilidade_ambiental
 10
-9.468581
 20
38.699156
  0
VERTEX
  8
sensibilidade_ambiental
 10
-9.468533
 20
38.699152
  0
VERTEX
  8
sensibilidade_ambiental
 10
-9.468499
 20
38.699147
  0
VERTEX
  8
sensibilidade_ambiental
 10
-9.468467
 20
38.699144
  0
VERTEX
  8
sensibilidade_ambiental
 10
-9.468435
 20
38.699143
  0
VERTEX
  8
sensibilidade_ambiental
 10
-9.468408
 20
38.699151
  0
VERTEX
  8
sensibilidade_ambiental
 10
-9.468396
 20
38.699171
  0
VERTEX
  8
sensibilidade_ambiental
 10
-9.468390
 20
38.699199
  0
VERTEX
  8
sensibilidade_ambiental
 10
-9.468430
 20
38.699249
  0
VERTEX
  8
sensibilidade_ambiental
 10
-9.468444
 20
38.699276
  0
VERTEX
  8
sensibilidade_ambiental
 10
-9.468468
 20
38.699298
  0
VERTEX
  8
sensibilidade_ambiental
 10
-9.468494
 20
38.699320
  0
VERTEX
  8
sensibilidade_ambiental
 10
-9.468517
 20
38.699353
  0
VERTEX
  8
sensibilidade_ambiental
 10
-9.468539
 20
38.699395
  0
VERTEX
  8
sensibilidade_ambiental
 10
-9.468538
 20
38.699430
  0
VERTEX
  8
sensibilidade_ambiental
 10
-9.468529
 20
38.699461
  0
VERTEX
  8
sensibilidade_ambiental
 10
-9.468498
 20
38.699470
  0
VERTEX
  8
sensibilidade_ambiental
 10
-9.468470
 20
38.699468
  0
VERTEX
  8
sensibilidade_ambiental
 10
-9.468436
 20
38.699453
  0
VERTEX
  8
sensibilidade_ambiental
 10
-9.468386
 20
38.699418
  0
VERTEX
  8
sensibilidade_ambiental
 10
-9.468300
 20
38.699318
  0
VERTEX
  8
sensibilidade_ambiental
 10
-9.468278
 20
38.699282
  0
VERTEX
  8
sensibilidade_ambiental
 10
-9.468240
 20
38.699250
  0
VERTEX
  8
sensibilidade_ambiental
 10
-9.468217
 20
38.699194
  0
VERTEX
  8
sensibilidade_ambiental
 10
-9.468204
 20
38.699163
  0
VERTEX
  8
sensibilidade_ambiental
 10
-9.468181
 20
38.699151
  0
VERTEX
  8
sensibilidade_ambiental
 10
-9.468154
 20
38.699134
  0
VERTEX
  8
sensibilidade_ambiental
 10
-9.468128
 20
38.699120
  0
VERTEX
  8
sensibilidade_ambiental
 10
-9.468091
 20
38.699109
  0
VERTEX
  8
sensibilidade_ambiental
 10
-9.468054
 20
38.699105
  0
VERTEX
  8
sensibilidade_ambiental
 10
-9.468016
 20
38.699108
  0
VERTEX
  8
sensibilidade_ambiental
 10
-9.467976
 20
38.699115
  0
VERTEX
  8
sensibilidade_ambiental
 10
-9.467934
 20
38.699107
  0
VERTEX
  8
sensibilidade_ambiental
 10
-9.467879
 20
38.699084
  0
VERTEX
  8
sensibilidade_ambiental
 10
-9.467788
 20
38.699051
  0
VERTEX
  8
sensibilidade_ambiental
 10
-9.467681
 20
38.698996
  0
VERTEX
  8
sensibilidade_ambiental
 10
-9.467616
 20
38.698945
  0
VERTEX
  8
sensibilidade_ambiental
 10
-9.467588
 20
38.698912
  0
VERTEX
  8
sensibilidade_ambiental
 10
-9.467588
 20
38.698881
  0
VERTEX
  8
sensibilidade_ambiental
 10
-9.467577
 20
38.698845
  0
VERTEX
  8
sensibilidade_ambiental
 10
-9.467579
 20
38.698816
  0
VERTEX
  8
sensibilidade_ambiental
 10
-9.467577
 20
38.698773
  0
VERTEX
  8
sensibilidade_ambiental
 10
-9.467578
 20
38.698750
  0
VERTEX
  8
sensibilidade_ambiental
 10
-9.467572
 20
38.698716
  0
VERTEX
  8
sensibilidade_ambiental
 10
-9.467520
 20
38.698679
  0
VERTEX
  8
sensibilidade_ambiental
 10
-9.467432
 20
38.698655
  0
VERTEX
  8
sensibilidade_ambiental
 10
-9.467353
 20
38.698651
  0
VERTEX
  8
sensibilidade_ambiental
 10
-9.467273
 20
38.698678
  0
VERTEX
  8
sensibilidade_ambiental
 10
-9.467230
 20
38.698703
  0
VERTEX
  8
sensibilidade_ambiental
 10
-9.467211
 20
38.698725
  0
VERTEX
  8
sensibilidade_ambiental
 10
-9.467202
 20
38.698803
  0
VERTEX
  8
sensibilidade_ambiental
 10
-9.467187
 20
38.698880
  0
VERTEX
  8
sensibilidade_ambiental
 10
-9.467128
 20
38.698980
  0
VERTEX
  8
sensibilidade_ambiental
 10
-9.467089
 20
38.698998
  0
VERTEX
  8
sensibilidade_ambiental
 10
-9.467051
 20
38.698992
  0
VERTEX
  8
sensibilidade_ambiental
 10
-9.466926
 20
38.698785
  0
VERTEX
  8
sensibilidade_ambiental
 10
-9.466885
 20
38.698700
  0
VERTEX
  8
sensibilidade_ambiental
 10
-9.466862
 20
38.698616
  0
VERTEX
  8
sensibilidade_ambiental
 10
-9.466730
 20
38.698448
  0
VERTEX
  8
sensibilidade_ambiental
 10
-9.466623
 20
38.698349
  0
VERTEX
  8
sensibilidade_ambiental
 10
-9.466488
 20
38.698226
  0
VERTEX
  8
sensibilidade_ambiental
 10
-9.466264
 20
38.698060
  0
VERTEX
  8
sensibilidade_ambiental
 10
-9.466160
 20
38.698015
  0
VERTEX
  8
sensibilidade_ambiental
 10
-9.466106
 20
38.697995
  0
VERTEX
  8
sensibilidade_ambiental
 10
-9.466003
 20
38.697963
  0
VERTEX
  8
sensibilidade_ambiental
 10
-9.465925
 20
38.697925
  0
VERTEX
  8
sensibilidade_ambiental
 10
-9.465862
 20
38.697846
  0
VERTEX
  8
sensibilidade_ambiental
 10
-9.465853
 20
38.697814
  0
VERTEX
  8
sensibilidade_ambiental
 10
-9.465722
 20
38.697689
  0
VERTEX
  8
sensibilidade_ambiental
 10
-9.465630
 20
38.697659
  0
VERTEX
  8
sensibilidade_ambiental
 10
-9.465549
 20
38.697614
  0
VERTEX
  8
sensibilidade_ambiental
 10
-9.465512
 20
38.697564
  0
VERTEX
  8
sensibilidade_ambiental
 10
-9.465424
 20
38.697506
  0
VERTEX
  8
sensibilidade_ambiental
 10
-9.465356
 20
38.697476
  0
VERTEX
  8
sensibilidade_ambiental
 10
-9.465296
 20
38.697428
  0
VERTEX
  8
sensibilidade_ambiental
 10
-9.465288
 20
38.697417
  0
VERTEX
  8
sensibilidade_ambiental
 10
-9.465190
 20
38.697338
  0
VERTEX
  8
sensibilidade_ambiental
 10
-9.465132
 20
38.697320
  0
VERTEX
  8
sensibilidade_ambiental
 10
-9.465065
 20
38.697304
  0
VERTEX
  8
sensibilidade_ambiental
 10
-9.464982
 20
38.697284
  0
VERTEX
  8
sensibilidade_ambiental
 10
-9.464904
 20
38.697278
  0
VERTEX
  8
sensibilidade_ambiental
 10
-9.464824
 20
38.697237
  0
VERTEX
  8
sensibilidade_ambiental
 10
-9.464734
 20
38.697147
  0
VERTEX
  8
sensibilidade_ambiental
 10
-9.464641
 20
38.697090
  0
VERTEX
  8
sensibilidade_ambiental
 10
-9.464531
 20
38.697059
  0
VERTEX
  8
sensibilidade_ambiental
 10
-9.464474
 20
38.697029
  0
VERTEX
  8
sensibilidade_ambiental
 10
-9.464461
 20
38.696995
  0
VERTEX
  8
sensibilidade_ambiental
 10
-9.464373
 20
38.696981
  0
VERTEX
  8
sensibilidade_ambiental
 10
-9.464315
 20
38.696985
  0
VERTEX
  8
sensibilidade_ambiental
 10
-9.464259
 20
38.696988
  0
VERTEX
  8
sensibilidade_ambiental
 10
-9.464232
 20
38.696994
  0
VERTEX
  8
sensibilidade_ambiental
 10
-9.464079
 20
38.696972
  0
VERTEX
  8
sensibilidade_ambiental
 10
-9.464062
 20
38.696946
  0
VERTEX
  8
sensibilidade_ambiental
 10
-9.463984
 20
38.696918
  0
VERTEX
  8
sensibilidade_ambiental
 10
-9.463971
 20
38.696900
  0
VERTEX
  8
sensibilidade_ambiental
 10
-9.463941
 20
38.696876
  0
VERTEX
  8
sensibilidade_ambiental
 10
-9.463930
 20
38.696868
  0
VERTEX
  8
sensibilidade_ambiental
 10
-9.463919
 20
38.696869
  0
VERTEX
  8
sensibilidade_ambiental
 10
-9.463905
 20
38.696877
  0
VERTEX
  8
sensibilidade_ambiental
 10
-9.463847
 20
38.696920
  0
VERTEX
  8
sensibilidade_ambiental
 10
-9.463830
 20
38.696929
  0
VERTEX
  8
sensibilidade_ambiental
 10
-9.463809
 20
38.696929
  0
VERTEX
  8
sensibilidade_ambiental
 10
-9.463801
 20
38.696920
  0
VERTEX
  8
sensibilidade_ambiental
 10
-9.463798
 20
38.696909
  0
VERTEX
  8
sensibilidade_ambiental
 10
-9.463800
 20
38.696887
  0
VERTEX
  8
sensibilidade_ambiental
 10
-9.463802
 20
38.696878
  0
VERTEX
  8
sensibilidade_ambiental
 10
-9.463811
 20
38.696857
  0
VERTEX
  8
sensibilidade_ambiental
 10
-9.463810
 20
38.696846
  0
VERTEX
  8
sensibilidade_ambiental
 10
-9.463804
 20
38.696838
  0
VERTEX
  8
sensibilidade_ambiental
 10
-9.463785
 20
38.696832
  0
VERTEX
  8
sensibilidade_ambiental
 10
-9.463762
 20
38.696832
  0
VERTEX
  8
sensibilidade_ambiental
 10
-9.463741
 20
38.696840
  0
VERTEX
  8
sensibilidade_ambiental
 10
-9.463728
 20
38.696855
  0
VERTEX
  8
sensibilidade_ambiental
 10
-9.463718
 20
38.696879
  0
VERTEX
  8
sensibilidade_ambiental
 10
-9.463708
 20
38.696892
  0
VERTEX
  8
sensibilidade_ambiental
 10
-9.463693
 20
38.696903
  0
VERTEX
  8
sensibilidade_ambiental
 10
-9.463664
 20
38.696909
  0
VERTEX
  8
sensibilidade_ambiental
 10
-9.463641
 20
38.696903
  0
VERTEX
  8
sensibilidade_ambiental
 10
-9.463630
 20
38.696880
  0
VERTEX
  8
sensibilidade_ambiental
 10
-9.463630
 20
38.696847
  0
VERTEX
  8
sensibilidade_ambiental
 10
-9.463624
 20
38.696826
  0
VERTEX
  8
sensibilidade_ambiental
 10
-9.463602
 20
38.696803
  0
VERTEX
  8
sensibilidade_ambiental
 10
-9.463554
 20
38.696768
  0
VERTEX
  8
sensibilidade_ambiental
 10
-9.463495
 20
38.696696
  0
VERTEX
  8
sensibilidade_ambiental
 10
-9.463434
 20
38.696660
  0
VERTEX
  8
sensibilidade_ambiental
 10
-9.463309
 20
38.696620
  0
VERTEX
  8
sensibilidade_ambiental
 10
-9.463228
 20
38.696613
  0
VERTEX
  8
sensibilidade_ambiental
 10
-9.463174
 20
38.696570
  0
VERTEX
  8
sensibilidade_ambiental
 10
-9.463129
 20
38.696541
  0
VERTEX
  8
sensibilidade_ambiental
 10
-9.463075
 20
38.696520
  0
VERTEX
  8
sensibilidade_ambiental
 10
-9.462996
 20
38.696485
  0
VERTEX
  8
sensibilidade_ambiental
 10
-9.462913
 20
38.696465
  0
VERTEX
  8
sensibilidade_ambiental
 10
-9.462826
 20
38.696426
  0
VERTEX
  8
sensibilidade_ambiental
 10
-9.462802
 20
38.696388
  0
VERTEX
  8
sensibilidade_ambiental
 10
-9.462739
 20
38.696347
  0
VERTEX
  8
sensibilidade_ambiental
 10
-9.462686
 20
38.696338
  0
VERTEX
  8
sensibilidade_ambiental
 10
-9.462630
 20
38.696346
  0
VERTEX
  8
sensibilidade_ambiental
 10
-9.462589
 20
38.696335
  0
VERTEX
  8
sensibilidade_ambiental
 10
-9.462536
 20
38.696271
  0
VERTEX
  8
sensibilidade_ambiental
 10
-9.462471
 20
38.696252
  0
VERTEX
  8
sensibilidade_ambiental
 10
-9.462417
 20
38.696250
  0
VERTEX
  8
sensibilidade_ambiental
 10
-9.462291
 20
38.696278
  0
VERTEX
  8
sensibilidade_ambiental
 10
-9.462245
 20
38.696293
  0
VERTEX
  8
sensibilidade_ambiental
 10
-9.462232
 20
38.696307
  0
VERTEX
  8
sensibilidade_ambiental
 10
-9.462224
 20
38.696340
  0
VERTEX
  8
sensibilidade_ambiental
 10
-9.462233
 20
38.696372
  0
VERTEX
  8
sensibilidade_ambiental
 10
-9.462277
 20
38.696434
  0
VERTEX
  8
sensibilidade_ambiental
 10
-9.462281
 20
38.696470
  0
VERTEX
  8
sensibilidade_ambiental
 10
-9.462251
 20
38.696486
  0
VERTEX
  8
sensibilidade_ambiental
 10
-9.462166
 20
38.696480
  0
VERTEX
  8
sensibilidade_ambiental
 10
-9.462089
 20
38.696419
  0
VERTEX
  8
sensibilidade_ambiental
 10
-9.462070
 20
38.696376
  0
VERTEX
  8
sensibilidade_ambiental
 10
-9.462079
 20
38.696272
  0
VERTEX
  8
sensibilidade_ambiental
 10
-9.462079
 20
38.696208
  0
VERTEX
  8
sensibilidade_ambiental
 10
-9.462054
 20
38.696163
  0
VERTEX
  8
sensibilidade_ambiental
 10
-9.461987
 20
38.696119
  0
VERTEX
  8
sensibilidade_ambiental
 10
-9.461920
 20
38.696078
  0
VERTEX
  8
sensibilidade_ambiental
 10
-9.461853
 20
38.696044
  0
VERTEX
  8
sensibilidade_ambiental
 10
-9.461782
 20
38.696017
  0
VERTEX
  8
sensibilidade_ambiental
 10
-9.461699
 20
38.695983
  0
VERTEX
  8
sensibilidade_ambiental
 10
-9.461654
 20
38.695948
  0
VERTEX
  8
sensibilidade_ambiental
 10
-9.461512
 20
38.695858
  0
VERTEX
  8
sensibilidade_ambiental
 10
-9.461433
 20
38.695801
  0
VERTEX
  8
sensibilidade_ambiental
 10
-9.461327
 20
38.695755
  0
VERTEX
  8
sensibilidade_ambiental
 10
-9.461260
 20
38.695745
  0
VERTEX
  8
sensibilidade_ambiental
 10
-9.461167
 20
38.695708
  0
VERTEX
  8
sensibilidade_ambiental
 10
-9.461133
 20
38.695676
  0
VERTEX
  8
sensibilidade_ambiental
 10
-9.461087
 20
38.695593
  0
VERTEX
  8
sensibilidade_ambiental
 10
-9.461041
 20
38.695569
  0
VERTEX
  8
sensibilidade_ambiental
 10
-9.460990
 20
38.695564
  0
VERTEX
  8
sensibilidade_ambiental
 10
-9.460898
 20
38.695567
  0
VERTEX
  8
sensibilidade_ambiental
 10
-9.460868
 20
38.695587
  0
VERTEX
  8
sensibilidade_ambiental
 10
-9.460819
 20
38.695598
  0
VERTEX
  8
sensibilidade_ambiental
 10
-9.460776
 20
38.695621
  0
VERTEX
  8
sensibilidade_ambiental
 10
-9.460742
 20
38.695621
  0
VERTEX
  8
sensibilidade_ambiental
 10
-9.460561
 20
38.695514
  0
VERTEX
  8
sensibilidade_ambiental
 10
-9.460521
 20
38.695434
  0
VERTEX
  8
sensibilidade_ambiental
 10
-9.460419
 20
38.695401
  0
VERTEX
  8
sensibilidade_ambiental
 10
-9.460351
 20
38.695319
  0
VERTEX
  8
sensibilidade_ambiental
 10
-9.460283
 20
38.695295
  0
VERTEX
  8
sensibilidade_ambiental
 10
-9.460267
 20
38.695276
  0
VERTEX
  8
sensibilidade_ambiental
 10
-9.460258
 20
38.695214
  0
VERTEX
  8
sensibilidade_ambiental
 10
-9.460236
 20
38.695166
  0
VERTEX
  8
sensibilidade_ambiental
 10
-9.460182
 20
38.695142
  0
VERTEX
  8
sensibilidade_ambiental
 10
-9.460117
 20
38.695156
  0
VERTEX
  8
sensibilidade_ambiental
 10
-9.460061
 20
38.695152
  0
VERTEX
  8
sensibilidade_ambiental
 10
-9.459998
 20
38.695130
  0
VERTEX
  8
sensibilidade_ambiental
 10
-9.459935
 20
38.695097
  0
VERTEX
  8
sensibilidade_ambiental
 10
-9.459846
 20
38.695065
  0
VERTEX
  8
sensibilidade_ambiental
 10
-9.459770
 20
38.695031
  0
VERTEX
  8
sensibilidade_ambiental
 10
-9.459693
 20
38.694957
  0
VERTEX
  8
sensibilidade_ambiental
 10
-9.459590
 20
38.694909
  0
VERTEX
  8
sensibilidade_ambiental
 10
-9.459501
 20
38.694892
  0
VERTEX
  8
sensibilidade_ambiental
 10
-9.459435
 20
38.694896
  0
VERTEX
  8
sensibilidade_ambiental
 10
-9.459320
 20
38.694950
  0
VERTEX
  8
sensibilidade_ambiental
 10
-9.459244
 20
38.695020
  0
VERTEX
  8
sensibilidade_ambiental
 10
-9.459189
 20
38.695065
  0
VERTEX
  8
sensibilidade_ambiental
 10
-9.459153
 20
38.695079
  0
VERTEX
  8
sensibilidade_ambiental
 10
-9.459114
 20
38.695080
  0
VERTEX
  8
sensibilidade_ambiental
 10
-9.459070
 20
38.695075
  0
VERTEX
  8
sensibilidade_ambiental
 10
-9.459025
 20
38.695035
  0
VERTEX
  8
sensibilidade_ambiental
 10
-9.459021
 20
38.695010
  0
VERTEX
  8
sensibilidade_ambiental
 10
-9.459041
 20
38.694986
  0
VERTEX
  8
sensibilidade_ambiental
 10
-9.459153
 20
38.694943
  0
VERTEX
  8
sensibilidade_ambiental
 10
-9.459160
 20
38.694929
  0
VERTEX
  8
sensibilidade_ambiental
 10
-9.459154
 20
38.694909
  0
VERTEX
  8
sensibilidade_ambiental
 10
-9.459047
 20
38.694870
  0
VERTEX
  8
sensibilidade_ambiental
 10
-9.458995
 20
38.694847
  0
VERTEX
  8
sensibilidade_ambiental
 10
-9.458962
 20
38.694840
  0
VERTEX
  8
sensibilidade_ambiental
 10
-9.458929
 20
38.694841
  0
VERTEX
  8
sensibilidade_ambiental
 10
-9.458873
 20
38.694861
  0
VERTEX
  8
sensibilidade_ambiental
 10
-9.458837
 20
38.694887
  0
VERTEX
  8
sensibilidade_ambiental
 10
-9.458838
 20
38.694947
  0
VERTEX
  8
sensibilidade_ambiental
 10
-9.458860
 20
38.695010
  0
VERTEX
  8
sensibilidade_ambiental
 10
-9.458877
 20
38.695035
  0
VERTEX
  8
sensibilidade_ambiental
 10
-9.458885
 20
38.695091
  0
VERTEX
  8
sensibilidade_ambiental
 10
-9.458877
 20
38.695124
  0
VERTEX
  8
sensibilidade_ambiental
 10
-9.458841
 20
38.695141
  0
VERTEX
  8
sensibilidade_ambiental
 10
-9.458787
 20
38.695148
  0
VERTEX
  8
sensibilidade_ambiental
 10
-9.458744
 20
38.695143
  0
VERTEX
  8
sensibilidade_ambiental
 10
-9.458739
 20
38.695124
  0
VERTEX
  8
sensibilidade_ambiental
 10
-9.458734
 20
38.695040
  0
VERTEX
  8
sensibilidade_ambiental
 10
-9.458712
 20
38.695014
  0
VERTEX
  8
sensibilidade_ambiental
 10
-9.458724
 20
38.694967
  0
VERTEX
  8
sensibilidade_ambiental
 10
-9.458751
 20
38.694922
  0
VERTEX
  8
sensibilidade_ambiental
 10
-9.458744
 20
38.694891
  0
VERTEX
  8
sensibilidade_ambiental
 10
-9.458686
 20
38.694856
  0
VERTEX
  8
sensibilidade_ambiental
 10
-9.458624
 20
38.694844
  0
VERTEX
  8
sensibilidade_ambiental
 10
-9.458481
 20
38.694793
  0
VERTEX
  8
sensibilidade_ambiental
 10
-9.458332
 20
38.694723
  0
VERTEX
  8
sensibilidade_ambiental
 10
-9.458203
 20
38.694685
  0
VERTEX
  8
sensibilidade_ambiental
 10
-9.458069
 20
38.694688
  0
VERTEX
  8
sensibilidade_ambiental
 10
-9.457964
 20
38.694668
  0
VERTEX
  8
sensibilidade_ambiental
 10
-9.457889
 20
38.694671
  0
VERTEX
  8
sensibilidade_ambiental
 10
-9.457790
 20
38.694743
  0
VERTEX
  8
sensibilidade_ambiental
 10
-9.457781
 20
38.694804
  0
VERTEX
  8
sensibilidade_ambiental
 10
-9.457785
 20
38.694872
  0
VERTEX
  8
sensibilidade_ambiental
 10
-9.457870
 20
38.695049
  0
VERTEX
  8
sensibilidade_ambiental
 10
-9.457934
 20
38.695190
  0
VERTEX
  8
sensibilidade_ambiental
 10
-9.457933
 20
38.695195
  0
VERTEX
  8
sensibilidade_ambiental
 10
-9.457927
 20
38.695201
  0
VERTEX
  8
sensibilidade_ambiental
 10
-9.457878
 20
38.695219
  0
VERTEX
  8
sensibilidade_ambiental
 10
-9.457802
 20
38.695238
  0
VERTEX
  8
sensibilidade_ambiental
 10
-9.457790
 20
38.695237
  0
VERTEX
  8
sensibilidade_ambiental
 10
-9.457783
 20
38.695228
  0
VERTEX
  8
sensibilidade_ambiental
 10
-9.457765
 20
38.695142
  0
VERTEX
  8
sensibilidade_ambiental
 10
-9.457751
 20
38.695056
  0
VERTEX
  8
sensibilidade_ambiental
 10
-9.457750
 20
38.694967
  0
VERTEX
  8
sensibilidade_ambiental
 10
-9.457749
 20
38.694874
  0
VERTEX
  8
sensibilidade_ambiental
 10
-9.457745
 20
38.694825
  0
VERTEX
  8
sensibilidade_ambiental
 10
-9.457728
 20
38.694754
  0
VERTEX
  8
sensibilidade_ambiental
 10
-9.457694
 20
38.694731
  0
VERTEX
  8
sensibilidade_ambiental
 10
-9.457609
 20
38.694733
  0
VERTEX
  8
sensibilidade_ambiental
 10
-9.457558
 20
38.694752
  0
VERTEX
  8
sensibilidade_ambiental
 10
-9.457522
 20
38.694864
  0
VERTEX
  8
sensibilidade_ambiental
 10
-9.457504
 20
38.694900
  0
VERTEX
  8
sensibilidade_ambiental
 10
-9.457488
 20
38.694912
  0
VERTEX
  8
sensibilidade_ambiental
 10
-9.457435
 20
38.694901
  0
VERTEX
  8
sensibilidade_ambiental
 10
-9.457350
 20
38.694804
  0
VERTEX
  8
sensibilidade_ambiental
 10
-9.457292
 20
38.694778
  0
VERTEX
  8
sensibilidade_ambiental
 10
-9.457191
 20
38.694778
  0
VERTEX
  8
sensibilidade_ambiental
 10
-9.457093
 20
38.694782
  0
VERTEX
  8
sensibilidade_ambiental
 10
-9.457002
 20
38.694796
  0
VERTEX
  8
sensibilidade_ambiental
 10
-9.456976
 20
38.694805
  0
VERTEX
  8
sensibilidade_ambiental
 10
-9.456927
 20
38.694832
  0
VERTEX
  8
sensibilidade_ambiental
 10
-9.456890
 20
38.694837
  0
VERTEX
  8
sensibilidade_ambiental
 10
-9.456856
 20
38.694824
  0
VERTEX
  8
sensibilidade_ambiental
 10
-9.456828
 20
38.694795
  0
VERTEX
  8
sensibilidade_ambiental
 10
-9.456801
 20
38.694751
  0
VERTEX
  8
sensibilidade_ambiental
 10
-9.456769
 20
38.694738
  0
VERTEX
  8
sensibilidade_ambiental
 10
-9.456700
 20
38.694739
  0
VERTEX
  8
sensibilidade_ambiental
 10
-9.456639
 20
38.694764
  0
VERTEX
  8
sensibilidade_ambiental
 10
-9.456597
 20
38.694801
  0
VERTEX
  8
sensibilidade_ambiental
 10
-9.456567
 20
38.694805
  0
VERTEX
  8
sensibilidade_ambiental
 10
-9.456477
 20
38.694793
  0
VERTEX
  8
sensibilidade_ambiental
 10
-9.456411
 20
38.694790
  0
VERTEX
  8
sensibilidade_ambiental
 10
-9.456341
 20
38.694806
  0
VERTEX
  8
sensibilidade_ambiental
 10
-9.456283
 20
38.694826
  0
VERTEX
  8
sensibilidade_ambiental
 10
-9.456225
 20
38.694832
  0
VERTEX
  8
sensibilidade_ambiental
 10
-9.456170
 20
38.694841
  0
VERTEX
  8
sensibilidade_ambiental
 10
-9.456126
 20
38.694866
  0
VERTEX
  8
sensibilidade_ambiental
 10
-9.456047
 20
38.694887
  0
VERTEX
  8
sensibilidade_ambiental
 10
-9.455978
 20
38.694880
  0
VERTEX
  8
sensibilidade_ambiental
 10
-9.455930
 20
38.694867
  0
VERTEX
  8
sensibilidade_ambiental
 10
-9.455888
 20
38.694856
  0
VERTEX
  8
sensibilidade_ambiental
 10
-9.455825
 20
38.694868
  0
VERTEX
  8
sensibilidade_ambiental
 10
-9.455730
 20
38.694907
  0
VERTEX
  8
sensibilidade_ambiental
 10
-9.455674
 20
38.694945
  0
VERTEX
  8
sensibilidade_ambiental
 10
-9.455647
 20
38.694995
  0
VERTEX
  8
sensibilidade_ambiental
 10
-9.455639
 20
38.695038
  0
VERTEX
  8
sensibilidade_ambiental
 10
-9.455686
 20
38.695131
  0
VERTEX
  8
sensibilidade_ambiental
 10
-9.455551
 20
38.695165
  0
VERTEX
  8
sensibilidade_ambiental
 10
-9.455541
 20
38.695103
  0
VERTEX
  8
sensibilidade_ambiental
 10
-9.455551
 20
38.695077
  0
VERTEX
  8
sensibilidade_ambiental
 10
-9.455575
 20
38.695036
  0
VERTEX
  8
sensibilidade_ambiental
 10
-9.455569
 20
38.694994
  0
VERTEX
  8
sensibilidade_ambiental
 10
-9.455535
 20
38.694939
  0
VERTEX
  8
sensibilidade_ambiental
 10
-9.455358
 20
38.694808
  0
VERTEX
  8
sensibilidade_ambiental
 10
-9.455226
 20
38.694686
  0
VERTEX
  8
sensibilidade_ambiental
 10
-9.455177
 20
38.694664
  0
VERTEX
  8
sensibilidade_ambiental
 10
-9.455118
 20
38.694665
  0
VERTEX
  8
sensibilidade_ambiental
 10
-9.454996
 20
38.694691
  0
VERTEX
  8
sensibilidade_ambiental
 10
-9.454996
 20
38.694691
  0
VERTEX
  8
sensibilidade_ambiental
 10
-9.454928
 20
38.694711
  0
VERTEX
  8
sensibilidade_ambiental
 10
-9.454831
 20
38.694764
  0
VERTEX
  8
sensibilidade_ambiental
 10
-9.454775
 20
38.694889
  0
VERTEX
  8
sensibilidade_ambiental
 10
-9.454755
 20
38.694913
  0
VERTEX
  8
sensibilidade_ambiental
 10
-9.454718
 20
38.694917
  0
VERTEX
  8
sensibilidade_ambiental
 10
-9.454681
 20
38.694907
  0
VERTEX
  8
sensibilidade_ambiental
 10
-9.454673
 20
38.694895
  0
VERTEX
  8
sensibilidade_ambiental
 10
-9.454667
 20
38.694856
  0
VERTEX
  8
sensibilidade_ambiental
 10
-9.454661
 20
38.694798
  0
VERTEX
  8
sensibilidade_ambiental
 10
-9.454602
 20
38.694736
  0
VERTEX
  8
sensibilidade_ambiental
 10
-9.454491
 20
38.694744
  0
VERTEX
  8
sensibilidade_ambiental
 10
-9.454446
 20
38.694813
  0
VERTEX
  8
sensibilidade_ambiental
 10
-9.454399
 20
38.694869
  0
VERTEX
  8
sensibilidade_ambiental
 10
-9.454341
 20
38.694864
  0
VERTEX
  8
sensibilidade_ambiental
 10
-9.454269
 20
38.694839
  0
VERTEX
  8
sensibilidade_ambiental
 10
-9.454223
 20
38.694811
  0
VERTEX
  8
sensibilidade_ambiental
 10
-9.454190
 20
38.694772
  0
VERTEX
  8
sensibilidade_ambiental
 10
-9.454204
 20
38.694705
  0
VERTEX
  8
sensibilidade_ambiental
 10
-9.454211
 20
38.694659
  0
VERTEX
  8
sensibilidade_ambiental
 10
-9.454122
 20
38.694643
  0
VERTEX
  8
sensibilidade_ambiental
 10
-9.454070
 20
38.694737
  0
VERTEX
  8
sensibilidade_ambiental
 10
-9.454027
 20
38.694788
  0
VERTEX
  8
sensibilidade_ambiental
 10
-9.453955
 20
38.694817
  0
VERTEX
  8
sensibilidade_ambiental
 10
-9.453913
 20
38.694736
  0
VERTEX
  8
sensibilidade_ambiental
 10
-9.453925
 20
38.694660
  0
VERTEX
  8
sensibilidade_ambiental
 10
-9.453876
 20
38.694610
  0
VERTEX
  8
sensibilidade_ambiental
 10
-9.453817
 20
38.694581
  0
VERTEX
  8
sensibilidade_ambiental
 10
-9.453837
 20
38.694527
  0
VERTEX
  8
sensibilidade_ambiental
 10
-9.453770
 20
38.694459
  0
VERTEX
  8
sensibilidade_ambiental
 10
-9.453691
 20
38.694464
  0
VERTEX
  8
sensibilidade_ambiental
 10
-9.453696
 20
38.694399
  0
VERTEX
  8
sensibilidade_ambiental
 10
-9.453695
 20
38.694322
  0
VERTEX
  8
sensibilidade_ambiental
 10
-9.453601
 20
38.694310
  0
VERTEX
  8
sensibilidade_ambiental
 10
-9.453579
 20
38.694364
  0
VERTEX
  8
sensibilidade_ambiental
 10
-9.453570
 20
38.694422
  0
VERTEX
  8
sensibilidade_ambiental
 10
-9.453527
 20
38.694510
  0
VERTEX
  8
sensibilidade_ambiental
 10
-9.453524
 20
38.694602
  0
VERTEX
  8
sensibilidade_ambiental
 10
-9.453518
 20
38.694675
  0
VERTEX
  8
sensibilidade_ambiental
 10
-9.453499
 20
38.694762
  0
VERTEX
  8
sensibilidade_ambiental
 10
-9.453365
 20
38.694799
  0
VERTEX
  8
sensibilidade_ambiental
 10
-9.453368
 20
38.694873
  0
VERTEX
  8
sensibilidade_ambiental
 10
-9.453252
 20
38.694932
  0
VERTEX
  8
sensibilidade_ambiental
 10
-9.453132
 20
38.694928
  0
VERTEX
  8
sensibilidade_ambiental
 10
-9.452949
 20
38.694925
  0
VERTEX
  8
sensibilidade_ambiental
 10
-9.452852
 20
38.694919
  0
VERTEX
  8
sensibilidade_ambiental
 10
-9.452773
 20
38.694911
  0
VERTEX
  8
sensibilidade_ambiental
 10
-9.452620
 20
38.694866
  0
VERTEX
  8
sensibilidade_ambiental
 10
-9.452526
 20
38.694770
  0
VERTEX
  8
sensibilidade_ambiental
 10
-9.452519
 20
38.694768
  0
VERTEX
  8
sensibilidade_ambiental
 10
-9.452442
 20
38.694752
  0
VERTEX
  8
sensibilidade_ambiental
 10
-9.452404
 20
38.694744
  0
VERTEX
  8
sensibilidade_ambiental
 10
-9.452249
 20
38.694788
  0
VERTEX
  8
sensibilidade_ambiental
 10
-9.452093
 20
38.694798
  0
VERTEX
  8
sensibilidade_ambiental
 10
-9.451904
 20
38.694802
  0
VERTEX
  8
sensibilidade_ambiental
 10
-9.451831
 20
38.694831
  0
VERTEX
  8
sensibilidade_ambiental
 10
-9.451726
 20
38.694914
  0
VERTEX
  8
sensibilidade_ambiental
 10
-9.451642
 20
38.694966
  0
VERTEX
  8
sensibilidade_ambiental
 10
-9.451569
 20
38.695012
  0
VERTEX
  8
sensibilidade_ambiental
 10
-9.451385
 20
38.695016
  0
VERTEX
  8
sensibilidade_ambiental
 10
-9.451189
 20
38.694922
  0
VERTEX
  8
sensibilidade_ambiental
 10
-9.451121
 20
38.694884
  0
VERTEX
  8
sensibilidade_ambiental
 10
-9.451043
 20
38.694843
  0
VERTEX
  8
sensibilidade_ambiental
 10
-9.450939
 20
38.694842
  0
VERTEX
  8
sensibilidade_ambiental
 10
-9.450849
 20
38.694841
  0
VERTEX
  8
sensibilidade_ambiental
 10
-9.450780
 20
38.694838
  0
VERTEX
  8
sensibilidade_ambiental
 10
-9.450644
 20
38.694823
  0
VERTEX
  8
sensibilidade_ambiental
 10
-9.450554
 20
38.694788
  0
VERTEX
  8
sensibilidade_ambiental
 10
-9.450387
 20
38.694791
  0
VERTEX
  8
sensibilidade_ambiental
 10
-9.450244
 20
38.694845
  0
VERTEX
  8
sensibilidade_ambiental
 10
-9.450220
 20
38.694894
  0
VERTEX
  8
sensibilidade_ambiental
 10
-9.450175
 20
38.694973
  0
VERTEX
  8
sensibilidade_ambiental
 10
-9.450108
 20
38.695004
  0
VERTEX
  8
sensibilidade_ambiental
 10
-9.450023
 20
38.694997
  0
VERTEX
  8
sensibilidade_ambiental
 10
-9.449936
 20
38.695000
  0
VERTEX
  8
sensibilidade_ambiental
 10
-9.449836
 20
38.695006
  0
VERTEX
  8
sensibilidade_ambiental
 10
-9.449708
 20
38.695010
  0
VERTEX
  8
sensibilidade_ambiental
 10
-9.449648
 20
38.695029
  0
VERTEX
  8
sensibilidade_ambiental
 10
-9.449554
 20
38.695044
  0
VERTEX
  8
sensibilidade_ambiental
 10
-9.449490
 20
38.695056
  0
VERTEX
  8
sensibilidade_ambiental
 10
-9.449379
 20
38.695063
  0
VERTEX
  8
sensibilidade_ambiental
 10
-9.449272
 20
38.695068
  0
VERTEX
  8
sensibilidade_ambiental
 10
-9.449184
 20
38.695069
  0
VERTEX
  8
sensibilidade_ambiental
 10
-9.449110
 20
38.695042
  0
VERTEX
  8
sensibilidade_ambiental
 10
-9.449030
 20
38.695069
  0
VERTEX
  8
sensibilidade_ambiental
 10
-9.448949
 20
38.695079
  0
VERTEX
  8
sensibilidade_ambiental
 10
-9.448884
 20
38.695110
  0
VERTEX
  8
sensibilidade_ambiental
 10
-9.448776
 20
38.695128
  0
VERTEX
  8
sensibilidade_ambiental
 10
-9.448658
 20
38.695155
  0
VERTEX
  8
sensibilidade_ambiental
 10
-9.448568
 20
38.695152
  0
VERTEX
  8
sensibilidade_ambiental
 10
-9.448503
 20
38.695148
  0
VERTEX
  8
sensibilidade_ambiental
 10
-9.448442
 20
38.695120
  0
VERTEX
  8
sensibilidade_ambiental
 10
-9.448383
 20
38.695108
  0
VERTEX
  8
sensibilidade_ambiental
 10
-9.448326
 20
38.695122
  0
VERTEX
  8
sensibilidade_ambiental
 10
-9.448243
 20
38.695132
  0
VERTEX
  8
sensibilidade_ambiental
 10
-9.448158
 20
38.695121
  0
VERTEX
  8
sensibilidade_ambiental
 10
-9.448024
 20
38.695118
  0
VERTEX
  8
sensibilidade_ambiental
 10
-9.447893
 20
38.695121
  0
VERTEX
  8
sensibilidade_ambiental
 10
-9.447765
 20
38.695128
  0
VERTEX
  8
sensibilidade_ambiental
 10
-9.447707
 20
38.695079
  0
VERTEX
  8
sensibilidade_ambiental
 10
-9.447643
 20
38.695058
  0
VERTEX
  8
sensibilidade_ambiental
 10
-9.447551
 20
38.695058
  0
VERTEX
  8
sensibilidade_ambiental
 10
-9.447431
 20
38.695095
  0
VERTEX
  8
sensibilidade_ambiental
 10
-9.447357
 20
38.695083
  0
VERTEX
  8
sensibilidade_ambiental
 10
-9.447299
 20
38.695075
  0
VERTEX
  8
sensibilidade_ambiental
 10
-9.447222
 20
38.695024
  0
VERTEX
  8
sensibilidade_ambiental
 10
-9.447175
 20
38.694984
  0
VERTEX
  8
sensibilidade_ambiental
 10
-9.447143
 20
38.694931
  0
VERTEX
  8
sensibilidade_ambiental
 10
-9.447101
 20
38.694879
  0
VERTEX
  8
sensibilidade_ambiental
 10
-9.447050
 20
38.694801
  0
VERTEX
  8
sensibilidade_ambiental
 10
-9.446973
 20
38.694787
  0
VERTEX
  8
sensibilidade_ambiental
 10
-9.446893
 20
38.694813
  0
VERTEX
  8
sensibilidade_ambiental
 10
-9.446813
 20
38.694831
  0
VERTEX
  8
sensibilidade_ambiental
 10
-9.446748
 20
38.694829
  0
VERTEX
  8
sensibilidade_ambiental
 10
-9.446670
 20
38.694815
  0
VERTEX
  8
sensibilidade_ambiental
 10
-9.446585
 20
38.694791
  0
VERTEX
  8
sensibilidade_ambiental
 10
-9.446521
 20
38.694770
  0
VERTEX
  8
sensibilidade_ambiental
 10
-9.446464
 20
38.694739
  0
VERTEX
  8
sensibilidade_ambiental
 10
-9.446420
 20
38.694675
  0
VERTEX
  8
sensibilidade_ambiental
 10
-9.446353
 20
38.694611
  0
VERTEX
  8
sensibilidade_ambiental
 10
-9.446293
 20
38.694625
  0
VERTEX
  8
sensibilidade_ambiental
 10
-9.446189
 20
38.694620
  0
VERTEX
  8
sensibilidade_ambiental
 10
-9.446063
 20
38.694597
  0
VERTEX
  8
sensibilidade_ambiental
 10
-9.445986
 20
38.694594
  0
VERTEX
  8
sensibilidade_ambiental
 10
-9.445929
 20
38.694571
  0
VERTEX
  8
sensibilidade_ambiental
 10
-9.445887
 20
38.694527
  0
VERTEX
  8
sensibilidade_ambiental
 10
-9.445811
 20
38.694520
  0
VERTEX
  8
sensibilidade_ambiental
 10
-9.445717
 20
38.694517
  0
VERTEX
  8
sensibilidade_ambiental
 10
-9.445652
 20
38.694532
  0
VERTEX
  8
sensibilidade_ambiental
 10
-9.445597
 20
38.694501
  0
VERTEX
  8
sensibilidade_ambiental
 10
-9.445489
 20
38.694457
  0
VERTEX
  8
sensibilidade_ambiental
 10
-9.445355
 20
38.694449
  0
VERTEX
  8
sensibilidade_ambiental
 10
-9.445264
 20
38.694480
  0
VERTEX
  8
sensibilidade_ambiental
 10
-9.445256
 20
38.694567
  0
VERTEX
  8
sensibilidade_ambiental
 10
-9.445304
 20
38.694649
  0
VERTEX
  8
sensibilidade_ambiental
 10
-9.445381
 20
38.694732
  0
VERTEX
  8
sensibilidade_ambiental
 10
-9.445436
 20
38.694776
  0
VERTEX
  8
sensibilidade_ambiental
 10
-9.445524
 20
38.694873
  0
VERTEX
  8
sensibilidade_ambiental
 10
-9.445441
 20
38.694963
  0
VERTEX
  8
sensibilidade_ambiental
 10
-9.445341
 20
38.695024
  0
VERTEX
  8
sensibilidade_ambiental
 10
-9.445226
 20
38.695018
  0
VERTEX
  8
sensibilidade_ambiental
 10
-9.445054
 20
38.694974
  0
VERTEX
  8
sensibilidade_ambiental
 10
-9.444917
 20
38.694941
  0
VERTEX
  8
sensibilidade_ambiental
 10
-9.444865
 20
38.694921
  0
VERTEX
  8
sensibilidade_ambiental
 10
-9.444772
 20
38.694928
  0
VERTEX
  8
sensibilidade_ambiental
 10
-9.444553
 20
38.694875
  0
VERTEX
  8
sensibilidade_ambiental
 10
-9.444485
 20
38.694846
  0
VERTEX
  8
sensibilidade_ambiental
 10
-9.444330
 20
38.694768
  0
VERTEX
  8
sensibilidade_ambiental
 10
-9.444246
 20
38.694724
  0
VERTEX
  8
sensibilidade_ambiental
 10
-9.444089
 20
38.694686
  0
VERTEX
  8
sensibilidade_ambiental
 10
-9.443927
 20
38.694675
  0
VERTEX
  8
sensibilidade_ambiental
 10
-9.443759
 20
38.694704
  0
VERTEX
  8
sensibilidade_ambiental
 10
-9.443620
 20
38.694765
  0
VERTEX
  8
sensibilidade_ambiental
 10
-9.443436
 20
38.694808
  0
VERTEX
  8
sensibilidade_ambiental
 10
-9.443325
 20
38.694827
  0
VERTEX
  8
sensibilidade_ambiental
 10
-9.443224
 20
38.694864
  0
VERTEX
  8
sensibilidade_ambiental
 10
-9.443157
 20
38.694896
  0
VERTEX
  8
sensibilidade_ambiental
 10
-9.443033
 20
38.694908
  0
VERTEX
  8
sensibilidade_ambiental
 10
-9.442868
 20
38.694917
  0
VERTEX
  8
sensibilidade_ambiental
 10
-9.442708
 20
38.694905
  0
VERTEX
  8
sensibilidade_ambiental
 10
-9.442590
 20
38.694901
  0
VERTEX
  8
sensibilidade_ambiental
 10
-9.442452
 20
38.694896
  0
VERTEX
  8
sensibilidade_ambiental
 10
-9.442292
 20
38.694916
  0
VERTEX
  8
sensibilidade_ambiental
 10
-9.442131
 20
38.694920
  0
VERTEX
  8
sensibilidade_ambiental
 10
-9.442032
 20
38.694938
  0
VERTEX
  8
sensibilidade_ambiental
 10
-9.441880
 20
38.695008
  0
VERTEX
  8
sensibilidade_ambiental
 10
-9.441721
 20
38.695109
  0
VERTEX
  8
sensibilidade_ambiental
 10
-9.441656
 20
38.695152
  0
VERTEX
  8
sensibilidade_ambiental
 10
-9.441540
 20
38.695168
  0
VERTEX
  8
sensibilidade_ambiental
 10
-9.441411
 20
38.695189
  0
VERTEX
  8
sensibilidade_ambiental
 10
-9.441286
 20
38.695188
  0
VERTEX
  8
sensibilidade_ambiental
 10
-9.441144
 20
38.695165
  0
VERTEX
  8
sensibilidade_ambiental
 10
-9.441067
 20
38.695157
  0
VERTEX
  8
sensibilidade_ambiental
 10
-9.440989
 20
38.695145
  0
VERTEX
  8
sensibilidade_ambiental
 10
-9.440931
 20
38.695134
  0
VERTEX
  8
sensibilidade_ambiental
 10
-9.440656
 20
38.695162
  0
VERTEX
  8
sensibilidade_ambiental
 10
-9.440548
 20
38.695172
  0
VERTEX
  8
sensibilidade_ambiental
 10
-9.440378
 20
38.695213
  0
VERTEX
  8
sensibilidade_ambiental
 10
-9.440225
 20
38.695253
  0
VERTEX
  8
sensibilidade_ambiental
 10
-9.440072
 20
38.695286
  0
VERTEX
  8
sensibilidade_ambiental
 10
-9.439967
 20
38.695331
  0
VERTEX
  8
sensibilidade_ambiental
 10
-9.439866
 20
38.695338
  0
VERTEX
  8
sensibilidade_ambiental
 10
-9.439739
 20
38.695327
  0
VERTEX
  8
sensibilidade_ambiental
 10
-9.439651
 20
38.695355
  0
VERTEX
  8
sensibilidade_ambiental
 10
-9.439423
 20
38.695345
  0
VERTEX
  8
sensibilidade_ambiental
 10
-9.439201
 20
38.695306
  0
VERTEX
  8
sensibilidade_ambiental
 10
-9.439022
 20
38.695237
  0
VERTEX
  8
sensibilidade_ambiental
 10
-9.438809
 20
38.695122
  0
VERTEX
  8
sensibilidade_ambiental
 10
-9.438669
 20
38.695086
  0
VERTEX
  8
sensibilidade_ambiental
 10
-9.438429
 20
38.694971
  0
VERTEX
  8
sensibilidade_ambiental
 10
-9.438297
 20
38.694928
  0
VERTEX
  8
sensibilidade_ambiental
 10
-9.438159
 20
38.694854
  0
VERTEX
  8
sensibilidade_ambiental
 10
-9.438050
 20
38.694806
  0
VERTEX
  8
sensibilidade_ambiental
 10
-9.437939
 20
38.694781
  0
VERTEX
  8
sensibilidade_ambiental
 10
-9.437858
 20
38.694777
  0
VERTEX
  8
sensibilidade_ambiental
 10
-9.437765
 20
38.694767
  0
VERTEX
  8
sensibilidade_ambiental
 10
-9.437616
 20
38.694737
  0
VERTEX
  8
sensibilidade_ambiental
 10
-9.437497
 20
38.694714
  0
VERTEX
  8
sensibilidade_ambiental
 10
-9.437371
 20
38.694677
  0
VERTEX
  8
sensibilidade_ambiental
 10
-9.437144
 20
38.694613
  0
VERTEX
  8
sensibilidade_ambiental
 10
-9.437010
 20
38.694462
  0
VERTEX
  8
sensibilidade_ambiental
 10
-9.436890
 20
38.694410
  0
VERTEX
  8
sensibilidade_ambiental
 10
-9.436748
 20
38.694375
  0
VERTEX
  8
sensibilidade_ambiental
 10
-9.436621
 20
38.694338
  0
VERTEX
  8
sensibilidade_ambiental
 10
-9.436488
 20
38.694270
  0
VERTEX
  8
sensibilidade_ambiental
 10
-9.436311
 20
38.694167
  0
VERTEX
  8
sensibilidade_ambiental
 10
-9.436243
 20
38.694037
  0
VERTEX
  8
sensibilidade_ambiental
 10
-9.436110
 20
38.693835
  0
VERTEX
  8
sensibilidade_ambiental
 10
-9.436001
 20
38.693753
  0
VERTEX
  8
sensibilidade_ambiental
 10
-9.435971
 20
38.693670
  0
VERTEX
  8
sensibilidade_ambiental
 10
-9.435926
 20
38.693525
  0
VERTEX
  8
sensibilidade_ambiental
 10
-9.435864
 20
38.693539
  0
VERTEX
  8
sensibilidade_ambiental
 10
-9.435825
 20
38.693519
  0
VERTEX
  8
sensibilidade_ambiental
 10
-9.435756
 20
38.693479
  0
VERTEX
  8
sensibilidade_ambiental
 10
-9.435646
 20
38.693406
  0
VERTEX
  8
sensibilidade_ambiental
 10
-9.435593
 20
38.693298
  0
VERTEX
  8
sensibilidade_ambiental
 10
-9.435560
 20
38.693224
  0
VERTEX
  8
sensibilidade_ambiental
 10
-9.435436
 20
38.693047
  0
VERTEX
  8
sensibilidade_ambiental
 10
-9.435356
 20
38.692947
  0
VERTEX
  8
sensibilidade_ambiental
 10
-9.435266
 20
38.692861
  0
VERTEX
  8
sensibilidade_ambiental
 10
-9.435193
 20
38.692809
  0
VERTEX
  8
sensibilidade_ambiental
 10
-9.435087
 20
38.692733
  0
VERTEX
  8
sensibilidade_ambiental
 10
-9.434943
 20
38.692629
  0
VERTEX
  8
sensibilidade_ambiental
 10
-9.434907
 20
38.692570
  0
VERTEX
  8
sensibilidade_ambiental
 10
-9.434840
 20
38.692465
  0
VERTEX
  8
sensibilidade_ambiental
 10
-9.434830
 20
38.692390
  0
VERTEX
  8
sensibilidade_ambiental
 10
-9.434744
 20
38.692295
  0
VERTEX
  8
sensibilidade_ambiental
 10
-9.434656
 20
38.692188
  0
VERTEX
  8
sensibilidade_ambiental
 10
-9.434597
 20
38.692135
  0
VERTEX
  8
sensibilidade_ambiental
 10
-9.434476
 20
38.692041
  0
VERTEX
  8
sensibilidade_ambiental
 10
-9.434362
 20
38.691999
  0
VERTEX
  8
sensibilidade_ambiental
 10
-9.434254
 20
38.691959
  0
VERTEX
  8
sensibilidade_ambiental
 10
-9.434156
 20
38.691903
  0
VERTEX
  8
sensibilidade_ambiental
 10
-9.433969
 20
38.691906
  0
VERTEX
  8
sensibilidade_ambiental
 10
-9.433821
 20
38.691911
  0
VERTEX
  8
sensibilidade_ambiental
 10
-9.433700
 20
38.691914
  0
VERTEX
  8
sensibilidade_ambiental
 10
-9.433671
 20
38.691909
  0
VERTEX
  8
sensibilidade_ambiental
 10
-9.433592
 20
38.691898
  0
VERTEX
  8
sensibilidade_ambiental
 10
-9.433501
 20
38.691886
  0
VERTEX
  8
sensibilidade_ambiental
 10
-9.433393
 20
38.691869
  0
VERTEX
  8
sensibilidade_ambiental
 10
-9.433213
 20
38.691825
  0
VERTEX
  8
sensibilidade_ambiental
 10
-9.433061
 20
38.691804
  0
VERTEX
  8
sensibilidade_ambiental
 10
-9.432979
 20
38.691782
  0
VERTEX
  8
sensibilidade_ambiental
 10
-9.432916
 20
38.691742
  0
VERTEX
  8
sensibilidade_ambiental
 10
-9.432817
 20
38.691686
  0
VERTEX
  8
sensibilidade_ambiental
 10
-9.432718
 20
38.691667
  0
SEQEND
  0
POLYLINE
  8
sensibilidade_ambiental
  6
BYLAYER
 66
1
 70
0
 40
0.000000
 41
0.000000
  0
VERTEX
  8
sensibilidade_ambiental
 10
-9.432718
 20
38.691667
  0
VERTEX
  8
sensibilidade_ambiental
 10
-9.432566
 20
38.691653
  0
VERTEX
  8
sensibilidade_ambiental
 10
-9.432423
 20
38.691639
  0
VERTEX
  8
sensibilidade_ambiental
 10
-9.432319
 20
38.691617
  0
VERTEX
  8
sensibilidade_ambiental
 10
-9.432212
 20
38.691590
  0
VERTEX
  8
sensibilidade_ambiental
 10
-9.432155
 20
38.691574
  0
VERTEX
  8
sensibilidade_ambiental
 10
-9.432136
 20
38.691574
  0
VERTEX
  8
sensibilidade_ambiental
 10
-9.432029
 20
38.691591
  0
VERTEX
  8
sensibilidade_ambiental
 10
-9.432017
 20
38.691591
  0
VERTEX
  8
sensibilidade_ambiental
 10
-9.432008
 20
38.691590
  0
VERTEX
  8
sensibilidade_ambiental
 10
-9.431969
 20
38.691573
  0
VERTEX
  8
sensibilidade_ambiental
 10
-9.431934
 20
38.691551
  0
VERTEX
  8
sensibilidade_ambiental
 10
-9.431904
 20
38.691527
  0
VERTEX
  8
sensibilidade_ambiental
 10
-9.431883
 20
38.691509
  0
VERTEX
  8
sensibilidade_ambiental
 10
-9.431828
 20
38.691479
  0
VERTEX
  8
sensibilidade_ambiental
 10
-9.431789
 20
38.691461
  0
VERTEX
  8
sensibilidade_ambiental
 10
-9.431721
 20
38.691431
  0
VERTEX
  8
sensibilidade_ambiental
 10
-9.431650
 20
38.691381
  0
VERTEX
  8
sensibilidade_ambiental
 10
-9.431552
 20
38.691337
  0
VERTEX
  8
sensibilidade_ambiental
 10
-9.431495
 20
38.691233
  0
VERTEX
  8
sensibilidade_ambiental
 10
-9.431470
 20
38.691125
  0
VERTEX
  8
sensibilidade_ambiental
 10
-9.431406
 20
38.691095
  0
VERTEX
  8
sensibilidade_ambiental
 10
-9.431316
 20
38.691109
  0
VERTEX
  8
sensibilidade_ambiental
 10
-9.431282
 20
38.691116
  0
VERTEX
  8
sensibilidade_ambiental
 10
-9.431246
 20
38.691118
  0
VERTEX
  8
sensibilidade_ambiental
 10
-9.431207
 20
38.691115
  0
VERTEX
  8
sensibilidade_ambiental
 10
-9.431157
 20
38.691079
  0
VERTEX
  8
sensibilidade_ambiental
 10
-9.431129
 20
38.691038
  0
VERTEX
  8
sensibilidade_ambiental
 10
-9.431069
 20
38.691023
  0
VERTEX
  8
sensibilidade_ambiental
 10
-9.430981
 20
38.690984
  0
VERTEX
  8
sensibilidade_ambiental
 10
-9.430972
 20
38.690948
  0
VERTEX
  8
sensibilidade_ambiental
 10
-9.430971
 20
38.690883
  0
VERTEX
  8
sensibilidade_ambiental
 10
-9.431017
 20
38.690784
  0
VERTEX
  8
sensibilidade_ambiental
 10
-9.431085
 20
38.690666
  0
VERTEX
  8
sensibilidade_ambiental
 10
-9.431098
 20
38.690623
  0
VERTEX
  8
sensibilidade_ambiental
 10
-9.431074
 20
38.690504
  0
VERTEX
  8
sensibilidade_ambiental
 10
-9.430983
 20
38.690397
  0
VERTEX
  8
sensibilidade_ambiental
 10
-9.430927
 20
38.690339
  0
VERTEX
  8
sensibilidade_ambiental
 10
-9.430891
 20
38.690288
  0
VERTEX
  8
sensibilidade_ambiental
 10
-9.430882
 20
38.690264
  0
VERTEX
  8
sensibilidade_ambiental
 10
-9.430855
 20
38.690231
  0
VERTEX
  8
sensibilidade_ambiental
 10
-9.430796
 20
38.690225
  0
VERTEX
  8
sensibilidade_ambiental
 10
-9.430774
 20
38.690252
  0
VERTEX
  8
sensibilidade_ambiental
 10
-9.430709
 20
38.690234
  0
VERTEX
  8
sensibilidade_ambiental
 10
-9.430608
 20
38.690109
  0
VERTEX
  8
sensibilidade_ambiental
 10
-9.430531
 20
38.690089
  0
VERTEX
  8
sensibilidade_ambiental
 10
-9.430464
 20
38.690081
  0
VERTEX
  8
sensibilidade_ambiental
 10
-9.430377
 20
38.689989
  0
VERTEX
  8
sensibilidade_ambiental
 10
-9.430316
 20
38.689931
  0
VERTEX
  8
sensibilidade_ambiental
 10
-9.430269
 20
38.689872
  0
VERTEX
  8
sensibilidade_ambiental
 10
-9.430198
 20
38.689842
  0
VERTEX
  8
sensibilidade_ambiental
 10
-9.430145
 20
38.689860
  0
VERTEX
  8
sensibilidade_ambiental
 10
-9.430107
 20
38.689917
  0
VERTEX
  8
sensibilidade_ambiental
 10
-9.430081
 20
38.689977
  0
VERTEX
  8
sensibilidade_ambiental
 10
-9.430077
 20
38.690064
  0
VERTEX
  8
sensibilidade_ambiental
 10
-9.430115
 20
38.690092
  0
VERTEX
  8
sensibilidade_ambiental
 10
-9.430189
 20
38.690177
  0
VERTEX
  8
sensibilidade_ambiental
 10
-9.430221
 20
38.690236
  0
VERTEX
  8
sensibilidade_ambiental
 10
-9.430229
 20
38.690281
  0
VERTEX
  8
sensibilidade_ambiental
 10
-9.430228
 20
38.690315
  0
VERTEX
  8
sensibilidade_ambiental
 10
-9.430238
 20
38.690430
  0
VERTEX
  8
sensibilidade_ambiental
 10
-9.430262
 20
38.690492
  0
VERTEX
  8
sensibilidade_ambiental
 10
-9.430289
 20
38.690565
  0
VERTEX
  8
sensibilidade_ambiental
 10
-9.430294
 20
38.690644
  0
VERTEX
  8
sensibilidade_ambiental
 10
-9.430250
 20
38.690691
  0
VERTEX
  8
sensibilidade_ambiental
 10
-9.430156
 20
38.690708
  0
VERTEX
  8
sensibilidade_ambiental
 10
-9.430089
 20
38.690709
  0
VERTEX
  8
sensibilidade_ambiental
 10
-9.429933
 20
38.690557
  0
VERTEX
  8
sensibilidade_ambiental
 10
-9.429901
 20
38.690516
  0
VERTEX
  8
sensibilidade_ambiental
 10
-9.429809
 20
38.690500
  0
VERTEX
  8
sensibilidade_ambiental
 10
-9.429758
 20
38.690505
  0
VERTEX
  8
sensibilidade_ambiental
 10
-9.429660
 20
38.690502
  0
VERTEX
  8
sensibilidade_ambiental
 10
-9.429590
 20
38.690549
  0
VERTEX
  8
sensibilidade_ambiental
 10
-9.429446
 20
38.690563
  0
VERTEX
  8
sensibilidade_ambiental
 10
-9.429399
 20
38.690523
  0
VERTEX
  8
sensibilidade_ambiental
 10
-9.429319
 20
38.690520
  0
VERTEX
  8
sensibilidade_ambiental
 10
-9.429302
 20
38.690520
  0
SEQEND
  0
POLYLINE
  8
sensibilidade_ambiental
  6
BYLAYER
 66
1
 70
0
 40
0.000000
 41
0.000000
  0
VERTEX
  8
sensibilidade_ambiental
 10
-9.429302
 20
38.690520
  0
VERTEX
  8
sensibilidade_ambiental
 10
-9.429232
 20
38.690544
  0
VERTEX
  8
sensibilidade_ambiental
 10
-9.429169
 20
38.690549
  0
VERTEX
  8
sensibilidade_ambiental
 10
-9.429111
 20
38.690508
  0
VERTEX
  8
sensibilidade_ambiental
 10
-9.429048
 20
38.690453
  0
VERTEX
  8
sensibilidade_ambiental
 10
-9.428760
 20
38.690173
  0
VERTEX
  8
sensibilidade_ambiental
 10
-9.428725
 20
38.690147
  0
VERTEX
  8
sensibilidade_ambiental
 10
-9.428640
 20
38.690160
  0
VERTEX
  8
sensibilidade_ambiental
 10
-9.428577
 20
38.690195
  0
VERTEX
  8
sensibilidade_ambiental
 10
-9.428503
 20
38.690114
  0
VERTEX
  8
sensibilidade_ambiental
 10
-9.428355
 20
38.689960
  0
VERTEX
  8
sensibilidade_ambiental
 10
-9.428278
 20
38.689897
  0
VERTEX
  8
sensibilidade_ambiental
 10
-9.428181
 20
38.689812
  0
VERTEX
  8
sensibilidade_ambiental
 10
-9.428053
 20
38.689698
  0
VERTEX
  8
sensibilidade_ambiental
 10
-9.427995
 20
38.689622
  0
VERTEX
  8
sensibilidade_ambiental
 10
-9.427905
 20
38.689573
  0
VERTEX
  8
sensibilidade_ambiental
 10
-9.427878
 20
38.689586
  0
VERTEX
  8
sensibilidade_ambiental
 10
-9.427862
 20
38.689620
  0
VERTEX
  8
sensibilidade_ambiental
 10
-9.427837
 20
38.689623
  0
VERTEX
  8
sensibilidade_ambiental
 10
-9.427822
 20
38.689602
  0
VERTEX
  8
sensibilidade_ambiental
 10
-9.427733
 20
38.689566
  0
VERTEX
  8
sensibilidade_ambiental
 10
-9.427653
 20
38.689585
  0
VERTEX
  8
sensibilidade_ambiental
 10
-9.427642
 20
38.689547
  0
VERTEX
  8
sensibilidade_ambiental
 10
-9.427606
 20
38.689511
  0
VERTEX
  8
sensibilidade_ambiental
 10
-9.427518
 20
38.689504
  0
VERTEX
  8
sensibilidade_ambiental
 10
-9.427431
 20
38.689496
  0
VERTEX
  8
sensibilidade_ambiental
 10
-9.427395
 20
38.689519
  0
VERTEX
  8
sensibilidade_ambiental
 10
-9.427394
 20
38.689582
  0
VERTEX
  8
sensibilidade_ambiental
 10
-9.427398
 20
38.689658
  0
VERTEX
  8
sensibilidade_ambiental
 10
-9.427395
 20
38.689699
  0
VERTEX
  8
sensibilidade_ambiental
 10
-9.427376
 20
38.689735
  0
VERTEX
  8
sensibilidade_ambiental
 10
-9.427360
 20
38.689758
  0
VERTEX
  8
sensibilidade_ambiental
 10
-9.427287
 20
38.689817
  0
VERTEX
  8
sensibilidade_ambiental
 10
-9.427174
 20
38.689866
  0
VERTEX
  8
sensibilidade_ambiental
 10
-9.427116
 20
38.689850
  0
VERTEX
  8
sensibilidade_ambiental
 10
-9.427123
 20
38.689747
  0
VERTEX
  8
sensibilidade_ambiental
 10
-9.427133
 20
38.689694
  0
VERTEX
  8
sensibilidade_ambiental
 10
-9.427122
 20
38.689579
  0
VERTEX
  8
sensibilidade_ambiental
 10
-9.427086
 20
38.689551
  0
VERTEX
  8
sensibilidade_ambiental
 10
-9.427013
 20
38.689535
  0
VERTEX
  8
sensibilidade_ambiental
 10
-9.426905
 20
38.689448
  0
VERTEX
  8
sensibilidade_ambiental
 10
-9.426881
 20
38.689410
  0
VERTEX
  8
sensibilidade_ambiental
 10
-9.426820
 20
38.689387
  0
VERTEX
  8
sensibilidade_ambiental
 10
-9.426751
 20
38.689382
  0
VERTEX
  8
sensibilidade_ambiental
 10
-9.426662
 20
38.689476
  0
VERTEX
  8
sensibilidade_ambiental
 10
-9.426638
 20
38.689525
  0
VERTEX
  8
sensibilidade_ambiental
 10
-9.426544
 20
38.689560
  0
VERTEX
  8
sensibilidade_ambiental
 10
-9.426484
 20
38.689595
  0
VERTEX
  8
sensibilidade_ambiental
 10
-9.426401
 20
38.689609
  0
VERTEX
  8
sensibilidade_ambiental
 10
-9.426357
 20
38.689649
  0
VERTEX
  8
sensibilidade_ambiental
 10
-9.426318
 20
38.689752
  0
VERTEX
  8
sensibilidade_ambiental
 10
-9.426265
 20
38.689867
  0
VERTEX
  8
sensibilidade_ambiental
 10
-9.426179
 20
38.689906
  0
VERTEX
  8
sensibilidade_ambiental
 10
-9.426084
 20
38.689921
  0
VERTEX
  8
sensibilidade_ambiental
 10
-9.425967
 20
38.689922
  0
VERTEX
  8
sensibilidade_ambiental
 10
-9.425863
 20
38.689915
  0
VERTEX
  8
sensibilidade_ambiental
 10
-9.425677
 20
38.689913
  0
VERTEX
  8
sensibilidade_ambiental
 10
-9.425540
 20
38.689878
  0
VERTEX
  8
sensibilidade_ambiental
 10
-9.425373
 20
38.689814
  0
VERTEX
  8
sensibilidade_ambiental
 10
-9.425222
 20
38.689768
  0
VERTEX
  8
sensibilidade_ambiental
 10
-9.425133
 20
38.689760
  0
VERTEX
  8
sensibilidade_ambiental
 10
-9.424934
 20
38.689779
  0
VERTEX
  8
sensibilidade_ambiental
 10
-9.424800
 20
38.689830
  0
VERTEX
  8
sensibilidade_ambiental
 10
-9.424762
 20
38.689847
  0
VERTEX
  8
sensibilidade_ambiental
 10
-9.424757
 20
38.689909
  0
VERTEX
  8
sensibilidade_ambiental
 10
-9.424751
 20
38.689956
  0
VERTEX
  8
sensibilidade_ambiental
 10
-9.424724
 20
38.689958
  0
VERTEX
  8
sensibilidade_ambiental
 10
-9.424637
 20
38.689924
  0
VERTEX
  8
sensibilidade_ambiental
 10
-9.424578
 20
38.689903
  0
VERTEX
  8
sensibilidade_ambiental
 10
-9.424473
 20
38.689917
  0
VERTEX
  8
sensibilidade_ambiental
 10
-9.424392
 20
38.689909
  0
VERTEX
  8
sensibilidade_ambiental
 10
-9.424314
 20
38.689875
  0
VERTEX
  8
sensibilidade_ambiental
 10
-9.424220
 20
38.689855
  0
VERTEX
  8
sensibilidade_ambiental
 10
-9.424064
 20
38.689844
  0
VERTEX
  8
sensibilidade_ambiental
 10
-9.423987
 20
38.689846
  0
VERTEX
  8
sensibilidade_ambiental
 10
-9.423925
 20
38.689837
  0
VERTEX
  8
sensibilidade_ambiental
 10
-9.423900
 20
38.689786
  0
VERTEX
  8
sensibilidade_ambiental
 10
-9.423898
 20
38.689722
  0
VERTEX
  8
sensibilidade_ambiental
 10
-9.423864
 20
38.689669
  0
VERTEX
  8
sensibilidade_ambiental
 10
-9.423808
 20
38.689631
  0
VERTEX
  8
sensibilidade_ambiental
 10
-9.423768
 20
38.689571
  0
VERTEX
  8
sensibilidade_ambiental
 10
-9.423724
 20
38.689542
  0
VERTEX
  8
sensibilidade_ambiental
 10
-9.423683
 20
38.689505
  0
VERTEX
  8
sensibilidade_ambiental
 10
-9.423671
 20
38.689465
  0
VERTEX
  8
sensibilidade_ambiental
 10
-9.423675
 20
38.689407
  0
VERTEX
  8
sensibilidade_ambiental
 10
-9.423653
 20
38.689378
  0
VERTEX
  8
sensibilidade_ambiental
 10
-9.423602
 20
38.689360
  0
VERTEX
  8
sensibilidade_ambiental
 10
-9.423588
 20
38.689350
  0
VERTEX
  8
sensibilidade_ambiental
 10
-9.423521
 20
38.689350
  0
VERTEX
  8
sensibilidade_ambiental
 10
-9.423505
 20
38.689369
  0
VERTEX
  8
sensibilidade_ambiental
 10
-9.423451
 20
38.689369
  0
VERTEX
  8
sensibilidade_ambiental
 10
-9.423389
 20
38.689393
  0
VERTEX
  8
sensibilidade_ambiental
 10
-9.423372
 20
38.689411
  0
VERTEX
  8
sensibilidade_ambiental
 10
-9.423370
 20
38.689455
  0
VERTEX
  8
sensibilidade_ambiental
 10
-9.423318
 20
38.689489
  0
VERTEX
  8
sensibilidade_ambiental
 10
-9.423252
 20
38.689474
  0
VERTEX
  8
sensibilidade_ambiental
 10
-9.423190
 20
38.689507
  0
VERTEX
  8
sensibilidade_ambiental
 10
-9.423204
 20
38.689558
  0
VERTEX
  8
sensibilidade_ambiental
 10
-9.423197
 20
38.689630
  0
VERTEX
  8
sensibilidade_ambiental
 10
-9.423096
 20
38.689664
  0
VERTEX
  8
sensibilidade_ambiental
 10
-9.422977
 20
38.689682
  0
VERTEX
  8
sensibilidade_ambiental
 10
-9.422861
 20
38.689681
  0
VERTEX
  8
sensibilidade_ambiental
 10
-9.422754
 20
38.689683
  0
VERTEX
  8
sensibilidade_ambiental
 10
-9.422609
 20
38.689650
  0
VERTEX
  8
sensibilidade_ambiental
 10
-9.422471
 20
38.689629
  0
VERTEX
  8
sensibilidade_ambiental
 10
-9.422404
 20
38.689636
  0
VERTEX
  8
sensibilidade_ambiental
 10
-9.422374
 20
38.689649
  0
VERTEX
  8
sensibilidade_ambiental
 10
-9.422349
 20
38.689712
  0
VERTEX
  8
sensibilidade_ambiental
 10
-9.422387
 20
38.689804
  0
VERTEX
  8
sensibilidade_ambiental
 10
-9.422512
 20
38.690034
  0
VERTEX
  8
sensibilidade_ambiental
 10
-9.422543
 20
38.690116
  0
VERTEX
  8
sensibilidade_ambiental
 10
-9.422471
 20
38.690137
  0
VERTEX
  8
sensibilidade_ambiental
 10
-9.422413
 20
38.690039
  0
VERTEX
  8
sensibilidade_ambiental
 10
-9.422304
 20
38.689846
  0
VERTEX
  8
sensibilidade_ambiental
 10
-9.422256
 20
38.689821
  0
VERTEX
  8
sensibilidade_ambiental
 10
-9.422129
 20
38.689842
  0
VERTEX
  8
sensibilidade_ambiental
 10
-9.422031
 20
38.689857
  0
VERTEX
  8
sensibilidade_ambiental
 10
-9.421959
 20
38.689909
  0
VERTEX
  8
sensibilidade_ambiental
 10
-9.421878
 20
38.689913
  0
VERTEX
  8
sensibilidade_ambiental
 10
-9.421756
 20
38.689900
  0
VERTEX
  8
sensibilidade_ambiental
 10
-9.421636
 20
38.689861
  0
VERTEX
  8
sensibilidade_ambiental
 10
-9.421572
 20
38.689860
  0
VERTEX
  8
sensibilidade_ambiental
 10
-9.421525
 20
38.689899
  0
VERTEX
  8
sensibilidade_ambiental
 10
-9.421319
 20
38.689923
  0
VERTEX
  8
sensibilidade_ambiental
 10
-9.421272
 20
38.689957
  0
VERTEX
  8
sensibilidade_ambiental
 10
-9.421176
 20
38.689936
  0
VERTEX
  8
sensibilidade_ambiental
 10
-9.421083
 20
38.689960
  0
VERTEX
  8
sensibilidade_ambiental
 10
-9.420930
 20
38.689999
  0
VERTEX
  8
sensibilidade_ambiental
 10
-9.420852
 20
38.690037
  0
VERTEX
  8
sensibilidade_ambiental
 10
-9.420733
 20
38.690118
  0
VERTEX
  8
sensibilidade_ambiental
 10
-9.420669
 20
38.690157
  0
VERTEX
  8
sensibilidade_ambiental
 10
-9.420637
 20
38.690268
  0
VERTEX
  8
sensibilidade_ambiental
 10
-9.420640
 20
38.690376
  0
VERTEX
  8
sensibilidade_ambiental
 10
-9.420654
 20
38.690451
  0
VERTEX
  8
sensibilidade_ambiental
 10
-9.420771
 20
38.690619
  0
VERTEX
  8
sensibilidade_ambiental
 10
-9.420846
 20
38.690733
  0
VERTEX
  8
sensibilidade_ambiental
 10
-9.420927
 20
38.690819
  0
VERTEX
  8
sensibilidade_ambiental
 10
-9.421074
 20
38.690830
  0
VERTEX
  8
sensibilidade_ambiental
 10
-9.421086
 20
38.690877
  0
VERTEX
  8
sensibilidade_ambiental
 10
-9.421080
 20
38.690960
  0
VERTEX
  8
sensibilidade_ambiental
 10
-9.421074
 20
38.691008
  0
VERTEX
  8
sensibilidade_ambiental
 10
-9.421112
 20
38.691089
  0
VERTEX
  8
sensibilidade_ambiental
 10
-9.421209
 20
38.691200
  0
VERTEX
  8
sensibilidade_ambiental
 10
-9.421264
 20
38.691286
  0
VERTEX
  8
sensibilidade_ambiental
 10
-9.421337
 20
38.691385
  0
VERTEX
  8
sensibilidade_ambiental
 10
-9.421395
 20
38.691498
  0
VERTEX
  8
sensibilidade_ambiental
 10
-9.421409
 20
38.691577
  0
VERTEX
  8
sensibilidade_ambiental
 10
-9.421446
 20
38.691635
  0
SEQEND
  0
POLYLINE
  8
sensibilidade_ambiental
  6
BYLAYER
 66
1
 70
0
 40
0.000000
 41
0.000000
  0
VERTEX
  8
sensibilidade_ambiental
 10
-9.421325
 20
38.691737
  0
VERTEX
  8
sensibilidade_ambiental
 10
-9.421277
 20
38.691706
  0
VERTEX
  8
sensibilidade_ambiental
 10
-9.421215
 20
38.691602
  0
VERTEX
  8
sensibilidade_ambiental
 10
-9.421175
 20
38.691520
  0
VERTEX
  8
sensibilidade_ambiental
 10
-9.421110
 20
38.691466
  0
VERTEX
  8
sensibilidade_ambiental
 10
-9.421054
 20
38.691434
  0
VERTEX
  8
sensibilidade_ambiental
 10
-9.420948
 20
38.691411
  0
VERTEX
  8
sensibilidade_ambiental
 10
-9.420877
 20
38.691331
  0
VERTEX
  8
sensibilidade_ambiental
 10
-9.420790
 20
38.691301
  0
VERTEX
  8
sensibilidade_ambiental
 10
-9.420744
 20
38.691265
  0
VERTEX
  8
sensibilidade_ambiental
 10
-9.420652
 20
38.691237
  0
VERTEX
  8
sensibilidade_ambiental
 10
-9.420718
 20
38.691160
  0
VERTEX
  8
sensibilidade_ambiental
 10
-9.420739
 20
38.691097
  0
VERTEX
  8
sensibilidade_ambiental
 10
-9.420740
 20
38.691008
  0
VERTEX
  8
sensibilidade_ambiental
 10
-9.420382
 20
38.690754
  0
VERTEX
  8
sensibilidade_ambiental
 10
-9.420124
 20
38.690594
  0
VERTEX
  8
sensibilidade_ambiental
 10
-9.420077
 20
38.690558
  0
VERTEX
  8
sensibilidade_ambiental
 10
-9.419505
 20
38.690115
  0
VERTEX
  8
sensibilidade_ambiental
 10
-9.419429
 20
38.690064
  0
VERTEX
  8
sensibilidade_ambiental
 10
-9.419374
 20
38.690033
  0
VERTEX
  8
sensibilidade_ambiental
 10
-9.419292
 20
38.689991
  0
VERTEX
  8
sensibilidade_ambiental
 10
-9.419200
 20
38.689952
  0
VERTEX
  8
sensibilidade_ambiental
 10
-9.419130
 20
38.689928
  0
VERTEX
  8
sensibilidade_ambiental
 10
-9.419055
 20
38.689904
  0
VERTEX
  8
sensibilidade_ambiental
 10
-9.418996
 20
38.689889
  0
VERTEX
  8
sensibilidade_ambiental
 10
-9.418898
 20
38.689869
  0
VERTEX
  8
sensibilidade_ambiental
 10
-9.418836
 20
38.689859
  0
VERTEX
  8
sensibilidade_ambiental
 10
-9.418752
 20
38.689850
  0
VERTEX
  8
sensibilidade_ambiental
 10
-9.418685
 20
38.689846
  0
VERTEX
  8
sensibilidade_ambiental
 10
-9.418618
 20
38.689844
  0
VERTEX
  8
sensibilidade_ambiental
 10
-9.418548
 20
38.689845
  0
VERTEX
  8
sensibilidade_ambiental
 10
-9.418472
 20
38.689849
  0
VERTEX
  8
sensibilidade_ambiental
 10
-9.418340
 20
38.689864
  0
VERTEX
  8
sensibilidade_ambiental
 10
-9.418273
 20
38.689876
  0
VERTEX
  8
sensibilidade_ambiental
 10
-9.418198
 20
38.689893
  0
VERTEX
  8
sensibilidade_ambiental
 10
-9.418119
 20
38.689914
  0
VERTEX
  8
sensibilidade_ambiental
 10
-9.418106
 20
38.689920
  0
VERTEX
  8
sensibilidade_ambiental
 10
-9.418049
 20
38.689937
  0
VERTEX
  8
sensibilidade_ambiental
 10
-9.417953
 20
38.689975
  0
VERTEX
  8
sensibilidade_ambiental
 10
-9.417858
 20
38.690019
  0
VERTEX
  8
sensibilidade_ambiental
 10
-9.417767
 20
38.690072
  0
VERTEX
  8
sensibilidade_ambiental
 10
-9.417691
 20
38.690122
  0
VERTEX
  8
sensibilidade_ambiental
 10
-9.416888
 20
38.690752
  0
VERTEX
  8
sensibilidade_ambiental
 10
-9.416886
 20
38.690754
  0
VERTEX
  8
sensibilidade_ambiental
 10
-9.416881
 20
38.690757
  0
VERTEX
  8
sensibilidade_ambiental
 10
-9.416880
 20
38.690758
  0
VERTEX
  8
sensibilidade_ambiental
 10
-9.416001
 20
38.691442
  0
VERTEX
  8
sensibilidade_ambiental
 10
-9.415933
 20
38.691497
  0
VERTEX
  8
sensibilidade_ambiental
 10
-9.415393
 20
38.691918
  0
VERTEX
  8
sensibilidade_ambiental
 10
-9.415290
 20
38.691992
  0
VERTEX
  8
sensibilidade_ambiental
 10
-9.414837
 20
38.692350
  0
VERTEX
  8
sensibilidade_ambiental
 10
-9.413946
 20
38.693050
  0
VERTEX
  8
sensibilidade_ambiental
 10
-9.413944
 20
38.693051
  0
VERTEX
  8
sensibilidade_ambiental
 10
-9.413914
 20
38.693075
  0
SEQEND
  0
POLYLINE
  8
sensibilidade_ambiental
  6
BYLAYER
 66
1
 70
0
 40
0.000000
 41
0.000000
  0
VERTEX
  8
sensibilidade_ambiental
 10
-9.413914
 20
38.693075
  0
VERTEX
  8
sensibilidade_ambiental
 10
-9.413843
 20
38.693131
  0
VERTEX
  8
sensibilidade_ambiental
 10
-9.412597
 20
38.694304
  0
VERTEX
  8
sensibilidade_ambiental
 10
-9.412592
 20
38.694309
  0
VERTEX
  8
sensibilidade_ambiental
 10
-9.412580
 20
38.694324
  0
VERTEX
  8
sensibilidade_ambiental
 10
-9.412572
 20
38.694341
  0
VERTEX
  8
sensibilidade_ambiental
 10
-9.412567
 20
38.694359
  0
VERTEX
  8
sensibilidade_ambiental
 10
-9.412566
 20
38.694377
  0
VERTEX
  8
sensibilidade_ambiental
 10
-9.412569
 20
38.694395
  0
VERTEX
  8
sensibilidade_ambiental
 10
-9.412576
 20
38.694412
  0
VERTEX
  8
sensibilidade_ambiental
 10
-9.412587
 20
38.694428
  0
VERTEX
  8
sensibilidade_ambiental
 10
-9.412601
 20
38.694442
  0
VERTEX
  8
sensibilidade_ambiental
 10
-9.412617
 20
38.694454
  0
VERTEX
  8
sensibilidade_ambiental
 10
-9.412637
 20
38.694464
  0
VERTEX
  8
sensibilidade_ambiental
 10
-9.412658
 20
38.694471
  0
VERTEX
  8
sensibilidade_ambiental
 10
-9.412680
 20
38.694476
  0
VERTEX
  8
sensibilidade_ambiental
 10
-9.412703
 20
38.694477
  0
VERTEX
  8
sensibilidade_ambiental
 10
-9.412726
 20
38.694475
  0
VERTEX
  8
sensibilidade_ambiental
 10
-9.412748
 20
38.694470
  0
VERTEX
  8
sensibilidade_ambiental
 10
-9.412769
 20
38.694462
  0
VERTEX
  8
sensibilidade_ambiental
 10
-9.412787
 20
38.694452
  0
VERTEX
  8
sensibilidade_ambiental
 10
-9.412804
 20
38.694439
  0
VERTEX
  8
sensibilidade_ambiental
 10
-9.413653
 20
38.693647
  0
SEQEND
  0
POLYLINE
  8
sensibilidade_ambiental
  6
BYLAYER
 66
1
 70
0
 40
0.000000
 41
0.000000
  0
VERTEX
  8
sensibilidade_ambiental
 10
-9.413653
 20
38.693647
  0
VERTEX
  8
sensibilidade_ambiental
 10
-9.414120
 20
38.693211
  0
VERTEX
  8
sensibilidade_ambiental
 10
-9.414421
 20
38.692974
  0
VERTEX
  8
sensibilidade_ambiental
 10
-9.414427
 20
38.692972
  0
VERTEX
  8
sensibilidade_ambiental
 10
-9.414447
 20
38.692954
  0
VERTEX
  8
sensibilidade_ambiental
 10
-9.414449
 20
38.692953
  0
VERTEX
  8
sensibilidade_ambiental
 10
-9.414475
 20
38.692933
  0
VERTEX
  8
sensibilidade_ambiental
 10
-9.414488
 20
38.692922
  0
VERTEX
  8
sensibilidade_ambiental
 10
-9.414501
 20
38.692912
  0
VERTEX
  8
sensibilidade_ambiental
 10
-9.414509
 20
38.692906
  0
VERTEX
  8
sensibilidade_ambiental
 10
-9.414880
 20
38.692613
  0
VERTEX
  8
sensibilidade_ambiental
 10
-9.415238
 20
38.692331
  0
VERTEX
  8
sensibilidade_ambiental
 10
-9.415247
 20
38.692325
  0
VERTEX
  8
sensibilidade_ambiental
 10
-9.415252
 20
38.692321
  0
VERTEX
  8
sensibilidade_ambiental
 10
-9.415256
 20
38.692318
  0
VERTEX
  8
sensibilidade_ambiental
 10
-9.415267
 20
38.692310
  0
VERTEX
  8
sensibilidade_ambiental
 10
-9.415277
 20
38.692301
  0
VERTEX
  8
sensibilidade_ambiental
 10
-9.415294
 20
38.692288
  0
VERTEX
  8
sensibilidade_ambiental
 10
-9.415296
 20
38.692286
  0
VERTEX
  8
sensibilidade_ambiental
 10
-9.415334
 20
38.692267
  0
VERTEX
  8
sensibilidade_ambiental
 10
-9.415338
 20
38.692253
  0
VERTEX
  8
sensibilidade_ambiental
 10
-9.415552
 20
38.692084
  0
VERTEX
  8
sensibilidade_ambiental
 10
-9.415564
 20
38.692078
  0
VERTEX
  8
sensibilidade_ambiental
 10
-9.415599
 20
38.692054
  0
VERTEX
  8
sensibilidade_ambiental
 10
-9.415640
 20
38.692021
  0
VERTEX
  8
sensibilidade_ambiental
 10
-9.415649
 20
38.692015
  0
VERTEX
  8
sensibilidade_ambiental
 10
-9.415651
 20
38.692013
  0
VERTEX
  8
sensibilidade_ambiental
 10
-9.415657
 20
38.692008
  0
VERTEX
  8
sensibilidade_ambiental
 10
-9.415665
 20
38.692002
  0
VERTEX
  8
sensibilidade_ambiental
 10
-9.415671
 20
38.691998
  0
VERTEX
  8
sensibilidade_ambiental
 10
-9.415693
 20
38.691980
  0
VERTEX
  8
sensibilidade_ambiental
 10
-9.415707
 20
38.691970
  0
VERTEX
  8
sensibilidade_ambiental
 10
-9.415715
 20
38.691963
  0
VERTEX
  8
sensibilidade_ambiental
 10
-9.416034
 20
38.691714
  0
VERTEX
  8
sensibilidade_ambiental
 10
-9.416088
 20
38.691680
  0
VERTEX
  8
sensibilidade_ambiental
 10
-9.416088
 20
38.691670
  0
VERTEX
  8
sensibilidade_ambiental
 10
-9.416102
 20
38.691664
  0
VERTEX
  8
sensibilidade_ambiental
 10
-9.416121
 20
38.691647
  0
VERTEX
  8
sensibilidade_ambiental
 10
-9.416448
 20
38.691391
  0
VERTEX
  8
sensibilidade_ambiental
 10
-9.416456
 20
38.691384
  0
VERTEX
  8
sensibilidade_ambiental
 10
-9.416462
 20
38.691380
  0
VERTEX
  8
sensibilidade_ambiental
 10
-9.416465
 20
38.691378
  0
VERTEX
  8
sensibilidade_ambiental
 10
-9.416473
 20
38.691371
  0
VERTEX
  8
sensibilidade_ambiental
 10
-9.416474
 20
38.691371
  0
VERTEX
  8
sensibilidade_ambiental
 10
-9.416478
 20
38.691367
  0
VERTEX
  8
sensibilidade_ambiental
 10
-9.416500
 20
38.691350
  0
VERTEX
  8
sensibilidade_ambiental
 10
-9.416511
 20
38.691341
  0
VERTEX
  8
sensibilidade_ambiental
 10
-9.416511
 20
38.691341
  0
VERTEX
  8
sensibilidade_ambiental
 10
-9.416520
 20
38.691334
  0
VERTEX
  8
sensibilidade_ambiental
 10
-9.416521
 20
38.691333
  0
VERTEX
  8
sensibilidade_ambiental
 10
-9.416854
 20
38.691076
  0
VERTEX
  8
sensibilidade_ambiental
 10
-9.416858
 20
38.691073
  0
VERTEX
  8
sensibilidade_ambiental
 10
-9.416864
 20
38.691070
  0
VERTEX
  8
sensibilidade_ambiental
 10
-9.416883
 20
38.691055
  0
VERTEX
  8
sensibilidade_ambiental
 10
-9.416886
 20
38.691052
  0
VERTEX
  8
sensibilidade_ambiental
 10
-9.416924
 20
38.691026
  0
VERTEX
  8
sensibilidade_ambiental
 10
-9.416963
 20
38.691008
  0
VERTEX
  8
sensibilidade_ambiental
 10
-9.416963
 20
38.690990
  0
VERTEX
  8
sensibilidade_ambiental
 10
-9.417072
 20
38.690905
  0
VERTEX
  8
sensibilidade_ambiental
 10
-9.417076
 20
38.690901
  0
VERTEX
  8
sensibilidade_ambiental
 10
-9.417259
 20
38.690758
  0
VERTEX
  8
sensibilidade_ambiental
 10
-9.417267
 20
38.690752
  0
VERTEX
  8
sensibilidade_ambiental
 10
-9.417273
 20
38.690747
  0
VERTEX
  8
sensibilidade_ambiental
 10
-9.417282
 20
38.690740
  0
VERTEX
  8
sensibilidade_ambiental
 10
-9.417311
 20
38.690717
  0
VERTEX
  8
sensibilidade_ambiental
 10
-9.417324
 20
38.690707
  0
VERTEX
  8
sensibilidade_ambiental
 10
-9.417332
 20
38.690701
  0
VERTEX
  8
sensibilidade_ambiental
 10
-9.417663
 20
38.690442
  0
VERTEX
  8
sensibilidade_ambiental
 10
-9.417671
 20
38.690435
  0
VERTEX
  8
sensibilidade_ambiental
 10
-9.417687
 20
38.690422
  0
VERTEX
  8
sensibilidade_ambiental
 10
-9.417689
 20
38.690421
  0
VERTEX
  8
sensibilidade_ambiental
 10
-9.417696
 20
38.690415
  0
VERTEX
  8
sensibilidade_ambiental
 10
-9.417715
 20
38.690401
  0
VERTEX
  8
sensibilidade_ambiental
 10
-9.417725
 20
38.690392
  0
VERTEX
  8
sensibilidade_ambiental
 10
-9.417726
 20
38.690392
  0
VERTEX
  8
sensibilidade_ambiental
 10
-9.417735
 20
38.690385
  0
VERTEX
  8
sensibilidade_ambiental
 10
-9.417736
 20
38.690384
  0
VERTEX
  8
sensibilidade_ambiental
 10
-9.417840
 20
38.690302
  0
VERTEX
  8
sensibilidade_ambiental
 10
-9.417903
 20
38.690256
  0
VERTEX
  8
sensibilidade_ambiental
 10
-9.417976
 20
38.690212
  0
VERTEX
  8
sensibilidade_ambiental
 10
-9.418048
 20
38.690175
  0
VERTEX
  8
sensibilidade_ambiental
 10
-9.418048
 20
38.690175
  0
VERTEX
  8
sensibilidade_ambiental
 10
-9.418054
 20
38.690172
  0
VERTEX
  8
sensibilidade_ambiental
 10
-9.418062
 20
38.690169
  0
VERTEX
  8
sensibilidade_ambiental
 10
-9.418063
 20
38.690168
  0
VERTEX
  8
sensibilidade_ambiental
 10
-9.418064
 20
38.690168
  0
VERTEX
  8
sensibilidade_ambiental
 10
-9.418069
 20
38.690166
  0
VERTEX
  8
sensibilidade_ambiental
 10
-9.418073
 20
38.690164
  0
VERTEX
  8
sensibilidade_ambiental
 10
-9.418079
 20
38.690162
  0
VERTEX
  8
sensibilidade_ambiental
 10
-9.418084
 20
38.690159
  0
VERTEX
  8
sensibilidade_ambiental
 10
-9.418086
 20
38.690158
  0
VERTEX
  8
sensibilidade_ambiental
 10
-9.418097
 20
38.690154
  0
VERTEX
  8
sensibilidade_ambiental
 10
-9.418107
 20
38.690150
  0
VERTEX
  8
sensibilidade_ambiental
 10
-9.418123
 20
38.690144
  0
VERTEX
  8
sensibilidade_ambiental
 10
-9.418141
 20
38.690137
  0
VERTEX
  8
sensibilidade_ambiental
 10
-9.418141
 20
38.690137
  0
VERTEX
  8
sensibilidade_ambiental
 10
-9.418235
 20
38.690105
  0
VERTEX
  8
sensibilidade_ambiental
 10
-9.418285
 20
38.690092
  0
VERTEX
  8
sensibilidade_ambiental
 10
-9.418360
 20
38.690076
  0
VERTEX
  8
sensibilidade_ambiental
 10
-9.418446
 20
38.690063
  0
VERTEX
  8
sensibilidade_ambiental
 10
-9.418526
 20
38.690057
  0
VERTEX
  8
sensibilidade_ambiental
 10
-9.418574
 20
38.690055
  0
VERTEX
  8
sensibilidade_ambiental
 10
-9.418672
 20
38.690056
  0
VERTEX
  8
sensibilidade_ambiental
 10
-9.418734
 20
38.690061
  0
VERTEX
  8
sensibilidade_ambiental
 10
-9.418791
 20
38.690067
  0
VERTEX
  8
sensibilidade_ambiental
 10
-9.418905
 20
38.690088
  0
VERTEX
  8
sensibilidade_ambiental
 10
-9.418970
 20
38.690105
  0
VERTEX
  8
sensibilidade_ambiental
 10
-9.419008
 20
38.690125
  0
VERTEX
  8
sensibilidade_ambiental
 10
-9.419026
 20
38.690122
  0
VERTEX
  8
sensibilidade_ambiental
 10
-9.419042
 20
38.690127
  0
VERTEX
  8
sensibilidade_ambiental
 10
-9.419059
 20
38.690134
  0
VERTEX
  8
sensibilidade_ambiental
 10
-9.419080
 20
38.690141
  0
VERTEX
  8
sensibilidade_ambiental
 10
-9.419080
 20
38.690141
  0
VERTEX
  8
sensibilidade_ambiental
 10
-9.419132
 20
38.690162
  0
VERTEX
  8
sensibilidade_ambiental
 10
-9.419199
 20
38.690194
  0
VERTEX
  8
sensibilidade_ambiental
 10
-9.419264
 20
38.690230
  0
VERTEX
  8
sensibilidade_ambiental
 10
-9.419301
 20
38.690254
  0
VERTEX
  8
sensibilidade_ambiental
 10
-9.419370
 20
38.690305
  0
VERTEX
  8
sensibilidade_ambiental
 10
-9.419791
 20
38.690631
  0
VERTEX
  8
sensibilidade_ambiental
 10
-9.419799
 20
38.690638
  0
VERTEX
  8
sensibilidade_ambiental
 10
-9.419801
 20
38.690640
  0
VERTEX
  8
sensibilidade_ambiental
 10
-9.419808
 20
38.690645
  0
VERTEX
  8
sensibilidade_ambiental
 10
-9.419816
 20
38.690651
  0
VERTEX
  8
sensibilidade_ambiental
 10
-9.419822
 20
38.690656
  0
VERTEX
  8
sensibilidade_ambiental
 10
-9.419844
 20
38.690674
  0
VERTEX
  8
sensibilidade_ambiental
 10
-9.419858
 20
38.690684
  0
VERTEX
  8
sensibilidade_ambiental
 10
-9.419865
 20
38.690690
  0
VERTEX
  8
sensibilidade_ambiental
 10
-9.420194
 20
38.690949
  0
VERTEX
  8
sensibilidade_ambiental
 10
-9.420196
 20
38.690950
  0
VERTEX
  8
sensibilidade_ambiental
 10
-9.420203
 20
38.690959
  0
VERTEX
  8
sensibilidade_ambiental
 10
-9.420229
 20
38.690975
  0
VERTEX
  8
sensibilidade_ambiental
 10
-9.420231
 20
38.690977
  0
VERTEX
  8
sensibilidade_ambiental
 10
-9.420433
 20
38.691132
  0
VERTEX
  8
sensibilidade_ambiental
 10
-9.420383
 20
38.691170
  0
VERTEX
  8
sensibilidade_ambiental
 10
-9.419721
 20
38.691702
  0
VERTEX
  8
sensibilidade_ambiental
 10
-9.419606
 20
38.691782
  0
VERTEX
  8
sensibilidade_ambiental
 10
-9.419582
 20
38.691780
  0
VERTEX
  8
sensibilidade_ambiental
 10
-9.419357
 20
38.691611
  0
VERTEX
  8
sensibilidade_ambiental
 10
-9.419240
 20
38.691522
  0
VERTEX
  8
sensibilidade_ambiental
 10
-9.419124
 20
38.691435
  0
VERTEX
  8
sensibilidade_ambiental
 10
-9.419007
 20
38.691344
  0
VERTEX
  8
sensibilidade_ambiental
 10
-9.418892
 20
38.691257
  0
VERTEX
  8
sensibilidade_ambiental
 10
-9.418773
 20
38.691168
  0
VERTEX
  8
sensibilidade_ambiental
 10
-9.418743
 20
38.691144
  0
VERTEX
  8
sensibilidade_ambiental
 10
-9.418659
 20
38.691080
  0
VERTEX
  8
sensibilidade_ambiental
 10
-9.418542
 20
38.690990
  0
VERTEX
  8
sensibilidade_ambiental
 10
-9.418424
 20
38.690901
  0
VERTEX
  8
sensibilidade_ambiental
 10
-9.418190
 20
38.690720
  0
VERTEX
  8
sensibilidade_ambiental
 10
-9.418088
 20
38.690619
  0
VERTEX
  8
sensibilidade_ambiental
 10
-9.418005
 20
38.690554
  0
VERTEX
  8
sensibilidade_ambiental
 10
-9.417971
 20
38.690557
  0
VERTEX
  8
sensibilidade_ambiental
 10
-9.417785
 20
38.690726
  0
VERTEX
  8
sensibilidade_ambiental
 10
-9.417785
 20
38.690740
  0
VERTEX
  8
sensibilidade_ambiental
 10
-9.418011
 20
38.690902
  0
VERTEX
  8
sensibilidade_ambiental
 10
-9.417851
 20
38.691006
  0
VERTEX
  8
sensibilidade_ambiental
 10
-9.417637
 20
38.690834
  0
VERTEX
  8
sensibilidade_ambiental
 10
-9.417542
 20
38.690945
  0
VERTEX
  8
sensibilidade_ambiental
 10
-9.417685
 20
38.691078
  0
VERTEX
  8
sensibilidade_ambiental
 10
-9.417415
 20
38.691291
  0
VERTEX
  8
sensibilidade_ambiental
 10
-9.417396
 20
38.691311
  0
VERTEX
  8
sensibilidade_ambiental
 10
-9.418500
 20
38.692162
  0
VERTEX
  8
sensibilidade_ambiental
 10
-9.418979
 20
38.692535
  0
VERTEX
  8
sensibilidade_ambiental
 10
-9.418979
 20
38.692550
  0
VERTEX
  8
sensibilidade_ambiental
 10
-9.418686
 20
38.692772
  0
VERTEX
  8
sensibilidade_ambiental
 10
-9.417902
 20
38.693389
  0
VERTEX
  8
sensibilidade_ambiental
 10
-9.417840
 20
38.693437
  0
VERTEX
  8
sensibilidade_ambiental
 10
-9.417007
 20
38.694084
  0
VERTEX
  8
sensibilidade_ambiental
 10
-9.416959
 20
38.694102
  0
VERTEX
  8
sensibilidade_ambiental
 10
-9.416341
 20
38.693620
  0
VERTEX
  8
sensibilidade_ambiental
 10
-9.415714
 20
38.693131
  0
VERTEX
  8
sensibilidade_ambiental
 10
-9.415542
 20
38.693002
  0
SEQEND
  0
POLYLINE
  8
sensibilidade_ambiental
  6
BYLAYER
 66
1
 70
0
 40
0.000000
 41
0.000000
  0
VERTEX
  8
sensibilidade_ambiental
 10
-9.419805
 20
38.696170
  0
VERTEX
  8
sensibilidade_ambiental
 10
-9.419631
 20
38.696460
  0
VERTEX
  8
sensibilidade_ambiental
 10
-9.419510
 20
38.696737
  0
VERTEX
  8
sensibilidade_ambiental
 10
-9.419445
 20
38.697023
  0
VERTEX
  8
sensibilidade_ambiental
 10
-9.419336
 20
38.697082
  0
SEQEND
  0
POLYLINE
  8
sensibilidade_ambiental
  6
BYLAYER
 66
1
 70
0
 40
0.000000
 41
0.000000
  0
VERTEX
  8
sensibilidade_ambiental
 10
-9.416922
 20
38.699750
  0
VERTEX
  8
sensibilidade_ambiental
 10
-9.416906
 20
38.699804
  0
VERTEX
  8
sensibilidade_ambiental
 10
-9.416875
 20
38.699838
  0
VERTEX
  8
sensibilidade_ambiental
 10
-9.416715
 20
38.699896
  0
VERTEX
  8
sensibilidade_ambiental
 10
-9.416532
 20
38.700020
  0
VERTEX
  8
sensibilidade_ambiental
 10
-9.416408
 20
38.700046
  0
VERTEX
  8
sensibilidade_ambiental
 10
-9.416306
 20
38.700119
  0
VERTEX
  8
sensibilidade_ambiental
 10
-9.416201
 20
38.700145
  0
VERTEX
  8
sensibilidade_ambiental
 10
-9.416070
 20
38.700221
  0
VERTEX
  8
sensibilidade_ambiental
 10
-9.415951
 20
38.700246
  0
VERTEX
  8
sensibilidade_ambiental
 10
-9.415875
 20
38.700306
  0
VERTEX
  8
sensibilidade_ambiental
 10
-9.415785
 20
38.700329
  0
VERTEX
  8
sensibilidade_ambiental
 10
-9.415732
 20
38.700395
  0
VERTEX
  8
sensibilidade_ambiental
 10
-9.415584
 20
38.700429
  0
VERTEX
  8
sensibilidade_ambiental
 10
-9.415400
 20
38.700484
  0
VERTEX
  8
sensibilidade_ambiental
 10
-9.415185
 20
38.700522
  0
VERTEX
  8
sensibilidade_ambiental
 10
-9.415100
 20
38.700552
  0
VERTEX
  8
sensibilidade_ambiental
 10
-9.415026
 20
38.700577
  0
VERTEX
  8
sensibilidade_ambiental
 10
-9.414922
 20
38.700610
  0
VERTEX
  8
sensibilidade_ambiental
 10
-9.414854
 20
38.700666
  0
VERTEX
  8
sensibilidade_ambiental
 10
-9.414697
 20
38.700696
  0
VERTEX
  8
sensibilidade_ambiental
 10
-9.414601
 20
38.700699
  0
VERTEX
  8
sensibilidade_ambiental
 10
-9.414432
 20
38.700711
  0
VERTEX
  8
sensibilidade_ambiental
 10
-9.414348
 20
38.700758
  0
VERTEX
  8
sensibilidade_ambiental
 10
-9.414236
 20
38.700782
  0
VERTEX
  8
sensibilidade_ambiental
 10
-9.414142
 20
38.700794
  0
SEQEND
  0
POLYLINE
  8
sensibilidade_ambiental
  6
BYLAYER
 66
1
 70
0
 40
0.000000
 41
0.000000
  0
VERTEX
  8
sensibilidade_ambiental
 10
-9.410294
 20
38.701838
  0
VERTEX
  8
sensibilidade_ambiental
 10
-9.410004
 20
38.701915
  0
VERTEX
  8
sensibilidade_ambiental
 10
-9.409899
 20
38.701886
  0
VERTEX
  8
sensibilidade_ambiental
 10
-9.409777
 20
38.701865
  0
VERTEX
  8
sensibilidade_ambiental
 10
-9.409508
 20
38.701824
  0
VERTEX
  8
sensibilidade_ambiental
 10
-9.409436
 20
38.701793
  0
VERTEX
  8
sensibilidade_ambiental
 10
-9.409320
 20
38.701776
  0
VERTEX
  8
sensibilidade_ambiental
 10
-9.409078
 20
38.701754
  0
VERTEX
  8
sensibilidade_ambiental
 10
-9.408943
 20
38.701735
  0
VERTEX
  8
sensibilidade_ambiental
 10
-9.408684
 20
38.701738
  0
VERTEX
  8
sensibilidade_ambiental
 10
-9.408621
 20
38.701729
  0
VERTEX
  8
sensibilidade_ambiental
 10
-9.408599
 20
38.701716
  0
SEQEND
  0
POLYLINE
  8
sensibilidade_ambiental
  6
BYLAYER
 66
1
 70
0
 40
0.000000
 41
0.000000
  0
VERTEX
  8
sensibilidade_ambiental
 10
-9.481801
 20
38.757725
  0
VERTEX
  8
sensibilidade_ambiental
 10
-9.481780
 20
38.757694
  0
VERTEX
  8
sensibilidade_ambiental
 10
-9.481737
 20
38.757671
  0
VERTEX
  8
sensibilidade_ambiental
 10
-9.481674
 20
38.757655
  0
VERTEX
  8
sensibilidade_ambiental
 10
-9.481568
 20
38.757650
  0
VERTEX
  8
sensibilidade_ambiental
 10
-9.481492
 20
38.757649
  0
VERTEX
  8
sensibilidade_ambiental
 10
-9.481440
 20
38.757648
  0
VERTEX
  8
sensibilidade_ambiental
 10
-9.481415
 20
38.757620
  0
VERTEX
  8
sensibilidade_ambiental
 10
-9.481401
 20
38.757583
  0
VERTEX
  8
sensibilidade_ambiental
 10
-9.481401
 20
38.757583
  0
VERTEX
  8
sensibilidade_ambiental
 10
-9.481401
 20
38.757583
  0
VERTEX
  8
sensibilidade_ambiental
 10
-9.481410
 20
38.757506
  0
VERTEX
  8
sensibilidade_ambiental
 10
-9.481440
 20
38.757406
  0
VERTEX
  8
sensibilidade_ambiental
 10
-9.481513
 20
38.757314
  0
VERTEX
  8
sensibilidade_ambiental
 10
-9.481563
 20
38.757201
  0
VERTEX
  8
sensibilidade_ambiental
 10
-9.481589
 20
38.757143
  0
VERTEX
  8
sensibilidade_ambiental
 10
-9.481640
 20
38.757021
  0
VERTEX
  8
sensibilidade_ambiental
 10
-9.481658
 20
38.756913
  0
VERTEX
  8
sensibilidade_ambiental
 10
-9.481705
 20
38.756729
  0
VERTEX
  8
sensibilidade_ambiental
 10
-9.481709
 20
38.756659
  0
VERTEX
  8
sensibilidade_ambiental
 10
-9.481694
 20
38.756556
  0
VERTEX
  8
sensibilidade_ambiental
 10
-9.481669
 20
38.756445
  0
VERTEX
  8
sensibilidade_ambiental
 10
-9.481591
 20
38.756410
  0
VERTEX
  8
sensibilidade_ambiental
 10
-9.481514
 20
38.756348
  0
VERTEX
  8
sensibilidade_ambiental
 10
-9.481384
 20
38.756316
  0
VERTEX
  8
sensibilidade_ambiental
 10
-9.481266
 20
38.756313
  0
VERTEX
  8
sensibilidade_ambiental
 10
-9.481214
 20
38.756305
  0
VERTEX
  8
sensibilidade_ambiental
 10
-9.481215
 20
38.756249
  0
VERTEX
  8
sensibilidade_ambiental
 10
-9.481229
 20
38.756127
  0
VERTEX
  8
sensibilidade_ambiental
 10
-9.481219
 20
38.756029
  0
VERTEX
  8
sensibilidade_ambiental
 10
-9.481207
 20
38.756000
  0
VERTEX
  8
sensibilidade_ambiental
 10
-9.481131
 20
38.755987
  0
VERTEX
  8
sensibilidade_ambiental
 10
-9.481038
 20
38.755963
  0
VERTEX
  8
sensibilidade_ambiental
 10
-9.480899
 20
38.755958
  0
VERTEX
  8
sensibilidade_ambiental
 10
-9.480716
 20
38.755964
  0
VERTEX
  8
sensibilidade_ambiental
 10
-9.480572
 20
38.755965
  0
VERTEX
  8
sensibilidade_ambiental
 10
-9.480457
 20
38.755982
  0
VERTEX
  8
sensibilidade_ambiental
 10
-9.480350
 20
38.756064
  0
VERTEX
  8
sensibilidade_ambiental
 10
-9.480208
 20
38.756263
  0
VERTEX
  8
sensibilidade_ambiental
 10
-9.480072
 20
38.756486
  0
VERTEX
  8
sensibilidade_ambiental
 10
-9.479910
 20
38.756654
  0
SEQEND
  0
POLYLINE
  8
sensibilidade_ambiental
  6
BYLAYER
 66
1
 70
0
 40
0.000000
 41
0.000000
  0
VERTEX
  8
sensibilidade_ambiental
 10
-9.421446
 20
38.691635
  0
VERTEX
  8
sensibilidade_ambiental
 10
-9.421325
 20
38.691737
  0
SEQEND
  0
POLYLINE
  8
sensibilidade_ambiental
  6
BYLAYER
 66
1
 70
0
 40
0.000000
 41
0.000000
  0
VERTEX
  8
sensibilidade_ambiental
 10
-9.416939
 20
38.694465
  0
VERTEX
  8
sensibilidade_ambiental
 10
-9.416774
 20
38.694604
  0
VERTEX
  8
sensibilidade_ambiental
 10
-9.416601
 20
38.694668
  0
VERTEX
  8
sensibilidade_ambiental
 10
-9.416527
 20
38.694627
  0
VERTEX
  8
sensibilidade_ambiental
 10
-9.416859
 20
38.694359
  0
VERTEX
  8
sensibilidade_ambiental
 10
-9.416758
 20
38.694285
  0
VERTEX
  8
sensibilidade_ambiental
 10
-9.416555
 20
38.694437
  0
VERTEX
  8
sensibilidade_ambiental
 10
-9.415793
 20
38.693822
  0
VERTEX
  8
sensibilidade_ambiental
 10
-9.415969
 20
38.693695
  0
SEQEND
  0
POLYLINE
  8
sensibilidade_ambiental
  6
BYLAYER
 66
1
 70
0
 40
0.000000
 41
0.000000
  0
VERTEX
  8
sensibilidade_ambiental
 10
-9.415076
 20
38.693381
  0
VERTEX
  8
sensibilidade_ambiental
 10
-9.415018
 20
38.693332
  0
VERTEX
  8
sensibilidade_ambiental
 10
-9.415472
 20
38.692964
  0
VERTEX
  8
sensibilidade_ambiental
 10
-9.415542
 20
38.693002
  0
SEQEND
  0
POLYLINE
  8
sensibilidade_ambiental
  6
BYLAYER
 66
1
 70
0
 40
0.000000
 41
0.000000
  0
VERTEX
  8
sensibilidade_ambiental
 10
-9.415969
 20
38.693695
  0
VERTEX
  8
sensibilidade_ambiental
 10
-9.415937
 20
38.693678
  0
VERTEX
  8
sensibilidade_ambiental
 10
-9.415902
 20
38.693664
  0
VERTEX
  8
sensibilidade_ambiental
 10
-9.415865
 20
38.693653
  0
VERTEX
  8
sensibilidade_ambiental
 10
-9.415827
 20
38.693646
  0
VERTEX
  8
sensibilidade_ambiental
 10
-9.415789
 20
38.693642
  0
VERTEX
  8
sensibilidade_ambiental
 10
-9.415750
 20
38.693642
  0
VERTEX
  8
sensibilidade_ambiental
 10
-9.415711
 20
38.693646
  0
VERTEX
  8
sensibilidade_ambiental
 10
-9.415673
 20
38.693654
  0
VERTEX
  8
sensibilidade_ambiental
 10
-9.414879
 20
38.693754
  0
VERTEX
  8
sensibilidade_ambiental
 10
-9.414857
 20
38.693768
  0
VERTEX
  8
sensibilidade_ambiental
 10
-9.414837
 20
38.693784
  0
VERTEX
  8
sensibilidade_ambiental
 10
-9.414822
 20
38.693803
  0
VERTEX
  8
sensibilidade_ambiental
 10
-9.414810
 20
38.693823
  0
VERTEX
  8
sensibilidade_ambiental
 10
-9.414803
 20
38.693845
  0
VERTEX
  8
sensibilidade_ambiental
 10
-9.414800
 20
38.693867
  0
VERTEX
  8
sensibilidade_ambiental
 10
-9.414802
 20
38.693889
  0
VERTEX
  8
sensibilidade_ambiental
 10
-9.414798
 20
38.693909
  0
VERTEX
  8
sensibilidade_ambiental
 10
-9.414791
 20
38.693928
  0
VERTEX
  8
sensibilidade_ambiental
 10
-9.414779
 20
38.693946
  0
VERTEX
  8
sensibilidade_ambiental
 10
-9.414764
 20
38.693962
  0
VERTEX
  8
sensibilidade_ambiental
 10
-9.414745
 20
38.693976
  0
VERTEX
  8
sensibilidade_ambiental
 10
-9.414724
 20
38.693988
  0
VERTEX
  8
sensibilidade_ambiental
 10
-9.414701
 20
38.693996
  0
VERTEX
  8
sensibilidade_ambiental
 10
-9.414676
 20
38.694001
  0
VERTEX
  8
sensibilidade_ambiental
 10
-9.414650
 20
38.694003
  0
VERTEX
  8
sensibilidade_ambiental
 10
-9.414624
 20
38.694002
  0
VERTEX
  8
sensibilidade_ambiental
 10
-9.414599
 20
38.693997
  0
VERTEX
  8
sensibilidade_ambiental
 10
-9.414576
 20
38.693989
  0
VERTEX
  8
sensibilidade_ambiental
 10
-9.414554
 20
38.693978
  0
VERTEX
  8
sensibilidade_ambiental
 10
-9.414535
 20
38.693964
  0
VERTEX
  8
sensibilidade_ambiental
 10
-9.414519
 20
38.693948
  0
VERTEX
  8
sensibilidade_ambiental
 10
-9.414507
 20
38.693931
  0
VERTEX
  8
sensibilidade_ambiental
 10
-9.414499
 20
38.693912
  0
VERTEX
  8
sensibilidade_ambiental
 10
-9.414495
 20
38.693892
  0
VERTEX
  8
sensibilidade_ambiental
 10
-9.414495
 20
38.693871
  0
VERTEX
  8
sensibilidade_ambiental
 10
-9.414500
 20
38.693852
  0
VERTEX
  8
sensibilidade_ambiental
 10
-9.414509
 20
38.693833
  0
VERTEX
  8
sensibilidade_ambiental
 10
-9.415076
 20
38.693381
  0
SEQEND
  0
POLYLINE
  8
sensibilidade_ambiental
  6
BYLAYER
 66
1
 70
0
 40
0.000000
 41
0.000000
  0
VERTEX
  8
sensibilidade_ambiental
 10
-9.416939
 20
38.694465
  0
VERTEX
  8
sensibilidade_ambiental
 10
-9.417312
 20
38.694335
  0
VERTEX
  8
sensibilidade_ambiental
 10
-9.418201
 20
38.694012
  0
VERTEX
  8
sensibilidade_ambiental
 10
-9.418284
 20
38.694131
  0
VERTEX
  8
sensibilidade_ambiental
 10
-9.418460
 20
38.694426
  0
VERTEX
  8
sensibilidade_ambiental
 10
-9.418615
 20
38.694701
  0
SEQEND
  0
POLYLINE
  8
sensibilidade_ambiental
  6
BYLAYER
 66
1
 70
0
 40
0.000000
 41
0.000000
  0
VERTEX
  8
sensibilidade_ambiental
 10
-9.418615
 20
38.694701
  0
VERTEX
  8
sensibilidade_ambiental
 10
-9.418513
 20
38.694736
  0
VERTEX
  8
sensibilidade_ambiental
 10
-9.418664
 20
38.695089
  0
VERTEX
  8
sensibilidade_ambiental
 10
-9.418808
 20
38.695321
  0
VERTEX
  8
sensibilidade_ambiental
 10
-9.419071
 20
38.695507
  0
VERTEX
  8
sensibilidade_ambiental
 10
-9.419334
 20
38.695678
  0
VERTEX
  8
sensibilidade_ambiental
 10
-9.419805
 20
38.696170
  0
SEQEND
  0
POLYLINE
  8
sensibilidade_ambiental
  6
BYLAYER
 66
1
 70
0
 40
0.000000
 41
0.000000
  0
VERTEX
  8
sensibilidade_ambiental
 10
-9.419336
 20
38.697082
  0
VERTEX
  8
sensibilidade_ambiental
 10
-9.419161
 20
38.697176
  0
VERTEX
  8
sensibilidade_ambiental
 10
-9.419164
 20
38.697212
  0
VERTEX
  8
sensibilidade_ambiental
 10
-9.418877
 20
38.697360
  0
VERTEX
  8
sensibilidade_ambiental
 10
-9.418614
 20
38.697244
  0
VERTEX
  8
sensibilidade_ambiental
 10
-9.418167
 20
38.697013
  0
VERTEX
  8
sensibilidade_ambiental
 10
-9.418126
 20
38.696860
  0
VERTEX
  8
sensibilidade_ambiental
 10
-9.418057
 20
38.696821
  0
VERTEX
  8
sensibilidade_ambiental
 10
-9.417827
 20
38.697077
  0
VERTEX
  8
sensibilidade_ambiental
 10
-9.417914
 20
38.697126
  0
VERTEX
  8
sensibilidade_ambiental
 10
-9.418105
 20
38.697100
  0
VERTEX
  8
sensibilidade_ambiental
 10
-9.418435
 20
38.697279
  0
SEQEND
  0
POLYLINE
  8
sensibilidade_ambiental
  6
BYLAYER
 66
1
 70
0
 40
0.000000
 41
0.000000
  0
VERTEX
  8
sensibilidade_ambiental
 10
-9.418435
 20
38.697279
  0
VERTEX
  8
sensibilidade_ambiental
 10
-9.418364
 20
38.697312
  0
VERTEX
  8
sensibilidade_ambiental
 10
-9.418333
 20
38.697352
  0
VERTEX
  8
sensibilidade_ambiental
 10
-9.418268
 20
38.697388
  0
VERTEX
  8
sensibilidade_ambiental
 10
-9.418266
 20
38.697390
  0
VERTEX
  8
sensibilidade_ambiental
 10
-9.418243
 20
38.697493
  0
VERTEX
  8
sensibilidade_ambiental
 10
-9.418287
 20
38.697563
  0
VERTEX
  8
sensibilidade_ambiental
 10
-9.418350
 20
38.697675
  0
VERTEX
  8
sensibilidade_ambiental
 10
-9.418375
 20
38.697767
  0
VERTEX
  8
sensibilidade_ambiental
 10
-9.418319
 20
38.697791
  0
VERTEX
  8
sensibilidade_ambiental
 10
-9.418253
 20
38.697796
  0
VERTEX
  8
sensibilidade_ambiental
 10
-9.418227
 20
38.697756
  0
VERTEX
  8
sensibilidade_ambiental
 10
-9.418219
 20
38.697709
  0
VERTEX
  8
sensibilidade_ambiental
 10
-9.418189
 20
38.697663
  0
VERTEX
  8
sensibilidade_ambiental
 10
-9.418159
 20
38.697657
  0
VERTEX
  8
sensibilidade_ambiental
 10
-9.418139
 20
38.697696
  0
VERTEX
  8
sensibilidade_ambiental
 10
-9.418118
 20
38.697741
  0
VERTEX
  8
sensibilidade_ambiental
 10
-9.418105
 20
38.697762
  0
VERTEX
  8
sensibilidade_ambiental
 10
-9.418098
 20
38.697783
  0
VERTEX
  8
sensibilidade_ambiental
 10
-9.418102
 20
38.697800
  0
VERTEX
  8
sensibilidade_ambiental
 10
-9.418155
 20
38.697886
  0
VERTEX
  8
sensibilidade_ambiental
 10
-9.418172
 20
38.697959
  0
VERTEX
  8
sensibilidade_ambiental
 10
-9.418108
 20
38.698001
  0
VERTEX
  8
sensibilidade_ambiental
 10
-9.418091
 20
38.698071
  0
VERTEX
  8
sensibilidade_ambiental
 10
-9.418106
 20
38.698139
  0
VERTEX
  8
sensibilidade_ambiental
 10
-9.418141
 20
38.698224
  0
VERTEX
  8
sensibilidade_ambiental
 10
-9.418171
 20
38.698350
  0
VERTEX
  8
sensibilidade_ambiental
 10
-9.418219
 20
38.698416
  0
VERTEX
  8
sensibilidade_ambiental
 10
-9.418273
 20
38.698429
  0
VERTEX
  8
sensibilidade_ambiental
 10
-9.418340
 20
38.698462
  0
VERTEX
  8
sensibilidade_ambiental
 10
-9.418417
 20
38.698525
  0
VERTEX
  8
sensibilidade_ambiental
 10
-9.418429
 20
38.698602
  0
VERTEX
  8
sensibilidade_ambiental
 10
-9.418299
 20
38.698710
  0
VERTEX
  8
sensibilidade_ambiental
 10
-9.418215
 20
38.698794
  0
SEQEND
  0
POLYLINE
  8
sensibilidade_ambiental
  6
BYLAYER
 66
1
 70
0
 40
0.000000
 41
0.000000
  0
VERTEX
  8
sensibilidade_ambiental
 10
-9.418215
 20
38.698794
  0
VERTEX
  8
sensibilidade_ambiental
 10
-9.418135
 20
38.698886
  0
VERTEX
  8
sensibilidade_ambiental
 10
-9.418049
 20
38.698953
  0
VERTEX
  8
sensibilidade_ambiental
 10
-9.417987
 20
38.699006
  0
VERTEX
  8
sensibilidade_ambiental
 10
-9.417985
 20
38.699006
  0
VERTEX
  8
sensibilidade_ambiental
 10
-9.417908
 20
38.699022
  0
VERTEX
  8
sensibilidade_ambiental
 10
-9.417902
 20
38.699023
  0
VERTEX
  8
sensibilidade_ambiental
 10
-9.417845
 20
38.699093
  0
VERTEX
  8
sensibilidade_ambiental
 10
-9.417763
 20
38.699143
  0
VERTEX
  8
sensibilidade_ambiental
 10
-9.417667
 20
38.699180
  0
SEQEND
  0
POLYLINE
  8
sensibilidade_ambiental
  6
BYLAYER
 66
1
 70
0
 40
0.000000
 41
0.000000
  0
VERTEX
  8
sensibilidade_ambiental
 10
-9.417061
 20
38.699585
  0
VERTEX
  8
sensibilidade_ambiental
 10
-9.416985
 20
38.699557
  0
VERTEX
  8
sensibilidade_ambiental
 10
-9.416936
 20
38.699579
  0
VERTEX
  8
sensibilidade_ambiental
 10
-9.416908
 20
38.699634
  0
VERTEX
  8
sensibilidade_ambiental
 10
-9.416922
 20
38.699750
  0
SEQEND
  0
POLYLINE
  8
sensibilidade_ambiental
  6
BYLAYER
 66
1
 70
0
 40
0.000000
 41
0.000000
  0
VERTEX
  8
sensibilidade_ambiental
 10
-9.417667
 20
38.699180
  0
VERTEX
  8
sensibilidade_ambiental
 10
-9.417575
 20
38.699235
  0
VERTEX
  8
sensibilidade_ambiental
 10
-9.417449
 20
38.699259
  0
VERTEX
  8
sensibilidade_ambiental
 10
-9.417406
 20
38.699134
  0
VERTEX
  8
sensibilidade_ambiental
 10
-9.417264
 20
38.699114
  0
VERTEX
  8
sensibilidade_ambiental
 10
-9.417171
 20
38.699111
  0
VERTEX
  8
sensibilidade_ambiental
 10
-9.417112
 20
38.699131
  0
VERTEX
  8
sensibilidade_ambiental
 10
-9.417101
 20
38.699203
  0
VERTEX
  8
sensibilidade_ambiental
 10
-9.417114
 20
38.699300
  0
VERTEX
  8
sensibilidade_ambiental
 10
-9.417090
 20
38.699424
  0
VERTEX
  8
sensibilidade_ambiental
 10
-9.417134
 20
38.699451
  0
VERTEX
  8
sensibilidade_ambiental
 10
-9.417156
 20
38.699517
  0
SEQEND
  0
POLYLINE
  8
sensibilidade_ambiental
  6
BYLAYER
 66
1
 70
0
 40
0.000000
 41
0.000000
  0
VERTEX
  8
sensibilidade_ambiental
 10
-9.417156
 20
38.699517
  0
VERTEX
  8
sensibilidade_ambiental
 10
-9.417232
 20
38.699545
  0
VERTEX
  8
sensibilidade_ambiental
 10
-9.417294
 20
38.699553
  0
VERTEX
  8
sensibilidade_ambiental
 10
-9.417305
 20
38.699574
  0
VERTEX
  8
sensibilidade_ambiental
 10
-9.417247
 20
38.699614
  0
VERTEX
  8
sensibilidade_ambiental
 10
-9.417208
 20
38.699624
  0
VERTEX
  8
sensibilidade_ambiental
 10
-9.417122
 20
38.699616
  0
VERTEX
  8
sensibilidade_ambiental
 10
-9.417061
 20
38.699585
  0
SEQEND
  0
POLYLINE
  8
sensibilidade_ambiental
  6
BYLAYER
 66
1
 70
0
 40
0.000000
 41
0.000000
  0
VERTEX
  8
sensibilidade_ambiental
 10
-9.412830
 20
38.701057
  0
VERTEX
  8
sensibilidade_ambiental
 10
-9.412981
 20
38.701084
  0
VERTEX
  8
sensibilidade_ambiental
 10
-9.412970
 20
38.701116
  0
VERTEX
  8
sensibilidade_ambiental
 10
-9.412901
 20
38.701252
  0
VERTEX
  8
sensibilidade_ambiental
 10
-9.412807
 20
38.701338
  0
VERTEX
  8
sensibilidade_ambiental
 10
-9.412720
 20
38.701362
  0
VERTEX
  8
sensibilidade_ambiental
 10
-9.412597
 20
38.701371
  0
VERTEX
  8
sensibilidade_ambiental
 10
-9.412530
 20
38.701352
  0
VERTEX
  8
sensibilidade_ambiental
 10
-9.412507
 20
38.701316
  0
VERTEX
  8
sensibilidade_ambiental
 10
-9.412497
 20
38.701275
  0
SEQEND
  0
POLYLINE
  8
sensibilidade_ambiental
  6
BYLAYER
 66
1
 70
0
 40
0.000000
 41
0.000000
  0
VERTEX
  8
sensibilidade_ambiental
 10
-9.400295
 20
38.702662
  0
VERTEX
  8
sensibilidade_ambiental
 10
-9.400194
 20
38.702664
  0
VERTEX
  8
sensibilidade_ambiental
 10
-9.399969
 20
38.702665
  0
VERTEX
  8
sensibilidade_ambiental
 10
-9.399891
 20
38.702664
  0
VERTEX
  8
sensibilidade_ambiental
 10
-9.399811
 20
38.702664
  0
VERTEX
  8
sensibilidade_ambiental
 10
-9.399719
 20
38.702663
  0
VERTEX
  8
sensibilidade_ambiental
 10
-9.399484
 20
38.702648
  0
VERTEX
  8
sensibilidade_ambiental
 10
-9.399391
 20
38.702635
  0
VERTEX
  8
sensibilidade_ambiental
 10
-9.399039
 20
38.702544
  0
VERTEX
  8
sensibilidade_ambiental
 10
-9.398920
 20
38.702438
  0
VERTEX
  8
sensibilidade_ambiental
 10
-9.398818
 20
38.702378
  0
VERTEX
  8
sensibilidade_ambiental
 10
-9.398659
 20
38.702309
  0
VERTEX
  8
sensibilidade_ambiental
 10
-9.398622
 20
38.702295
  0
VERTEX
  8
sensibilidade_ambiental
 10
-9.398515
 20
38.702268
  0
VERTEX
  8
sensibilidade_ambiental
 10
-9.398421
 20
38.702227
  0
VERTEX
  8
sensibilidade_ambiental
 10
-9.398363
 20
38.702172
  0
VERTEX
  8
sensibilidade_ambiental
 10
-9.398350
 20
38.702097
  0
VERTEX
  8
sensibilidade_ambiental
 10
-9.398368
 20
38.702041
  0
SEQEND
  0
POLYLINE
  8
sensibilidade_ambiental
  6
BYLAYER
 66
1
 70
0
 40
0.000000
 41
0.000000
  0
VERTEX
  8
sensibilidade_ambiental
 10
-9.402825
 20
38.703360
  0
VERTEX
  8
sensibilidade_ambiental
 10
-9.402680
 20
38.703349
  0
VERTEX
  8
sensibilidade_ambiental
 10
-9.402337
 20
38.703343
  0
VERTEX
  8
sensibilidade_ambiental
 10
-9.402207
 20
38.703338
  0
VERTEX
  8
sensibilidade_ambiental
 10
-9.402097
 20
38.703313
  0
VERTEX
  8
sensibilidade_ambiental
 10
-9.401886
 20
38.703277
  0
VERTEX
  8
sensibilidade_ambiental
 10
-9.401677
 20
38.703221
  0
VERTEX
  8
sensibilidade_ambiental
 10
-9.401378
 20
38.703166
  0
VERTEX
  8
sensibilidade_ambiental
 10
-9.401248
 20
38.703084
  0
VERTEX
  8
sensibilidade_ambiental
 10
-9.400983
 20
38.702962
  0
VERTEX
  8
sensibilidade_ambiental
 10
-9.400828
 20
38.702897
  0
VERTEX
  8
sensibilidade_ambiental
 10
-9.400718
 20
38.702831
  0
VERTEX
  8
sensibilidade_ambiental
 10
-9.400645
 20
38.702806
  0
SEQEND
  0
POLYLINE
  8
sensibilidade_ambiental
  6
BYLAYER
 66
1
 70
0
 40
0.000000
 41
0.000000
  0
VERTEX
  8
sensibilidade_ambiental
 10
-9.400645
 20
38.702806
  0
VERTEX
  8
sensibilidade_ambiental
 10
-9.400632
 20
38.702736
  0
VERTEX
  8
sensibilidade_ambiental
 10
-9.400712
 20
38.702644
  0
VERTEX
  8
sensibilidade_ambiental
 10
-9.400756
 20
38.702594
  0
VERTEX
  8
sensibilidade_ambiental
 10
-9.400759
 20
38.702574
  0
VERTEX
  8
sensibilidade_ambiental
 10
-9.400686
 20
38.702555
  0
VERTEX
  8
sensibilidade_ambiental
 10
-9.400485
 20
38.702558
  0
VERTEX
  8
sensibilidade_ambiental
 10
-9.400412
 20
38.702548
  0
VERTEX
  8
sensibilidade_ambiental
 10
-9.400396
 20
38.702562
  0
VERTEX
  8
sensibilidade_ambiental
 10
-9.400373
 20
38.702628
  0
VERTEX
  8
sensibilidade_ambiental
 10
-9.400295
 20
38.702662
  0
SEQEND
  0
POLYLINE
  8
sensibilidade_ambiental
  6
BYLAYER
 66
1
 70
0
 40
0.000000
 41
0.000000
  0
VERTEX
  8
sensibilidade_ambiental
 10
-9.412497
 20
38.701275
  0
VERTEX
  8
sensibilidade_ambiental
 10
-9.412427
 20
38.701263
  0
VERTEX
  8
sensibilidade_ambiental
 10
-9.412330
 20
38.701271
  0
VERTEX
  8
sensibilidade_ambiental
 10
-9.412315
 20
38.701283
  0
VERTEX
  8
sensibilidade_ambiental
 10
-9.412314
 20
38.701354
  0
VERTEX
  8
sensibilidade_ambiental
 10
-9.412306
 20
38.701417
  0
VERTEX
  8
sensibilidade_ambiental
 10
-9.412219
 20
38.701437
  0
VERTEX
  8
sensibilidade_ambiental
 10
-9.411945
 20
38.701462
  0
VERTEX
  8
sensibilidade_ambiental
 10
-9.411664
 20
38.701493
  0
VERTEX
  8
sensibilidade_ambiental
 10
-9.411578
 20
38.701533
  0
VERTEX
  8
sensibilidade_ambiental
 10
-9.411306
 20
38.701575
  0
VERTEX
  8
sensibilidade_ambiental
 10
-9.411166
 20
38.701552
  0
VERTEX
  8
sensibilidade_ambiental
 10
-9.411084
 20
38.701569
  0
VERTEX
  8
sensibilidade_ambiental
 10
-9.410758
 20
38.701663
  0
VERTEX
  8
sensibilidade_ambiental
 10
-9.410421
 20
38.701754
  0
VERTEX
  8
sensibilidade_ambiental
 10
-9.410353
 20
38.701809
  0
VERTEX
  8
sensibilidade_ambiental
 10
-9.410294
 20
38.701838
  0
SEQEND
  0
POLYLINE
  8
sensibilidade_ambiental
  6
BYLAYER
 66
1
 70
0
 40
0.000000
 41
0.000000
  0
VERTEX
  8
sensibilidade_ambiental
 10
-9.414142
 20
38.700794
  0
VERTEX
  8
sensibilidade_ambiental
 10
-9.413918
 20
38.700807
  0
VERTEX
  8
sensibilidade_ambiental
 10
-9.413770
 20
38.700756
  0
VERTEX
  8
sensibilidade_ambiental
 10
-9.413663
 20
38.700659
  0
VERTEX
  8
sensibilidade_ambiental
 10
-9.413561
 20
38.700633
  0
VERTEX
  8
sensibilidade_ambiental
 10
-9.413413
 20
38.700618
  0
VERTEX
  8
sensibilidade_ambiental
 10
-9.413269
 20
38.700647
  0
VERTEX
  8
sensibilidade_ambiental
 10
-9.413150
 20
38.700718
  0
VERTEX
  8
sensibilidade_ambiental
 10
-9.413078
 20
38.700809
  0
VERTEX
  8
sensibilidade_ambiental
 10
-9.413049
 20
38.700872
  0
VERTEX
  8
sensibilidade_ambiental
 10
-9.413032
 20
38.700926
  0
SEQEND
  0
POLYLINE
  8
sensibilidade_ambiental
  6
BYLAYER
 66
1
 70
0
 40
0.000000
 41
0.000000
  0
VERTEX
  8
sensibilidade_ambiental
 10
-9.413032
 20
38.700926
  0
VERTEX
  8
sensibilidade_ambiental
 10
-9.412876
 20
38.700895
  0
VERTEX
  8
sensibilidade_ambiental
 10
-9.412830
 20
38.701057
  0
SEQEND
  0
POLYLINE
  8
sensibilidade_ambiental
  6
BYLAYER
 66
1
 70
0
 40
0.000000
 41
0.000000
  0
VERTEX
  8
sensibilidade_ambiental
 10
-9.412830
 20
38.701057
  0
VERTEX
  8
sensibilidade_ambiental
 10
-9.412813
 20
38.701120
  0
VERTEX
  8
sensibilidade_ambiental
 10
-9.412803
 20
38.701146
  0
VERTEX
  8
sensibilidade_ambiental
 10
-9.412789
 20
38.701171
  0
VERTEX
  8
sensibilidade_ambiental
 10
-9.412771
 20
38.701194
  0
VERTEX
  8
sensibilidade_ambiental
 10
-9.412749
 20
38.701215
  0
VERTEX
  8
sensibilidade_ambiental
 10
-9.412724
 20
38.701234
  0
VERTEX
  8
sensibilidade_ambiental
 10
-9.412696
 20
38.701250
  0
VERTEX
  8
sensibilidade_ambiental
 10
-9.412666
 20
38.701262
  0
VERTEX
  8
sensibilidade_ambiental
 10
-9.412633
 20
38.701272
  0
VERTEX
  8
sensibilidade_ambiental
 10
-9.412600
 20
38.701278
  0
VERTEX
  8
sensibilidade_ambiental
 10
-9.412565
 20
38.701281
  0
VERTEX
  8
sensibilidade_ambiental
 10
-9.412531
 20
38.701280
  0
VERTEX
  8
sensibilidade_ambiental
 10
-9.412497
 20
38.701275
  0
SEQEND
  0
POLYLINE
  8
sensibilidade_ambiental
  6
BYLAYER
 66
1
 70
0
 40
0.000000
 41
0.000000
  0
VERTEX
  8
sensibilidade_ambiental
 10
-9.396560
 20
38.701982
  0
VERTEX
  8
sensibilidade_ambiental
 10
-9.396317
 20
38.701958
  0
VERTEX
  8
sensibilidade_ambiental
 10
-9.395848
 20
38.701892
  0
VERTEX
  8
sensibilidade_ambiental
 10
-9.395738
 20
38.701883
  0
SEQEND
  0
POLYLINE
  8
sensibilidade_ambiental
  6
BYLAYER
 66
1
 70
0
 40
0.000000
 41
0.000000
  0
VERTEX
  8
sensibilidade_ambiental
 10
-9.395738
 20
38.701883
  0
VERTEX
  8
sensibilidade_ambiental
 10
-9.395500
 20
38.701863
  0
VERTEX
  8
sensibilidade_ambiental
 10
-9.395080
 20
38.701931
  0
VERTEX
  8
sensibilidade_ambiental
 10
-9.394837
 20
38.701970
  0
VERTEX
  8
sensibilidade_ambiental
 10
-9.394482
 20
38.702024
  0
VERTEX
  8
sensibilidade_ambiental
 10
-9.394291
 20
38.702025
  0
VERTEX
  8
sensibilidade_ambiental
 10
-9.393952
 20
38.702022
  0
VERTEX
  8
sensibilidade_ambiental
 10
-9.393778
 20
38.702022
  0
VERTEX
  8
sensibilidade_ambiental
 10
-9.393726
 20
38.702017
  0
VERTEX
  8
sensibilidade_ambiental
 10
-9.393619
 20
38.701994
  0
VERTEX
  8
sensibilidade_ambiental
 10
-9.393420
 20
38.701941
  0
VERTEX
  8
sensibilidade_ambiental
 10
-9.393294
 20
38.701929
  0
VERTEX
  8
sensibilidade_ambiental
 10
-9.393204
 20
38.701940
  0
VERTEX
  8
sensibilidade_ambiental
 10
-9.393004
 20
38.701983
  0
SEQEND
  0
POLYLINE
  8
sensibilidade_ambiental
  6
BYLAYER
 66
1
 70
0
 40
0.000000
 41
0.000000
  0
VERTEX
  8
sensibilidade_ambiental
 10
-9.389147
 20
38.700434
  0
VERTEX
  8
sensibilidade_ambiental
 10
-9.389137
 20
38.700408
  0
VERTEX
  8
sensibilidade_ambiental
 10
-9.389135
 20
38.700365
  0
VERTEX
  8
sensibilidade_ambiental
 10
-9.389130
 20
38.700299
  0
VERTEX
  8
sensibilidade_ambiental
 10
-9.389140
 20
38.700181
  0
VERTEX
  8
sensibilidade_ambiental
 10
-9.389121
 20
38.700138
  0
VERTEX
  8
sensibilidade_ambiental
 10
-9.389050
 20
38.700007
  0
VERTEX
  8
sensibilidade_ambiental
 10
-9.388977
 20
38.699849
  0
VERTEX
  8
sensibilidade_ambiental
 10
-9.388936
 20
38.699761
  0
VERTEX
  8
sensibilidade_ambiental
 10
-9.388884
 20
38.699708
  0
VERTEX
  8
sensibilidade_ambiental
 10
-9.388751
 20
38.699579
  0
VERTEX
  8
sensibilidade_ambiental
 10
-9.388689
 20
38.699535
  0
VERTEX
  8
sensibilidade_ambiental
 10
-9.388559
 20
38.699476
  0
VERTEX
  8
sensibilidade_ambiental
 10
-9.388490
 20
38.699444
  0
VERTEX
  8
sensibilidade_ambiental
 10
-9.388366
 20
38.699374
  0
VERTEX
  8
sensibilidade_ambiental
 10
-9.388151
 20
38.699264
  0
VERTEX
  8
sensibilidade_ambiental
 10
-9.388094
 20
38.699221
  0
VERTEX
  8
sensibilidade_ambiental
 10
-9.387930
 20
38.699086
  0
VERTEX
  8
sensibilidade_ambiental
 10
-9.387808
 20
38.698991
  0
VERTEX
  8
sensibilidade_ambiental
 10
-9.387776
 20
38.698975
  0
VERTEX
  8
sensibilidade_ambiental
 10
-9.387685
 20
38.698959
  0
VERTEX
  8
sensibilidade_ambiental
 10
-9.387480
 20
38.698923
  0
VERTEX
  8
sensibilidade_ambiental
 10
-9.387401
 20
38.698909
  0
VERTEX
  8
sensibilidade_ambiental
 10
-9.387324
 20
38.698894
  0
VERTEX
  8
sensibilidade_ambiental
 10
-9.387170
 20
38.698865
  0
VERTEX
  8
sensibilidade_ambiental
 10
-9.387066
 20
38.698845
  0
VERTEX
  8
sensibilidade_ambiental
 10
-9.387027
 20
38.698845
  0
VERTEX
  8
sensibilidade_ambiental
 10
-9.386952
 20
38.698860
  0
VERTEX
  8
sensibilidade_ambiental
 10
-9.386915
 20
38.698860
  0
VERTEX
  8
sensibilidade_ambiental
 10
-9.386865
 20
38.698857
  0
VERTEX
  8
sensibilidade_ambiental
 10
-9.386742
 20
38.698844
  0
VERTEX
  8
sensibilidade_ambiental
 10
-9.386700
 20
38.698840
  0
VERTEX
  8
sensibilidade_ambiental
 10
-9.386656
 20
38.698843
  0
VERTEX
  8
sensibilidade_ambiental
 10
-9.386578
 20
38.698853
  0
VERTEX
  8
sensibilidade_ambiental
 10
-9.386514
 20
38.698854
  0
VERTEX
  8
sensibilidade_ambiental
 10
-9.386404
 20
38.698850
  0
VERTEX
  8
sensibilidade_ambiental
 10
-9.386297
 20
38.698842
  0
VERTEX
  8
sensibilidade_ambiental
 10
-9.386221
 20
38.698833
  0
VERTEX
  8
sensibilidade_ambiental
 10
-9.386176
 20
38.698819
  0
VERTEX
  8
sensibilidade_ambiental
 10
-9.386099
 20
38.698794
  0
VERTEX
  8
sensibilidade_ambiental
 10
-9.386037
 20
38.698784
  0
VERTEX
  8
sensibilidade_ambiental
 10
-9.385850
 20
38.698768
  0
VERTEX
  8
sensibilidade_ambiental
 10
-9.385647
 20
38.698748
  0
VERTEX
  8
sensibilidade_ambiental
 10
-9.385498
 20
38.698732
  0
VERTEX
  8
sensibilidade_ambiental
 10
-9.385347
 20
38.698673
  0
VERTEX
  8
sensibilidade_ambiental
 10
-9.385220
 20
38.698614
  0
VERTEX
  8
sensibilidade_ambiental
 10
-9.385130
 20
38.698543
  0
VERTEX
  8
sensibilidade_ambiental
 10
-9.384975
 20
38.698430
  0
VERTEX
  8
sensibilidade_ambiental
 10
-9.384843
 20
38.698327
  0
VERTEX
  8
sensibilidade_ambiental
 10
-9.384731
 20
38.698190
  0
VERTEX
  8
sensibilidade_ambiental
 10
-9.384568
 20
38.698044
  0
VERTEX
  8
sensibilidade_ambiental
 10
-9.384434
 20
38.697985
  0
VERTEX
  8
sensibilidade_ambiental
 10
-9.384275
 20
38.697925
  0
VERTEX
  8
sensibilidade_ambiental
 10
-9.384185
 20
38.697891
  0
VERTEX
  8
sensibilidade_ambiental
 10
-9.384112
 20
38.697864
  0
VERTEX
  8
sensibilidade_ambiental
 10
-9.384064
 20
38.697845
  0
VERTEX
  8
sensibilidade_ambiental
 10
-9.383795
 20
38.697803
  0
VERTEX
  8
sensibilidade_ambiental
 10
-9.383695
 20
38.697763
  0
VERTEX
  8
sensibilidade_ambiental
 10
-9.383590
 20
38.697735
  0
VERTEX
  8
sensibilidade_ambiental
 10
-9.383439
 20
38.697728
  0
VERTEX
  8
sensibilidade_ambiental
 10
-9.383296
 20
38.697702
  0
VERTEX
  8
sensibilidade_ambiental
 10
-9.383162
 20
38.697635
  0
VERTEX
  8
sensibilidade_ambiental
 10
-9.383042
 20
38.697566
  0
VERTEX
  8
sensibilidade_ambiental
 10
-9.382899
 20
38.697476
  0
VERTEX
  8
sensibilidade_ambiental
 10
-9.382798
 20
38.697395
  0
VERTEX
  8
sensibilidade_ambiental
 10
-9.382697
 20
38.697275
  0
VERTEX
  8
sensibilidade_ambiental
 10
-9.382568
 20
38.697137
  0
VERTEX
  8
sensibilidade_ambiental
 10
-9.382560
 20
38.697128
  0
VERTEX
  8
sensibilidade_ambiental
 10
-9.382525
 20
38.697106
  0
VERTEX
  8
sensibilidade_ambiental
 10
-9.382472
 20
38.697075
  0
VERTEX
  8
sensibilidade_ambiental
 10
-9.382385
 20
38.697020
  0
VERTEX
  8
sensibilidade_ambiental
 10
-9.382334
 20
38.697004
  0
VERTEX
  8
sensibilidade_ambiental
 10
-9.382178
 20
38.696953
  0
VERTEX
  8
sensibilidade_ambiental
 10
-9.382084
 20
38.696921
  0
VERTEX
  8
sensibilidade_ambiental
 10
-9.381977
 20
38.696883
  0
VERTEX
  8
sensibilidade_ambiental
 10
-9.381892
 20
38.696853
  0
VERTEX
  8
sensibilidade_ambiental
 10
-9.381771
 20
38.696810
  0
VERTEX
  8
sensibilidade_ambiental
 10
-9.381705
 20
38.696787
  0
VERTEX
  8
sensibilidade_ambiental
 10
-9.381673
 20
38.696784
  0
VERTEX
  8
sensibilidade_ambiental
 10
-9.381609
 20
38.696781
  0
VERTEX
  8
sensibilidade_ambiental
 10
-9.381558
 20
38.696776
  0
VERTEX
  8
sensibilidade_ambiental
 10
-9.381444
 20
38.696761
  0
VERTEX
  8
sensibilidade_ambiental
 10
-9.381300
 20
38.696747
  0
VERTEX
  8
sensibilidade_ambiental
 10
-9.381239
 20
38.696742
  0
VERTEX
  8
sensibilidade_ambiental
 10
-9.381055
 20
38.696741
  0
VERTEX
  8
sensibilidade_ambiental
 10
-9.381029
 20
38.696737
  0
VERTEX
  8
sensibilidade_ambiental
 10
-9.380952
 20
38.696725
  0
VERTEX
  8
sensibilidade_ambiental
 10
-9.380864
 20
38.696707
  0
VERTEX
  8
sensibilidade_ambiental
 10
-9.380733
 20
38.696676
  0
VERTEX
  8
sensibilidade_ambiental
 10
-9.380609
 20
38.696641
  0
VERTEX
  8
sensibilidade_ambiental
 10
-9.380545
 20
38.696623
  0
VERTEX
  8
sensibilidade_ambiental
 10
-9.380489
 20
38.696609
  0
VERTEX
  8
sensibilidade_ambiental
 10
-9.380398
 20
38.696589
  0
VERTEX
  8
sensibilidade_ambiental
 10
-9.380353
 20
38.696576
  0
VERTEX
  8
sensibilidade_ambiental
 10
-9.380281
 20
38.696552
  0
VERTEX
  8
sensibilidade_ambiental
 10
-9.380172
 20
38.696520
  0
VERTEX
  8
sensibilidade_ambiental
 10
-9.380093
 20
38.696497
  0
VERTEX
  8
sensibilidade_ambiental
 10
-9.380077
 20
38.696488
  0
VERTEX
  8
sensibilidade_ambiental
 10
-9.380013
 20
38.696452
  0
VERTEX
  8
sensibilidade_ambiental
 10
-9.379918
 20
38.696397
  0
VERTEX
  8
sensibilidade_ambiental
 10
-9.379821
 20
38.696349
  0
VERTEX
  8
sensibilidade_ambiental
 10
-9.379720
 20
38.696299
  0
VERTEX
  8
sensibilidade_ambiental
 10
-9.379690
 20
38.696282
  0
VERTEX
  8
sensibilidade_ambiental
 10
-9.379564
 20
38.696212
  0
VERTEX
  8
sensibilidade_ambiental
 10
-9.379484
 20
38.696173
  0
VERTEX
  8
sensibilidade_ambiental
 10
-9.379446
 20
38.696150
  0
VERTEX
  8
sensibilidade_ambiental
 10
-9.379331
 20
38.696080
  0
VERTEX
  8
sensibilidade_ambiental
 10
-9.379154
 20
38.695983
  0
VERTEX
  8
sensibilidade_ambiental
 10
-9.379060
 20
38.695930
  0
VERTEX
  8
sensibilidade_ambiental
 10
-9.378986
 20
38.695906
  0
VERTEX
  8
sensibilidade_ambiental
 10
-9.378969
 20
38.695902
  0
VERTEX
  8
sensibilidade_ambiental
 10
-9.378900
 20
38.695882
  0
VERTEX
  8
sensibilidade_ambiental
 10
-9.378814
 20
38.695845
  0
VERTEX
  8
sensibilidade_ambiental
 10
-9.378749
 20
38.695820
  0
VERTEX
  8
sensibilidade_ambiental
 10
-9.378623
 20
38.695787
  0
VERTEX
  8
sensibilidade_ambiental
 10
-9.378473
 20
38.695765
  0
VERTEX
  8
sensibilidade_ambiental
 10
-9.378421
 20
38.695763
  0
VERTEX
  8
sensibilidade_ambiental
 10
-9.378361
 20
38.695760
  0
VERTEX
  8
sensibilidade_ambiental
 10
-9.378256
 20
38.695748
  0
VERTEX
  8
sensibilidade_ambiental
 10
-9.378170
 20
38.695739
  0
VERTEX
  8
sensibilidade_ambiental
 10
-9.378097
 20
38.695721
  0
VERTEX
  8
sensibilidade_ambiental
 10
-9.378008
 20
38.695701
  0
VERTEX
  8
sensibilidade_ambiental
 10
-9.377993
 20
38.695691
  0
VERTEX
  8
sensibilidade_ambiental
 10
-9.377934
 20
38.695661
  0
VERTEX
  8
sensibilidade_ambiental
 10
-9.377892
 20
38.695631
  0
VERTEX
  8
sensibilidade_ambiental
 10
-9.377880
 20
38.695616
  0
VERTEX
  8
sensibilidade_ambiental
 10
-9.377859
 20
38.695580
  0
VERTEX
  8
sensibilidade_ambiental
 10
-9.377825
 20
38.695507
  0
VERTEX
  8
sensibilidade_ambiental
 10
-9.377802
 20
38.695469
  0
VERTEX
  8
sensibilidade_ambiental
 10
-9.377770
 20
38.695420
  0
VERTEX
  8
sensibilidade_ambiental
 10
-9.377722
 20
38.695354
  0
VERTEX
  8
sensibilidade_ambiental
 10
-9.377698
 20
38.695322
  0
VERTEX
  8
sensibilidade_ambiental
 10
-9.377677
 20
38.695300
  0
VERTEX
  8
sensibilidade_ambiental
 10
-9.377625
 20
38.695248
  0
VERTEX
  8
sensibilidade_ambiental
 10
-9.377572
 20
38.695196
  0
VERTEX
  8
sensibilidade_ambiental
 10
-9.377548
 20
38.695172
  0
VERTEX
  8
sensibilidade_ambiental
 10
-9.377522
 20
38.695148
  0
VERTEX
  8
sensibilidade_ambiental
 10
-9.377479
 20
38.695124
  0
VERTEX
  8
sensibilidade_ambiental
 10
-9.377368
 20
38.695059
  0
VERTEX
  8
sensibilidade_ambiental
 10
-9.377202
 20
38.694975
  0
VERTEX
  8
sensibilidade_ambiental
 10
-9.377051
 20
38.694896
  0
VERTEX
  8
sensibilidade_ambiental
 10
-9.376921
 20
38.694834
  0
VERTEX
  8
sensibilidade_ambiental
 10
-9.376892
 20
38.694816
  0
VERTEX
  8
sensibilidade_ambiental
 10
-9.376797
 20
38.694756
  0
VERTEX
  8
sensibilidade_ambiental
 10
-9.376727
 20
38.694706
  0
VERTEX
  8
sensibilidade_ambiental
 10
-9.376649
 20
38.694651
  0
VERTEX
  8
sensibilidade_ambiental
 10
-9.376621
 20
38.694632
  0
VERTEX
  8
sensibilidade_ambiental
 10
-9.376528
 20
38.694584
  0
VERTEX
  8
sensibilidade_ambiental
 10
-9.376470
 20
38.694553
  0
VERTEX
  8
sensibilidade_ambiental
 10
-9.376436
 20
38.694542
  0
VERTEX
  8
sensibilidade_ambiental
 10
-9.376379
 20
38.694525
  0
VERTEX
  8
sensibilidade_ambiental
 10
-9.376353
 20
38.694515
  0
VERTEX
  8
sensibilidade_ambiental
 10
-9.376323
 20
38.694499
  0
VERTEX
  8
sensibilidade_ambiental
 10
-9.376271
 20
38.694476
  0
VERTEX
  8
sensibilidade_ambiental
 10
-9.376213
 20
38.694448
  0
VERTEX
  8
sensibilidade_ambiental
 10
-9.376159
 20
38.694430
  0
VERTEX
  8
sensibilidade_ambiental
 10
-9.376092
 20
38.694412
  0
VERTEX
  8
sensibilidade_ambiental
 10
-9.375993
 20
38.694404
  0
VERTEX
  8
sensibilidade_ambiental
 10
-9.375735
 20
38.694390
  0
VERTEX
  8
sensibilidade_ambiental
 10
-9.375653
 20
38.694388
  0
VERTEX
  8
sensibilidade_ambiental
 10
-9.375531
 20
38.694383
  0
VERTEX
  8
sensibilidade_ambiental
 10
-9.375445
 20
38.694377
  0
VERTEX
  8
sensibilidade_ambiental
 10
-9.375416
 20
38.694370
  0
VERTEX
  8
sensibilidade_ambiental
 10
-9.375334
 20
38.694350
  0
VERTEX
  8
sensibilidade_ambiental
 10
-9.375261
 20
38.694333
  0
VERTEX
  8
sensibilidade_ambiental
 10
-9.375215
 20
38.694327
  0
VERTEX
  8
sensibilidade_ambiental
 10
-9.375152
 20
38.694321
  0
VERTEX
  8
sensibilidade_ambiental
 10
-9.375117
 20
38.694310
  0
VERTEX
  8
sensibilidade_ambiental
 10
-9.375071
 20
38.694292
  0
VERTEX
  8
sensibilidade_ambiental
 10
-9.375032
 20
38.694270
  0
VERTEX
  8
sensibilidade_ambiental
 10
-9.375014
 20
38.694258
  0
VERTEX
  8
sensibilidade_ambiental
 10
-9.375005
 20
38.694238
  0
VERTEX
  8
sensibilidade_ambiental
 10
-9.374996
 20
38.694218
  0
VERTEX
  8
sensibilidade_ambiental
 10
-9.374958
 20
38.694172
  0
VERTEX
  8
sensibilidade_ambiental
 10
-9.374944
 20
38.694158
  0
VERTEX
  8
sensibilidade_ambiental
 10
-9.374864
 20
38.694086
  0
VERTEX
  8
sensibilidade_ambiental
 10
-9.374787
 20
38.694020
  0
VERTEX
  8
sensibilidade_ambiental
 10
-9.374694
 20
38.693939
  0
VERTEX
  8
sensibilidade_ambiental
 10
-9.374625
 20
38.693894
  0
VERTEX
  8
sensibilidade_ambiental
 10
-9.374567
 20
38.693862
  0
VERTEX
  8
sensibilidade_ambiental
 10
-9.374522
 20
38.693846
  0
VERTEX
  8
sensibilidade_ambiental
 10
-9.374456
 20
38.693830
  0
VERTEX
  8
sensibilidade_ambiental
 10
-9.374400
 20
38.693821
  0
VERTEX
  8
sensibilidade_ambiental
 10
-9.374267
 20
38.693815
  0
VERTEX
  8
sensibilidade_ambiental
 10
-9.374252
 20
38.693811
  0
VERTEX
  8
sensibilidade_ambiental
 10
-9.374065
 20
38.693767
  0
VERTEX
  8
sensibilidade_ambiental
 10
-9.373897
 20
38.693732
  0
VERTEX
  8
sensibilidade_ambiental
 10
-9.373728
 20
38.693723
  0
VERTEX
  8
sensibilidade_ambiental
 10
-9.373493
 20
38.693727
  0
VERTEX
  8
sensibilidade_ambiental
 10
-9.373371
 20
38.693702
  0
VERTEX
  8
sensibilidade_ambiental
 10
-9.373357
 20
38.693608
  0
VERTEX
  8
sensibilidade_ambiental
 10
-9.373302
 20
38.693407
  0
VERTEX
  8
sensibilidade_ambiental
 10
-9.373188
 20
38.693244
  0
VERTEX
  8
sensibilidade_ambiental
 10
-9.373135
 20
38.693132
  0
VERTEX
  8
sensibilidade_ambiental
 10
-9.373067
 20
38.693016
  0
VERTEX
  8
sensibilidade_ambiental
 10
-9.372941
 20
38.692814
  0
VERTEX
  8
sensibilidade_ambiental
 10
-9.372897
 20
38.692744
  0
VERTEX
  8
sensibilidade_ambiental
 10
-9.372824
 20
38.692565
  0
VERTEX
  8
sensibilidade_ambiental
 10
-9.372808
 20
38.692512
  0
VERTEX
  8
sensibilidade_ambiental
 10
-9.372771
 20
38.692404
  0
VERTEX
  8
sensibilidade_ambiental
 10
-9.372703
 20
38.692301
  0
VERTEX
  8
sensibilidade_ambiental
 10
-9.372581
 20
38.692188
  0
VERTEX
  8
sensibilidade_ambiental
 10
-9.372469
 20
38.692071
  0
VERTEX
  8
sensibilidade_ambiental
 10
-9.372301
 20
38.692079
  0
VERTEX
  8
sensibilidade_ambiental
 10
-9.372213
 20
38.692097
  0
VERTEX
  8
sensibilidade_ambiental
 10
-9.372181
 20
38.692225
  0
VERTEX
  8
sensibilidade_ambiental
 10
-9.372088
 20
38.692281
  0
VERTEX
  8
sensibilidade_ambiental
 10
-9.372019
 20
38.692438
  0
VERTEX
  8
sensibilidade_ambiental
 10
-9.371903
 20
38.692639
  0
VERTEX
  8
sensibilidade_ambiental
 10
-9.371845
 20
38.692701
  0
VERTEX
  8
sensibilidade_ambiental
 10
-9.371831
 20
38.692748
  0
VERTEX
  8
sensibilidade_ambiental
 10
-9.371837
 20
38.692889
  0
VERTEX
  8
sensibilidade_ambiental
 10
-9.371850
 20
38.692988
  0
VERTEX
  8
sensibilidade_ambiental
 10
-9.371776
 20
38.693116
  0
VERTEX
  8
sensibilidade_ambiental
 10
-9.371777
 20
38.693237
  0
VERTEX
  8
sensibilidade_ambiental
 10
-9.371742
 20
38.693356
  0
VERTEX
  8
sensibilidade_ambiental
 10
-9.371663
 20
38.693440
  0
VERTEX
  8
sensibilidade_ambiental
 10
-9.371524
 20
38.693588
  0
SEQEND
  0
POLYLINE
  8
sensibilidade_ambiental
  6
BYLAYER
 66
1
 70
0
 40
0.000000
 41
0.000000
  0
VERTEX
  8
sensibilidade_ambiental
 10
-9.390757
 20
38.701373
  0
VERTEX
  8
sensibilidade_ambiental
 10
-9.390645
 20
38.701286
  0
VERTEX
  8
sensibilidade_ambiental
 10
-9.390597
 20
38.701167
  0
VERTEX
  8
sensibilidade_ambiental
 10
-9.390583
 20
38.701101
  0
VERTEX
  8
sensibilidade_ambiental
 10
-9.390644
 20
38.701007
  0
VERTEX
  8
sensibilidade_ambiental
 10
-9.390604
 20
38.700921
  0
VERTEX
  8
sensibilidade_ambiental
 10
-9.390574
 20
38.700817
  0
VERTEX
  8
sensibilidade_ambiental
 10
-9.390557
 20
38.700726
  0
VERTEX
  8
sensibilidade_ambiental
 10
-9.390554
 20
38.700676
  0
VERTEX
  8
sensibilidade_ambiental
 10
-9.390527
 20
38.700615
  0
VERTEX
  8
sensibilidade_ambiental
 10
-9.390471
 20
38.700541
  0
VERTEX
  8
sensibilidade_ambiental
 10
-9.390455
 20
38.700491
  0
VERTEX
  8
sensibilidade_ambiental
 10
-9.390454
 20
38.700427
  0
VERTEX
  8
sensibilidade_ambiental
 10
-9.390450
 20
38.700393
  0
VERTEX
  8
sensibilidade_ambiental
 10
-9.390435
 20
38.700351
  0
VERTEX
  8
sensibilidade_ambiental
 10
-9.390415
 20
38.700269
  0
VERTEX
  8
sensibilidade_ambiental
 10
-9.390393
 20
38.700232
  0
VERTEX
  8
sensibilidade_ambiental
 10
-9.390371
 20
38.700223
  0
VERTEX
  8
sensibilidade_ambiental
 10
-9.390341
 20
38.700224
  0
VERTEX
  8
sensibilidade_ambiental
 10
-9.390313
 20
38.700226
  0
VERTEX
  8
sensibilidade_ambiental
 10
-9.390289
 20
38.700238
  0
VERTEX
  8
sensibilidade_ambiental
 10
-9.390198
 20
38.700297
  0
VERTEX
  8
sensibilidade_ambiental
 10
-9.390074
 20
38.700373
  0
VERTEX
  8
sensibilidade_ambiental
 10
-9.389988
 20
38.700424
  0
VERTEX
  8
sensibilidade_ambiental
 10
-9.389910
 20
38.700464
  0
VERTEX
  8
sensibilidade_ambiental
 10
-9.389826
 20
38.700493
  0
VERTEX
  8
sensibilidade_ambiental
 10
-9.389700
 20
38.700529
  0
VERTEX
  8
sensibilidade_ambiental
 10
-9.389634
 20
38.700542
  0
VERTEX
  8
sensibilidade_ambiental
 10
-9.389558
 20
38.700545
  0
SEQEND
  0
POLYLINE
  8
sensibilidade_ambiental
  6
BYLAYER
 66
1
 70
0
 40
0.000000
 41
0.000000
  0
VERTEX
  8
sensibilidade_ambiental
 10
-9.389558
 20
38.700545
  0
VERTEX
  8
sensibilidade_ambiental
 10
-9.389462
 20
38.700541
  0
VERTEX
  8
sensibilidade_ambiental
 10
-9.389388
 20
38.700531
  0
VERTEX
  8
sensibilidade_ambiental
 10
-9.389318
 20
38.700520
  0
VERTEX
  8
sensibilidade_ambiental
 10
-9.389258
 20
38.700501
  0
VERTEX
  8
sensibilidade_ambiental
 10
-9.389181
 20
38.700465
  0
VERTEX
  8
sensibilidade_ambiental
 10
-9.389157
 20
38.700448
  0
VERTEX
  8
sensibilidade_ambiental
 10
-9.389147
 20
38.700434
  0
SEQEND
  0
POLYLINE
  8
sensibilidade_ambiental
  6
BYLAYER
 66
1
 70
0
 40
0.000000
 41
0.000000
  0
VERTEX
  8
sensibilidade_ambiental
 10
-9.408599
 20
38.701716
  0
VERTEX
  8
sensibilidade_ambiental
 10
-9.408595
 20
38.701147
  0
VERTEX
  8
sensibilidade_ambiental
 10
-9.408509
 20
38.701148
  0
VERTEX
  8
sensibilidade_ambiental
 10
-9.408510
 20
38.701735
  0
SEQEND
  0
POLYLINE
  8
sensibilidade_ambiental
  6
BYLAYER
 66
1
 70
0
 40
0.000000
 41
0.000000
  0
VERTEX
  8
sensibilidade_ambiental
 10
-9.408510
 20
38.701735
  0
VERTEX
  8
sensibilidade_ambiental
 10
-9.408512
 20
38.701835
  0
VERTEX
  8
sensibilidade_ambiental
 10
-9.408499
 20
38.701959
  0
VERTEX
  8
sensibilidade_ambiental
 10
-9.408496
 20
38.701973
  0
VERTEX
  8
sensibilidade_ambiental
 10
-9.408472
 20
38.702088
  0
VERTEX
  8
sensibilidade_ambiental
 10
-9.408413
 20
38.702186
  0
VERTEX
  8
sensibilidade_ambiental
 10
-9.408249
 20
38.702308
  0
VERTEX
  8
sensibilidade_ambiental
 10
-9.408038
 20
38.702399
  0
VERTEX
  8
sensibilidade_ambiental
 10
-9.407726
 20
38.702582
  0
VERTEX
  8
sensibilidade_ambiental
 10
-9.407501
 20
38.702705
  0
VERTEX
  8
sensibilidade_ambiental
 10
-9.407433
 20
38.702758
  0
VERTEX
  8
sensibilidade_ambiental
 10
-9.407398
 20
38.702836
  0
VERTEX
  8
sensibilidade_ambiental
 10
-9.407378
 20
38.702847
  0
VERTEX
  8
sensibilidade_ambiental
 10
-9.407313
 20
38.702884
  0
VERTEX
  8
sensibilidade_ambiental
 10
-9.407130
 20
38.702987
  0
VERTEX
  8
sensibilidade_ambiental
 10
-9.406780
 20
38.703194
  0
VERTEX
  8
sensibilidade_ambiental
 10
-9.406545
 20
38.703305
  0
VERTEX
  8
sensibilidade_ambiental
 10
-9.406443
 20
38.703353
  0
VERTEX
  8
sensibilidade_ambiental
 10
-9.406354
 20
38.703387
  0
VERTEX
  8
sensibilidade_ambiental
 10
-9.405909
 20
38.703512
  0
VERTEX
  8
sensibilidade_ambiental
 10
-9.405665
 20
38.703579
  0
VERTEX
  8
sensibilidade_ambiental
 10
-9.405430
 20
38.703624
  0
VERTEX
  8
sensibilidade_ambiental
 10
-9.405277
 20
38.703638
  0
VERTEX
  8
sensibilidade_ambiental
 10
-9.405085
 20
38.703642
  0
VERTEX
  8
sensibilidade_ambiental
 10
-9.404978
 20
38.703661
  0
VERTEX
  8
sensibilidade_ambiental
 10
-9.404831
 20
38.703662
  0
VERTEX
  8
sensibilidade_ambiental
 10
-9.404477
 20
38.703638
  0
VERTEX
  8
sensibilidade_ambiental
 10
-9.404363
 20
38.703635
  0
VERTEX
  8
sensibilidade_ambiental
 10
-9.404257
 20
38.703630
  0
VERTEX
  8
sensibilidade_ambiental
 10
-9.404145
 20
38.703616
  0
VERTEX
  8
sensibilidade_ambiental
 10
-9.404139
 20
38.703616
  0
VERTEX
  8
sensibilidade_ambiental
 10
-9.404060
 20
38.703605
  0
VERTEX
  8
sensibilidade_ambiental
 10
-9.404038
 20
38.703602
  0
VERTEX
  8
sensibilidade_ambiental
 10
-9.403875
 20
38.703555
  0
VERTEX
  8
sensibilidade_ambiental
 10
-9.403762
 20
38.703521
  0
VERTEX
  8
sensibilidade_ambiental
 10
-9.403583
 20
38.703482
  0
VERTEX
  8
sensibilidade_ambiental
 10
-9.403507
 20
38.703410
  0
VERTEX
  8
sensibilidade_ambiental
 10
-9.403342
 20
38.703378
  0
VERTEX
  8
sensibilidade_ambiental
 10
-9.402825
 20
38.703360
  0
SEQEND
  0
POLYLINE
  8
sensibilidade_ambiental
  6
BYLAYER
 66
1
 70
0
 40
0.000000
 41
0.000000
  0
VERTEX
  8
sensibilidade_ambiental
 10
-9.398368
 20
38.702041
  0
VERTEX
  8
sensibilidade_ambiental
 10
-9.398428
 20
38.701976
  0
VERTEX
  8
sensibilidade_ambiental
 10
-9.398596
 20
38.701834
  0
VERTEX
  8
sensibilidade_ambiental
 10
-9.398940
 20
38.701632
  0
VERTEX
  8
sensibilidade_ambiental
 10
-9.399142
 20
38.701531
  0
SEQEND
  0
POLYLINE
  8
sensibilidade_ambiental
  6
BYLAYER
 66
1
 70
0
 40
0.000000
 41
0.000000
  0
VERTEX
  8
sensibilidade_ambiental
 10
-9.399142
 20
38.701531
  0
VERTEX
  8
sensibilidade_ambiental
 10
-9.399154
 20
38.701496
  0
VERTEX
  8
sensibilidade_ambiental
 10
-9.399120
 20
38.701392
  0
VERTEX
  8
sensibilidade_ambiental
 10
-9.398882
 20
38.701021
  0
VERTEX
  8
sensibilidade_ambiental
 10
-9.398849
 20
38.701006
  0
VERTEX
  8
sensibilidade_ambiental
 10
-9.398801
 20
38.700997
  0
VERTEX
  8
sensibilidade_ambiental
 10
-9.398733
 20
38.701025
  0
VERTEX
  8
sensibilidade_ambiental
 10
-9.398698
 20
38.701050
  0
VERTEX
  8
sensibilidade_ambiental
 10
-9.398780
 20
38.701151
  0
SEQEND
  0
POLYLINE
  8
sensibilidade_ambiental
  6
BYLAYER
 66
1
 70
0
 40
0.000000
 41
0.000000
  0
VERTEX
  8
sensibilidade_ambiental
 10
-9.398780
 20
38.701151
  0
VERTEX
  8
sensibilidade_ambiental
 10
-9.398918
 20
38.701435
  0
VERTEX
  8
sensibilidade_ambiental
 10
-9.398631
 20
38.701604
  0
SEQEND
  0
POLYLINE
  8
sensibilidade_ambiental
  6
BYLAYER
 66
1
 70
0
 40
0.000000
 41
0.000000
  0
VERTEX
  8
sensibilidade_ambiental
 10
-9.398631
 20
38.701604
  0
VERTEX
  8
sensibilidade_ambiental
 10
-9.398316
 20
38.701361
  0
VERTEX
  8
sensibilidade_ambiental
 10
-9.398231
 20
38.701363
  0
SEQEND
  0
POLYLINE
  8
sensibilidade_ambiental
  6
BYLAYER
 66
1
 70
0
 40
0.000000
 41
0.000000
  0
VERTEX
  8
sensibilidade_ambiental
 10
-9.474887
 20
38.730020
  0
VERTEX
  8
sensibilidade_ambiental
 10
-9.474957
 20
38.729989
  0
VERTEX
  8
sensibilidade_ambiental
 10
-9.475032
 20
38.729953
  0
VERTEX
  8
sensibilidade_ambiental
 10
-9.475208
 20
38.729900
  0
VERTEX
  8
sensibilidade_ambiental
 10
-9.475426
 20
38.729846
  0
VERTEX
  8
sensibilidade_ambiental
 10
-9.475452
 20
38.729840
  0
VERTEX
  8
sensibilidade_ambiental
 10
-9.475478
 20
38.729828
  0
VERTEX
  8
sensibilidade_ambiental
 10
-9.475699
 20
38.729723
  0
VERTEX
  8
sensibilidade_ambiental
 10
-9.475696
 20
38.729652
  0
VERTEX
  8
sensibilidade_ambiental
 10
-9.475711
 20
38.729561
  0
VERTEX
  8
sensibilidade_ambiental
 10
-9.475674
 20
38.729490
  0
VERTEX
  8
sensibilidade_ambiental
 10
-9.475625
 20
38.729489
  0
VERTEX
  8
sensibilidade_ambiental
 10
-9.475624
 20
38.729476
  0
VERTEX
  8
sensibilidade_ambiental
 10
-9.475504
 20
38.729473
  0
VERTEX
  8
sensibilidade_ambiental
 10
-9.475461
 20
38.729369
  0
VERTEX
  8
sensibilidade_ambiental
 10
-9.475515
 20
38.729282
  0
VERTEX
  8
sensibilidade_ambiental
 10
-9.475500
 20
38.729201
  0
VERTEX
  8
sensibilidade_ambiental
 10
-9.475466
 20
38.729175
  0
VERTEX
  8
sensibilidade_ambiental
 10
-9.475469
 20
38.729140
  0
VERTEX
  8
sensibilidade_ambiental
 10
-9.475707
 20
38.729117
  0
VERTEX
  8
sensibilidade_ambiental
 10
-9.475989
 20
38.729063
  0
VERTEX
  8
sensibilidade_ambiental
 10
-9.476311
 20
38.728993
  0
VERTEX
  8
sensibilidade_ambiental
 10
-9.476561
 20
38.728918
  0
VERTEX
  8
sensibilidade_ambiental
 10
-9.476808
 20
38.728828
  0
VERTEX
  8
sensibilidade_ambiental
 10
-9.477115
 20
38.728715
  0
VERTEX
  8
sensibilidade_ambiental
 10
-9.477108
 20
38.728623
  0
VERTEX
  8
sensibilidade_ambiental
 10
-9.477057
 20
38.728617
  0
VERTEX
  8
sensibilidade_ambiental
 10
-9.477023
 20
38.728607
  0
VERTEX
  8
sensibilidade_ambiental
 10
-9.476910
 20
38.728527
  0
VERTEX
  8
sensibilidade_ambiental
 10
-9.476889
 20
38.728467
  0
VERTEX
  8
sensibilidade_ambiental
 10
-9.476941
 20
38.728427
  0
VERTEX
  8
sensibilidade_ambiental
 10
-9.476933
 20
38.728401
  0
VERTEX
  8
sensibilidade_ambiental
 10
-9.476912
 20
38.728384
  0
VERTEX
  8
sensibilidade_ambiental
 10
-9.476828
 20
38.728333
  0
VERTEX
  8
sensibilidade_ambiental
 10
-9.476803
 20
38.728309
  0
VERTEX
  8
sensibilidade_ambiental
 10
-9.476847
 20
38.728264
  0
VERTEX
  8
sensibilidade_ambiental
 10
-9.477011
 20
38.728242
  0
VERTEX
  8
sensibilidade_ambiental
 10
-9.476950
 20
38.728024
  0
VERTEX
  8
sensibilidade_ambiental
 10
-9.476835
 20
38.728003
  0
VERTEX
  8
sensibilidade_ambiental
 10
-9.476784
 20
38.727999
  0
VERTEX
  8
sensibilidade_ambiental
 10
-9.476657
 20
38.727992
  0
VERTEX
  8
sensibilidade_ambiental
 10
-9.476554
 20
38.727967
  0
VERTEX
  8
sensibilidade_ambiental
 10
-9.476512
 20
38.727919
  0
VERTEX
  8
sensibilidade_ambiental
 10
-9.476482
 20
38.727818
  0
VERTEX
  8
sensibilidade_ambiental
 10
-9.476485
 20
38.727698
  0
VERTEX
  8
sensibilidade_ambiental
 10
-9.476409
 20
38.727583
  0
SEQEND
  0
POLYLINE
  8
sensibilidade_ambiental
  6
BYLAYER
 66
1
 70
0
 40
0.000000
 41
0.000000
  0
VERTEX
  8
sensibilidade_ambiental
 10
-9.476409
 20
38.727583
  0
VERTEX
  8
sensibilidade_ambiental
 10
-9.476397
 20
38.727471
  0
VERTEX
  8
sensibilidade_ambiental
 10
-9.476402
 20
38.727279
  0
VERTEX
  8
sensibilidade_ambiental
 10
-9.476403
 20
38.727216
  0
VERTEX
  8
sensibilidade_ambiental
 10
-9.476404
 20
38.727057
  0
VERTEX
  8
sensibilidade_ambiental
 10
-9.476432
 20
38.726980
  0
VERTEX
  8
sensibilidade_ambiental
 10
-9.476499
 20
38.726882
  0
VERTEX
  8
sensibilidade_ambiental
 10
-9.476570
 20
38.726688
  0
VERTEX
  8
sensibilidade_ambiental
 10
-9.476632
 20
38.726567
  0
VERTEX
  8
sensibilidade_ambiental
 10
-9.476682
 20
38.726347
  0
VERTEX
  8
sensibilidade_ambiental
 10
-9.476710
 20
38.726227
  0
VERTEX
  8
sensibilidade_ambiental
 10
-9.476757
 20
38.726115
  0
VERTEX
  8
sensibilidade_ambiental
 10
-9.476785
 20
38.726048
  0
VERTEX
  8
sensibilidade_ambiental
 10
-9.476819
 20
38.725994
  0
VERTEX
  8
sensibilidade_ambiental
 10
-9.476864
 20
38.725844
  0
VERTEX
  8
sensibilidade_ambiental
 10
-9.476929
 20
38.725713
  0
VERTEX
  8
sensibilidade_ambiental
 10
-9.476946
 20
38.725642
  0
VERTEX
  8
sensibilidade_ambiental
 10
-9.476967
 20
38.725568
  0
VERTEX
  8
sensibilidade_ambiental
 10
-9.477003
 20
38.725325
  0
VERTEX
  8
sensibilidade_ambiental
 10
-9.477018
 20
38.725211
  0
VERTEX
  8
sensibilidade_ambiental
 10
-9.477079
 20
38.725107
  0
VERTEX
  8
sensibilidade_ambiental
 10
-9.477110
 20
38.725054
  0
VERTEX
  8
sensibilidade_ambiental
 10
-9.477182
 20
38.724826
  0
VERTEX
  8
sensibilidade_ambiental
 10
-9.477211
 20
38.724706
  0
VERTEX
  8
sensibilidade_ambiental
 10
-9.477213
 20
38.724527
  0
VERTEX
  8
sensibilidade_ambiental
 10
-9.477201
 20
38.724386
  0
VERTEX
  8
sensibilidade_ambiental
 10
-9.477185
 20
38.724256
  0
VERTEX
  8
sensibilidade_ambiental
 10
-9.477197
 20
38.724189
  0
VERTEX
  8
sensibilidade_ambiental
 10
-9.477231
 20
38.724076
  0
VERTEX
  8
sensibilidade_ambiental
 10
-9.477241
 20
38.723882
  0
VERTEX
  8
sensibilidade_ambiental
 10
-9.477243
 20
38.723780
  0
SEQEND
  0
POLYLINE
  8
sensibilidade_ambiental
  6
BYLAYER
 66
1
 70
0
 40
0.000000
 41
0.000000
  0
VERTEX
  8
sensibilidade_ambiental
 10
-9.477243
 20
38.723780
  0
VERTEX
  8
sensibilidade_ambiental
 10
-9.477243
 20
38.723747
  0
VERTEX
  8
sensibilidade_ambiental
 10
-9.477297
 20
38.723705
  0
VERTEX
  8
sensibilidade_ambiental
 10
-9.477382
 20
38.723663
  0
VERTEX
  8
sensibilidade_ambiental
 10
-9.477618
 20
38.723594
  0
VERTEX
  8
sensibilidade_ambiental
 10
-9.477744
 20
38.723568
  0
VERTEX
  8
sensibilidade_ambiental
 10
-9.477860
 20
38.723559
  0
VERTEX
  8
sensibilidade_ambiental
 10
-9.477983
 20
38.723550
  0
VERTEX
  8
sensibilidade_ambiental
 10
-9.478281
 20
38.723505
  0
VERTEX
  8
sensibilidade_ambiental
 10
-9.478456
 20
38.723468
  0
VERTEX
  8
sensibilidade_ambiental
 10
-9.478508
 20
38.723454
  0
VERTEX
  8
sensibilidade_ambiental
 10
-9.478569
 20
38.723429
  0
VERTEX
  8
sensibilidade_ambiental
 10
-9.478760
 20
38.723386
  0
VERTEX
  8
sensibilidade_ambiental
 10
-9.478837
 20
38.723299
  0
VERTEX
  8
sensibilidade_ambiental
 10
-9.478843
 20
38.723248
  0
VERTEX
  8
sensibilidade_ambiental
 10
-9.478904
 20
38.723243
  0
VERTEX
  8
sensibilidade_ambiental
 10
-9.478937
 20
38.723299
  0
VERTEX
  8
sensibilidade_ambiental
 10
-9.478968
 20
38.723345
  0
VERTEX
  8
sensibilidade_ambiental
 10
-9.479044
 20
38.723356
  0
VERTEX
  8
sensibilidade_ambiental
 10
-9.479108
 20
38.723341
  0
VERTEX
  8
sensibilidade_ambiental
 10
-9.479176
 20
38.723309
  0
VERTEX
  8
sensibilidade_ambiental
 10
-9.479242
 20
38.723265
  0
VERTEX
  8
sensibilidade_ambiental
 10
-9.479292
 20
38.723207
  0
VERTEX
  8
sensibilidade_ambiental
 10
-9.479345
 20
38.723173
  0
VERTEX
  8
sensibilidade_ambiental
 10
-9.479414
 20
38.723163
  0
VERTEX
  8
sensibilidade_ambiental
 10
-9.479487
 20
38.723134
  0
VERTEX
  8
sensibilidade_ambiental
 10
-9.479527
 20
38.723110
  0
VERTEX
  8
sensibilidade_ambiental
 10
-9.479606
 20
38.723088
  0
VERTEX
  8
sensibilidade_ambiental
 10
-9.479654
 20
38.723065
  0
VERTEX
  8
sensibilidade_ambiental
 10
-9.479690
 20
38.723018
  0
VERTEX
  8
sensibilidade_ambiental
 10
-9.479737
 20
38.722957
  0
VERTEX
  8
sensibilidade_ambiental
 10
-9.479713
 20
38.722910
  0
VERTEX
  8
sensibilidade_ambiental
 10
-9.479651
 20
38.722884
  0
VERTEX
  8
sensibilidade_ambiental
 10
-9.479588
 20
38.722884
  0
VERTEX
  8
sensibilidade_ambiental
 10
-9.479501
 20
38.722898
  0
VERTEX
  8
sensibilidade_ambiental
 10
-9.479424
 20
38.722902
  0
VERTEX
  8
sensibilidade_ambiental
 10
-9.479393
 20
38.722883
  0
VERTEX
  8
sensibilidade_ambiental
 10
-9.479383
 20
38.722857
  0
VERTEX
  8
sensibilidade_ambiental
 10
-9.479362
 20
38.722829
  0
VERTEX
  8
sensibilidade_ambiental
 10
-9.479302
 20
38.722803
  0
VERTEX
  8
sensibilidade_ambiental
 10
-9.479229
 20
38.722772
  0
VERTEX
  8
sensibilidade_ambiental
 10
-9.479167
 20
38.722722
  0
VERTEX
  8
sensibilidade_ambiental
 10
-9.479118
 20
38.722684
  0
VERTEX
  8
sensibilidade_ambiental
 10
-9.479052
 20
38.722644
  0
VERTEX
  8
sensibilidade_ambiental
 10
-9.478996
 20
38.722583
  0
VERTEX
  8
sensibilidade_ambiental
 10
-9.478943
 20
38.722553
  0
VERTEX
  8
sensibilidade_ambiental
 10
-9.478887
 20
38.722518
  0
VERTEX
  8
sensibilidade_ambiental
 10
-9.478824
 20
38.722482
  0
VERTEX
  8
sensibilidade_ambiental
 10
-9.478734
 20
38.722462
  0
VERTEX
  8
sensibilidade_ambiental
 10
-9.478678
 20
38.722434
  0
VERTEX
  8
sensibilidade_ambiental
 10
-9.478632
 20
38.722386
  0
VERTEX
  8
sensibilidade_ambiental
 10
-9.478616
 20
38.722361
  0
VERTEX
  8
sensibilidade_ambiental
 10
-9.478623
 20
38.722341
  0
VERTEX
  8
sensibilidade_ambiental
 10
-9.478724
 20
38.722308
  0
VERTEX
  8
sensibilidade_ambiental
 10
-9.478801
 20
38.722251
  0
VERTEX
  8
sensibilidade_ambiental
 10
-9.478868
 20
38.722216
  0
VERTEX
  8
sensibilidade_ambiental
 10
-9.478903
 20
38.722187
  0
VERTEX
  8
sensibilidade_ambiental
 10
-9.478974
 20
38.722155
  0
VERTEX
  8
sensibilidade_ambiental
 10
-9.479161
 20
38.722132
  0
VERTEX
  8
sensibilidade_ambiental
 10
-9.479203
 20
38.722114
  0
VERTEX
  8
sensibilidade_ambiental
 10
-9.479225
 20
38.722085
  0
VERTEX
  8
sensibilidade_ambiental
 10
-9.479239
 20
38.722025
  0
VERTEX
  8
sensibilidade_ambiental
 10
-9.479241
 20
38.721973
  0
VERTEX
  8
sensibilidade_ambiental
 10
-9.479240
 20
38.721910
  0
VERTEX
  8
sensibilidade_ambiental
 10
-9.479239
 20
38.721889
  0
VERTEX
  8
sensibilidade_ambiental
 10
-9.479246
 20
38.721843
  0
VERTEX
  8
sensibilidade_ambiental
 10
-9.479241
 20
38.721812
  0
VERTEX
  8
sensibilidade_ambiental
 10
-9.479214
 20
38.721806
  0
VERTEX
  8
sensibilidade_ambiental
 10
-9.479145
 20
38.721821
  0
VERTEX
  8
sensibilidade_ambiental
 10
-9.479095
 20
38.721800
  0
VERTEX
  8
sensibilidade_ambiental
 10
-9.479017
 20
38.721737
  0
VERTEX
  8
sensibilidade_ambiental
 10
-9.478924
 20
38.721687
  0
SEQEND
  0
POLYLINE
  8
sensibilidade_ambiental
  6
BYLAYER
 66
1
 70
0
 40
0.000000
 41
0.000000
  0
VERTEX
  8
sensibilidade_ambiental
 10
-9.398231
 20
38.701363
  0
VERTEX
  8
sensibilidade_ambiental
 10
-9.398190
 20
38.701422
  0
VERTEX
  8
sensibilidade_ambiental
 10
-9.398201
 20
38.701503
  0
VERTEX
  8
sensibilidade_ambiental
 10
-9.398412
 20
38.701705
  0
VERTEX
  8
sensibilidade_ambiental
 10
-9.398446
 20
38.701733
  0
VERTEX
  8
sensibilidade_ambiental
 10
-9.398447
 20
38.701769
  0
VERTEX
  8
sensibilidade_ambiental
 10
-9.398400
 20
38.701811
  0
VERTEX
  8
sensibilidade_ambiental
 10
-9.398319
 20
38.701878
  0
VERTEX
  8
sensibilidade_ambiental
 10
-9.398269
 20
38.701894
  0
VERTEX
  8
sensibilidade_ambiental
 10
-9.398213
 20
38.701892
  0
VERTEX
  8
sensibilidade_ambiental
 10
-9.398169
 20
38.701871
  0
VERTEX
  8
sensibilidade_ambiental
 10
-9.397995
 20
38.701903
  0
VERTEX
  8
sensibilidade_ambiental
 10
-9.397957
 20
38.701949
  0
VERTEX
  8
sensibilidade_ambiental
 10
-9.397957
 20
38.701980
  0
VERTEX
  8
sensibilidade_ambiental
 10
-9.397932
 20
38.702018
  0
VERTEX
  8
sensibilidade_ambiental
 10
-9.397861
 20
38.702059
  0
VERTEX
  8
sensibilidade_ambiental
 10
-9.397806
 20
38.702073
  0
VERTEX
  8
sensibilidade_ambiental
 10
-9.397736
 20
38.702074
  0
VERTEX
  8
sensibilidade_ambiental
 10
-9.397694
 20
38.702057
  0
VERTEX
  8
sensibilidade_ambiental
 10
-9.397630
 20
38.702026
  0
VERTEX
  8
sensibilidade_ambiental
 10
-9.397591
 20
38.702015
  0
VERTEX
  8
sensibilidade_ambiental
 10
-9.397515
 20
38.702019
  0
VERTEX
  8
sensibilidade_ambiental
 10
-9.397455
 20
38.701978
  0
VERTEX
  8
sensibilidade_ambiental
 10
-9.397371
 20
38.701972
  0
VERTEX
  8
sensibilidade_ambiental
 10
-9.397311
 20
38.701990
  0
VERTEX
  8
sensibilidade_ambiental
 10
-9.397281
 20
38.702019
  0
VERTEX
  8
sensibilidade_ambiental
 10
-9.397282
 20
38.702066
  0
VERTEX
  8
sensibilidade_ambiental
 10
-9.397247
 20
38.702100
  0
VERTEX
  8
sensibilidade_ambiental
 10
-9.397198
 20
38.702108
  0
VERTEX
  8
sensibilidade_ambiental
 10
-9.397102
 20
38.702107
  0
VERTEX
  8
sensibilidade_ambiental
 10
-9.397013
 20
38.702089
  0
VERTEX
  8
sensibilidade_ambiental
 10
-9.397015
 20
38.702019
  0
VERTEX
  8
sensibilidade_ambiental
 10
-9.396792
 20
38.702006
  0
VERTEX
  8
sensibilidade_ambiental
 10
-9.396560
 20
38.701982
  0
SEQEND
  0
POLYLINE
  8
sensibilidade_ambiental
  6
BYLAYER
 66
1
 70
0
 40
0.000000
 41
0.000000
  0
VERTEX
  8
sensibilidade_ambiental
 10
-9.393004
 20
38.701983
  0
VERTEX
  8
sensibilidade_ambiental
 10
-9.392796
 20
38.701988
  0
VERTEX
  8
sensibilidade_ambiental
 10
-9.392655
 20
38.701995
  0
VERTEX
  8
sensibilidade_ambiental
 10
-9.392526
 20
38.701987
  0
VERTEX
  8
sensibilidade_ambiental
 10
-9.392446
 20
38.701962
  0
VERTEX
  8
sensibilidade_ambiental
 10
-9.392316
 20
38.701952
  0
VERTEX
  8
sensibilidade_ambiental
 10
-9.392068
 20
38.701880
  0
VERTEX
  8
sensibilidade_ambiental
 10
-9.391825
 20
38.701792
  0
VERTEX
  8
sensibilidade_ambiental
 10
-9.391715
 20
38.701757
  0
VERTEX
  8
sensibilidade_ambiental
 10
-9.391486
 20
38.701692
  0
VERTEX
  8
sensibilidade_ambiental
 10
-9.391312
 20
38.701627
  0
VERTEX
  8
sensibilidade_ambiental
 10
-9.391088
 20
38.701536
  0
VERTEX
  8
sensibilidade_ambiental
 10
-9.390895
 20
38.701414
  0
VERTEX
  8
sensibilidade_ambiental
 10
-9.390757
 20
38.701373
  0
SEQEND
  0
POLYLINE
  8
sensibilidade_ambiental
  6
BYLAYER
 66
1
 70
0
 40
0.000000
 41
0.000000
  0
VERTEX
  8
sensibilidade_ambiental
 10
-9.371524
 20
38.693588
  0
VERTEX
  8
sensibilidade_ambiental
 10
-9.371344
 20
38.693649
  0
VERTEX
  8
sensibilidade_ambiental
 10
-9.371259
 20
38.693677
  0
VERTEX
  8
sensibilidade_ambiental
 10
-9.371053
 20
38.693719
  0
VERTEX
  8
sensibilidade_ambiental
 10
-9.370845
 20
38.693734
  0
VERTEX
  8
sensibilidade_ambiental
 10
-9.370654
 20
38.693714
  0
VERTEX
  8
sensibilidade_ambiental
 10
-9.370452
 20
38.693666
  0
VERTEX
  8
sensibilidade_ambiental
 10
-9.370231
 20
38.693621
  0
VERTEX
  8
sensibilidade_ambiental
 10
-9.370137
 20
38.693595
  0
VERTEX
  8
sensibilidade_ambiental
 10
-9.370061
 20
38.693575
  0
VERTEX
  8
sensibilidade_ambiental
 10
-9.370017
 20
38.693563
  0
VERTEX
  8
sensibilidade_ambiental
 10
-9.369714
 20
38.693481
  0
VERTEX
  8
sensibilidade_ambiental
 10
-9.369436
 20
38.693397
  0
VERTEX
  8
sensibilidade_ambiental
 10
-9.369162
 20
38.693287
  0
VERTEX
  8
sensibilidade_ambiental
 10
-9.368915
 20
38.693112
  0
VERTEX
  8
sensibilidade_ambiental
 10
-9.368708
 20
38.692987
  0
VERTEX
  8
sensibilidade_ambiental
 10
-9.368450
 20
38.692848
  0
VERTEX
  8
sensibilidade_ambiental
 10
-9.368233
 20
38.692703
  0
VERTEX
  8
sensibilidade_ambiental
 10
-9.368024
 20
38.692576
  0
SEQEND
  0
POLYLINE
  8
sensibilidade_ambiental
  6
BYLAYER
 66
1
 70
0
 40
0.000000
 41
0.000000
  0
VERTEX
  8
sensibilidade_ambiental
 10
-9.361861
 20
38.688916
  0
VERTEX
  8
sensibilidade_ambiental
 10
-9.361768
 20
38.688894
  0
VERTEX
  8
sensibilidade_ambiental
 10
-9.361618
 20
38.688847
  0
VERTEX
  8
sensibilidade_ambiental
 10
-9.361477
 20
38.688778
  0
VERTEX
  8
sensibilidade_ambiental
 10
-9.361270
 20
38.688683
  0
VERTEX
  8
sensibilidade_ambiental
 10
-9.361148
 20
38.688627
  0
VERTEX
  8
sensibilidade_ambiental
 10
-9.360988
 20
38.688507
  0
VERTEX
  8
sensibilidade_ambiental
 10
-9.360904
 20
38.688378
  0
VERTEX
  8
sensibilidade_ambiental
 10
-9.360788
 20
38.688314
  0
VERTEX
  8
sensibilidade_ambiental
 10
-9.360726
 20
38.688275
  0
VERTEX
  8
sensibilidade_ambiental
 10
-9.360573
 20
38.688149
  0
VERTEX
  8
sensibilidade_ambiental
 10
-9.360412
 20
38.688035
  0
VERTEX
  8
sensibilidade_ambiental
 10
-9.360234
 20
38.687863
  0
VERTEX
  8
sensibilidade_ambiental
 10
-9.360016
 20
38.687775
  0
VERTEX
  8
sensibilidade_ambiental
 10
-9.359907
 20
38.687719
  0
VERTEX
  8
sensibilidade_ambiental
 10
-9.359764
 20
38.687642
  0
VERTEX
  8
sensibilidade_ambiental
 10
-9.359665
 20
38.687562
  0
VERTEX
  8
sensibilidade_ambiental
 10
-9.359585
 20
38.687504
  0
SEQEND
  0
POLYLINE
  8
sensibilidade_ambiental
  6
BYLAYER
 66
1
 70
0
 40
0.000000
 41
0.000000
  0
VERTEX
  8
sensibilidade_ambiental
 10
-9.359585
 20
38.687504
  0
VERTEX
  8
sensibilidade_ambiental
 10
-9.359482
 20
38.687462
  0
VERTEX
  8
sensibilidade_ambiental
 10
-9.359367
 20
38.687396
  0
VERTEX
  8
sensibilidade_ambiental
 10
-9.359264
 20
38.687182
  0
VERTEX
  8
sensibilidade_ambiental
 10
-9.359226
 20
38.687059
  0
VERTEX
  8
sensibilidade_ambiental
 10
-9.359093
 20
38.686895
  0
VERTEX
  8
sensibilidade_ambiental
 10
-9.359050
 20
38.686843
  0
VERTEX
  8
sensibilidade_ambiental
 10
-9.358988
 20
38.686659
  0
VERTEX
  8
sensibilidade_ambiental
 10
-9.358899
 20
38.686588
  0
VERTEX
  8
sensibilidade_ambiental
 10
-9.358822
 20
38.686533
  0
VERTEX
  8
sensibilidade_ambiental
 10
-9.358706
 20
38.686480
  0
VERTEX
  8
sensibilidade_ambiental
 10
-9.358607
 20
38.686426
  0
VERTEX
  8
sensibilidade_ambiental
 10
-9.358545
 20
38.686421
  0
VERTEX
  8
sensibilidade_ambiental
 10
-9.358440
 20
38.686326
  0
VERTEX
  8
sensibilidade_ambiental
 10
-9.358343
 20
38.686290
  0
VERTEX
  8
sensibilidade_ambiental
 10
-9.358225
 20
38.686258
  0
VERTEX
  8
sensibilidade_ambiental
 10
-9.358150
 20
38.686185
  0
VERTEX
  8
sensibilidade_ambiental
 10
-9.358053
 20
38.686125
  0
VERTEX
  8
sensibilidade_ambiental
 10
-9.357974
 20
38.686112
  0
VERTEX
  8
sensibilidade_ambiental
 10
-9.357835
 20
38.686109
  0
VERTEX
  8
sensibilidade_ambiental
 10
-9.357687
 20
38.686101
  0
VERTEX
  8
sensibilidade_ambiental
 10
-9.357597
 20
38.686127
  0
VERTEX
  8
sensibilidade_ambiental
 10
-9.357416
 20
38.686086
  0
VERTEX
  8
sensibilidade_ambiental
 10
-9.357104
 20
38.685959
  0
VERTEX
  8
sensibilidade_ambiental
 10
-9.356660
 20
38.685758
  0
VERTEX
  8
sensibilidade_ambiental
 10
-9.356429
 20
38.685632
  0
VERTEX
  8
sensibilidade_ambiental
 10
-9.356344
 20
38.685606
  0
VERTEX
  8
sensibilidade_ambiental
 10
-9.356213
 20
38.685620
  0
VERTEX
  8
sensibilidade_ambiental
 10
-9.356112
 20
38.685690
  0
VERTEX
  8
sensibilidade_ambiental
 10
-9.355766
 20
38.685910
  0
VERTEX
  8
sensibilidade_ambiental
 10
-9.355633
 20
38.685975
  0
VERTEX
  8
sensibilidade_ambiental
 10
-9.355478
 20
38.686016
  0
VERTEX
  8
sensibilidade_ambiental
 10
-9.355253
 20
38.686025
  0
VERTEX
  8
sensibilidade_ambiental
 10
-9.355053
 20
38.686027
  0
VERTEX
  8
sensibilidade_ambiental
 10
-9.354870
 20
38.686010
  0
VERTEX
  8
sensibilidade_ambiental
 10
-9.354790
 20
38.686003
  0
VERTEX
  8
sensibilidade_ambiental
 10
-9.354601
 20
38.685987
  0
VERTEX
  8
sensibilidade_ambiental
 10
-9.354496
 20
38.685961
  0
SEQEND
  0
POLYLINE
  8
sensibilidade_ambiental
  6
BYLAYER
 66
1
 70
0
 40
0.000000
 41
0.000000
  0
VERTEX
  8
sensibilidade_ambiental
 10
-9.354496
 20
38.685961
  0
VERTEX
  8
sensibilidade_ambiental
 10
-9.354236
 20
38.685904
  0
VERTEX
  8
sensibilidade_ambiental
 10
-9.353877
 20
38.685831
  0
VERTEX
  8
sensibilidade_ambiental
 10
-9.353570
 20
38.685708
  0
VERTEX
  8
sensibilidade_ambiental
 10
-9.353243
 20
38.685558
  0
VERTEX
  8
sensibilidade_ambiental
 10
-9.353056
 20
38.685430
  0
SEQEND
  0
POLYLINE
  8
sensibilidade_ambiental
  6
BYLAYER
 66
1
 70
0
 40
0.000000
 41
0.000000
  0
VERTEX
  8
sensibilidade_ambiental
 10
-9.343801
 20
38.681314
  0
VERTEX
  8
sensibilidade_ambiental
 10
-9.343505
 20
38.681402
  0
VERTEX
  8
sensibilidade_ambiental
 10
-9.343155
 20
38.681521
  0
VERTEX
  8
sensibilidade_ambiental
 10
-9.342762
 20
38.681652
  0
VERTEX
  8
sensibilidade_ambiental
 10
-9.342346
 20
38.681614
  0
VERTEX
  8
sensibilidade_ambiental
 10
-9.341438
 20
38.681397
  0
VERTEX
  8
sensibilidade_ambiental
 10
-9.340509
 20
38.681000
  0
VERTEX
  8
sensibilidade_ambiental
 10
-9.339114
 20
38.680411
  0
VERTEX
  8
sensibilidade_ambiental
 10
-9.337604
 20
38.679824
  0
VERTEX
  8
sensibilidade_ambiental
 10
-9.335861
 20
38.679118
  0
VERTEX
  8
sensibilidade_ambiental
 10
-9.333441
 20
38.678148
  0
VERTEX
  8
sensibilidade_ambiental
 10
-9.331971
 20
38.677696
  0
VERTEX
  8
sensibilidade_ambiental
 10
-9.330192
 20
38.677111
  0
VERTEX
  8
sensibilidade_ambiental
 10
-9.329489
 20
38.676750
  0
VERTEX
  8
sensibilidade_ambiental
 10
-9.329332
 20
38.676662
  0
VERTEX
  8
sensibilidade_ambiental
 10
-9.329220
 20
38.676558
  0
VERTEX
  8
sensibilidade_ambiental
 10
-9.329066
 20
38.676416
  0
VERTEX
  8
sensibilidade_ambiental
 10
-9.328865
 20
38.676305
  0
VERTEX
  8
sensibilidade_ambiental
 10
-9.328716
 20
38.676279
  0
VERTEX
  8
sensibilidade_ambiental
 10
-9.328617
 20
38.676297
  0
VERTEX
  8
sensibilidade_ambiental
 10
-9.328392
 20
38.676430
  0
VERTEX
  8
sensibilidade_ambiental
 10
-9.328305
 20
38.676450
  0
VERTEX
  8
sensibilidade_ambiental
 10
-9.328192
 20
38.676452
  0
VERTEX
  8
sensibilidade_ambiental
 10
-9.328119
 20
38.676410
  0
VERTEX
  8
sensibilidade_ambiental
 10
-9.328083
 20
38.676317
  0
VERTEX
  8
sensibilidade_ambiental
 10
-9.328068
 20
38.676224
  0
VERTEX
  8
sensibilidade_ambiental
 10
-9.328037
 20
38.676128
  0
VERTEX
  8
sensibilidade_ambiental
 10
-9.327987
 20
38.676097
  0
VERTEX
  8
sensibilidade_ambiental
 10
-9.327905
 20
38.676113
  0
VERTEX
  8
sensibilidade_ambiental
 10
-9.327827
 20
38.676251
  0
VERTEX
  8
sensibilidade_ambiental
 10
-9.327743
 20
38.676291
  0
VERTEX
  8
sensibilidade_ambiental
 10
-9.327580
 20
38.676314
  0
VERTEX
  8
sensibilidade_ambiental
 10
-9.327449
 20
38.676317
  0
VERTEX
  8
sensibilidade_ambiental
 10
-9.327369
 20
38.676317
  0
VERTEX
  8
sensibilidade_ambiental
 10
-9.327223
 20
38.676302
  0
VERTEX
  8
sensibilidade_ambiental
 10
-9.327141
 20
38.676260
  0
VERTEX
  8
sensibilidade_ambiental
 10
-9.327041
 20
38.676179
  0
VERTEX
  8
sensibilidade_ambiental
 10
-9.326948
 20
38.676093
  0
VERTEX
  8
sensibilidade_ambiental
 10
-9.326933
 20
38.675976
  0
VERTEX
  8
sensibilidade_ambiental
 10
-9.326933
 20
38.675869
  0
VERTEX
  8
sensibilidade_ambiental
 10
-9.326831
 20
38.675863
  0
SEQEND
  0
POLYLINE
  8
sensibilidade_ambiental
  6
BYLAYER
 66
1
 70
0
 40
0.000000
 41
0.000000
  0
VERTEX
  8
sensibilidade_ambiental
 10
-9.353056
 20
38.685430
  0
VERTEX
  8
sensibilidade_ambiental
 10
-9.352982
 20
38.685292
  0
VERTEX
  8
sensibilidade_ambiental
 10
-9.352952
 20
38.685188
  0
VERTEX
  8
sensibilidade_ambiental
 10
-9.352845
 20
38.685074
  0
VERTEX
  8
sensibilidade_ambiental
 10
-9.352718
 20
38.684923
  0
VERTEX
  8
sensibilidade_ambiental
 10
-9.352593
 20
38.684818
  0
VERTEX
  8
sensibilidade_ambiental
 10
-9.352366
 20
38.684671
  0
VERTEX
  8
sensibilidade_ambiental
 10
-9.352129
 20
38.684513
  0
VERTEX
  8
sensibilidade_ambiental
 10
-9.351997
 20
38.684459
  0
VERTEX
  8
sensibilidade_ambiental
 10
-9.351748
 20
38.684430
  0
VERTEX
  8
sensibilidade_ambiental
 10
-9.351489
 20
38.684451
  0
VERTEX
  8
sensibilidade_ambiental
 10
-9.351310
 20
38.684470
  0
VERTEX
  8
sensibilidade_ambiental
 10
-9.351199
 20
38.684474
  0
VERTEX
  8
sensibilidade_ambiental
 10
-9.351090
 20
38.684468
  0
VERTEX
  8
sensibilidade_ambiental
 10
-9.350933
 20
38.684438
  0
VERTEX
  8
sensibilidade_ambiental
 10
-9.350835
 20
38.684411
  0
VERTEX
  8
sensibilidade_ambiental
 10
-9.350746
 20
38.684368
  0
VERTEX
  8
sensibilidade_ambiental
 10
-9.350619
 20
38.684309
  0
VERTEX
  8
sensibilidade_ambiental
 10
-9.350481
 20
38.684242
  0
VERTEX
  8
sensibilidade_ambiental
 10
-9.350381
 20
38.684179
  0
VERTEX
  8
sensibilidade_ambiental
 10
-9.350305
 20
38.684107
  0
VERTEX
  8
sensibilidade_ambiental
 10
-9.350244
 20
38.684067
  0
VERTEX
  8
sensibilidade_ambiental
 10
-9.350145
 20
38.684029
  0
VERTEX
  8
sensibilidade_ambiental
 10
-9.350013
 20
38.683979
  0
VERTEX
  8
sensibilidade_ambiental
 10
-9.349904
 20
38.683990
  0
VERTEX
  8
sensibilidade_ambiental
 10
-9.349824
 20
38.683980
  0
VERTEX
  8
sensibilidade_ambiental
 10
-9.349785
 20
38.683968
  0
VERTEX
  8
sensibilidade_ambiental
 10
-9.349695
 20
38.683885
  0
VERTEX
  8
sensibilidade_ambiental
 10
-9.349630
 20
38.683780
  0
VERTEX
  8
sensibilidade_ambiental
 10
-9.349601
 20
38.683714
  0
VERTEX
  8
sensibilidade_ambiental
 10
-9.349566
 20
38.683603
  0
VERTEX
  8
sensibilidade_ambiental
 10
-9.349538
 20
38.683532
  0
VERTEX
  8
sensibilidade_ambiental
 10
-9.349482
 20
38.683447
  0
VERTEX
  8
sensibilidade_ambiental
 10
-9.349432
 20
38.683340
  0
VERTEX
  8
sensibilidade_ambiental
 10
-9.349423
 20
38.683278
  0
VERTEX
  8
sensibilidade_ambiental
 10
-9.349385
 20
38.683191
  0
VERTEX
  8
sensibilidade_ambiental
 10
-9.349360
 20
38.683127
  0
VERTEX
  8
sensibilidade_ambiental
 10
-9.349320
 20
38.683049
  0
VERTEX
  8
sensibilidade_ambiental
 10
-9.349265
 20
38.682960
  0
VERTEX
  8
sensibilidade_ambiental
 10
-9.349214
 20
38.682892
  0
VERTEX
  8
sensibilidade_ambiental
 10
-9.349137
 20
38.682778
  0
VERTEX
  8
sensibilidade_ambiental
 10
-9.349065
 20
38.682714
  0
VERTEX
  8
sensibilidade_ambiental
 10
-9.348968
 20
38.682633
  0
VERTEX
  8
sensibilidade_ambiental
 10
-9.348821
 20
38.682525
  0
VERTEX
  8
sensibilidade_ambiental
 10
-9.348722
 20
38.682460
  0
VERTEX
  8
sensibilidade_ambiental
 10
-9.348630
 20
38.682398
  0
VERTEX
  8
sensibilidade_ambiental
 10
-9.348570
 20
38.682357
  0
VERTEX
  8
sensibilidade_ambiental
 10
-9.348566
 20
38.682355
  0
VERTEX
  8
sensibilidade_ambiental
 10
-9.348384
 20
38.682300
  0
VERTEX
  8
sensibilidade_ambiental
 10
-9.348306
 20
38.682254
  0
VERTEX
  8
sensibilidade_ambiental
 10
-9.348213
 20
38.682181
  0
VERTEX
  8
sensibilidade_ambiental
 10
-9.348177
 20
38.682120
  0
VERTEX
  8
sensibilidade_ambiental
 10
-9.348138
 20
38.682043
  0
VERTEX
  8
sensibilidade_ambiental
 10
-9.348086
 20
38.681998
  0
VERTEX
  8
sensibilidade_ambiental
 10
-9.348010
 20
38.681952
  0
VERTEX
  8
sensibilidade_ambiental
 10
-9.347964
 20
38.681928
  0
VERTEX
  8
sensibilidade_ambiental
 10
-9.347920
 20
38.681876
  0
VERTEX
  8
sensibilidade_ambiental
 10
-9.347907
 20
38.681740
  0
VERTEX
  8
sensibilidade_ambiental
 10
-9.347902
 20
38.681630
  0
VERTEX
  8
sensibilidade_ambiental
 10
-9.347888
 20
38.681543
  0
VERTEX
  8
sensibilidade_ambiental
 10
-9.347843
 20
38.681452
  0
VERTEX
  8
sensibilidade_ambiental
 10
-9.347729
 20
38.681329
  0
VERTEX
  8
sensibilidade_ambiental
 10
-9.347640
 20
38.681271
  0
VERTEX
  8
sensibilidade_ambiental
 10
-9.347538
 20
38.681214
  0
VERTEX
  8
sensibilidade_ambiental
 10
-9.347448
 20
38.681179
  0
VERTEX
  8
sensibilidade_ambiental
 10
-9.347329
 20
38.681129
  0
VERTEX
  8
sensibilidade_ambiental
 10
-9.347237
 20
38.681059
  0
VERTEX
  8
sensibilidade_ambiental
 10
-9.347179
 20
38.681011
  0
VERTEX
  8
sensibilidade_ambiental
 10
-9.347114
 20
38.680970
  0
VERTEX
  8
sensibilidade_ambiental
 10
-9.346975
 20
38.680900
  0
VERTEX
  8
sensibilidade_ambiental
 10
-9.346877
 20
38.680865
  0
VERTEX
  8
sensibilidade_ambiental
 10
-9.346739
 20
38.680777
  0
VERTEX
  8
sensibilidade_ambiental
 10
-9.346438
 20
38.680623
  0
VERTEX
  8
sensibilidade_ambiental
 10
-9.346312
 20
38.680694
  0
VERTEX
  8
sensibilidade_ambiental
 10
-9.346224
 20
38.680741
  0
VERTEX
  8
sensibilidade_ambiental
 10
-9.346076
 20
38.680743
  0
VERTEX
  8
sensibilidade_ambiental
 10
-9.345984
 20
38.680658
  0
VERTEX
  8
sensibilidade_ambiental
 10
-9.345600
 20
38.680516
  0
VERTEX
  8
sensibilidade_ambiental
 10
-9.345127
 20
38.680490
  0
VERTEX
  8
sensibilidade_ambiental
 10
-9.344686
 20
38.680664
  0
VERTEX
  8
sensibilidade_ambiental
 10
-9.344443
 20
38.680852
  0
VERTEX
  8
sensibilidade_ambiental
 10
-9.344124
 20
38.681172
  0
VERTEX
  8
sensibilidade_ambiental
 10
-9.343801
 20
38.681314
  0
SEQEND
  0
POLYLINE
  8
sensibilidade_ambiental
  6
BYLAYER
 66
1
 70
0
 40
0.000000
 41
0.000000
  0
VERTEX
  8
sensibilidade_ambiental
 10
-9.478645
 20
38.756114
  0
VERTEX
  8
sensibilidade_ambiental
 10
-9.478415
 20
38.756079
  0
VERTEX
  8
sensibilidade_ambiental
 10
-9.478392
 20
38.756045
  0
SEQEND
  0
POLYLINE
  8
sensibilidade_ambiental
  6
BYLAYER
 66
1
 70
0
 40
0.000000
 41
0.000000
  0
VERTEX
  8
sensibilidade_ambiental
 10
-9.483683
 20
38.757440
  0
VERTEX
  8
sensibilidade_ambiental
 10
-9.483669
 20
38.757413
  0
VERTEX
  8
sensibilidade_ambiental
 10
-9.483667
 20
38.757413
  0
VERTEX
  8
sensibilidade_ambiental
 10
-9.483600
 20
38.757407
  0
VERTEX
  8
sensibilidade_ambiental
 10
-9.483517
 20
38.757415
  0
VERTEX
  8
sensibilidade_ambiental
 10
-9.483440
 20
38.757435
  0
VERTEX
  8
sensibilidade_ambiental
 10
-9.483348
 20
38.757475
  0
VERTEX
  8
sensibilidade_ambiental
 10
-9.483348
 20
38.757475
  0
VERTEX
  8
sensibilidade_ambiental
 10
-9.483348
 20
38.757475
  0
VERTEX
  8
sensibilidade_ambiental
 10
-9.483296
 20
38.757549
  0
VERTEX
  8
sensibilidade_ambiental
 10
-9.483296
 20
38.757549
  0
VERTEX
  8
sensibilidade_ambiental
 10
-9.483280
 20
38.757617
  0
VERTEX
  8
sensibilidade_ambiental
 10
-9.483270
 20
38.757676
  0
VERTEX
  8
sensibilidade_ambiental
 10
-9.483268
 20
38.757722
  0
VERTEX
  8
sensibilidade_ambiental
 10
-9.483266
 20
38.757783
  0
VERTEX
  8
sensibilidade_ambiental
 10
-9.483254
 20
38.757803
  0
VERTEX
  8
sensibilidade_ambiental
 10
-9.483240
 20
38.757816
  0
VERTEX
  8
sensibilidade_ambiental
 10
-9.483221
 20
38.757827
  0
VERTEX
  8
sensibilidade_ambiental
 10
-9.483163
 20
38.757826
  0
VERTEX
  8
sensibilidade_ambiental
 10
-9.483117
 20
38.757816
  0
VERTEX
  8
sensibilidade_ambiental
 10
-9.483100
 20
38.757797
  0
VERTEX
  8
sensibilidade_ambiental
 10
-9.483083
 20
38.757772
  0
VERTEX
  8
sensibilidade_ambiental
 10
-9.483053
 20
38.757764
  0
VERTEX
  8
sensibilidade_ambiental
 10
-9.482988
 20
38.757763
  0
VERTEX
  8
sensibilidade_ambiental
 10
-9.482936
 20
38.757767
  0
VERTEX
  8
sensibilidade_ambiental
 10
-9.482867
 20
38.757781
  0
VERTEX
  8
sensibilidade_ambiental
 10
-9.482817
 20
38.757815
  0
VERTEX
  8
sensibilidade_ambiental
 10
-9.482791
 20
38.757856
  0
VERTEX
  8
sensibilidade_ambiental
 10
-9.482755
 20
38.757914
  0
VERTEX
  8
sensibilidade_ambiental
 10
-9.482697
 20
38.757993
  0
VERTEX
  8
sensibilidade_ambiental
 10
-9.482679
 20
38.758018
  0
SEQEND
  0
POLYLINE
  8
sensibilidade_ambiental
  6
BYLAYER
 66
1
 70
0
 40
0.000000
 41
0.000000
  0
VERTEX
  8
sensibilidade_ambiental
 10
-9.482679
 20
38.758018
  0
VERTEX
  8
sensibilidade_ambiental
 10
-9.482618
 20
38.758051
  0
VERTEX
  8
sensibilidade_ambiental
 10
-9.482520
 20
38.758034
  0
VERTEX
  8
sensibilidade_ambiental
 10
-9.482461
 20
38.758026
  0
VERTEX
  8
sensibilidade_ambiental
 10
-9.482315
 20
38.757991
  0
VERTEX
  8
sensibilidade_ambiental
 10
-9.482224
 20
38.757968
  0
VERTEX
  8
sensibilidade_ambiental
 10
-9.482145
 20
38.757949
  0
VERTEX
  8
sensibilidade_ambiental
 10
-9.482007
 20
38.757916
  0
VERTEX
  8
sensibilidade_ambiental
 10
-9.481915
 20
38.757869
  0
VERTEX
  8
sensibilidade_ambiental
 10
-9.481839
 20
38.757842
  0
VERTEX
  8
sensibilidade_ambiental
 10
-9.481839
 20
38.757842
  0
VERTEX
  8
sensibilidade_ambiental
 10
-9.481824
 20
38.757785
  0
VERTEX
  8
sensibilidade_ambiental
 10
-9.481801
 20
38.757725
  0
SEQEND
  0
POLYLINE
  8
sensibilidade_ambiental
  6
BYLAYER
 66
1
 70
0
 40
0.000000
 41
0.000000
  0
VERTEX
  8
sensibilidade_ambiental
 10
-9.479910
 20
38.756654
  0
VERTEX
  8
sensibilidade_ambiental
 10
-9.479805
 20
38.756725
  0
VERTEX
  8
sensibilidade_ambiental
 10
-9.479805
 20
38.756725
  0
VERTEX
  8
sensibilidade_ambiental
 10
-9.479685
 20
38.756708
  0
VERTEX
  8
sensibilidade_ambiental
 10
-9.479676
 20
38.756706
  0
VERTEX
  8
sensibilidade_ambiental
 10
-9.479619
 20
38.756642
  0
VERTEX
  8
sensibilidade_ambiental
 10
-9.479520
 20
38.756554
  0
SEQEND
  0
POLYLINE
  8
sensibilidade_ambiental
  6
BYLAYER
 66
1
 70
0
 40
0.000000
 41
0.000000
  0
VERTEX
  8
sensibilidade_ambiental
 10
-9.479520
 20
38.756554
  0
VERTEX
  8
sensibilidade_ambiental
 10
-9.479416
 20
38.756494
  0
VERTEX
  8
sensibilidade_ambiental
 10
-9.479335
 20
38.756457
  0
VERTEX
  8
sensibilidade_ambiental
 10
-9.479323
 20
38.756434
  0
VERTEX
  8
sensibilidade_ambiental
 10
-9.479316
 20
38.756405
  0
VERTEX
  8
sensibilidade_ambiental
 10
-9.479288
 20
38.756286
  0
VERTEX
  8
sensibilidade_ambiental
 10
-9.479278
 20
38.756206
  0
VERTEX
  8
sensibilidade_ambiental
 10
-9.479279
 20
38.756164
  0
VERTEX
  8
sensibilidade_ambiental
 10
-9.479300
 20
38.756121
  0
VERTEX
  8
sensibilidade_ambiental
 10
-9.479372
 20
38.756080
  0
VERTEX
  8
sensibilidade_ambiental
 10
-9.479379
 20
38.756005
  0
VERTEX
  8
sensibilidade_ambiental
 10
-9.479381
 20
38.755938
  0
VERTEX
  8
sensibilidade_ambiental
 10
-9.479346
 20
38.755892
  0
VERTEX
  8
sensibilidade_ambiental
 10
-9.479298
 20
38.755839
  0
VERTEX
  8
sensibilidade_ambiental
 10
-9.479237
 20
38.755782
  0
VERTEX
  8
sensibilidade_ambiental
 10
-9.479170
 20
38.755774
  0
VERTEX
  8
sensibilidade_ambiental
 10
-9.479082
 20
38.755770
  0
VERTEX
  8
sensibilidade_ambiental
 10
-9.479062
 20
38.755772
  0
VERTEX
  8
sensibilidade_ambiental
 10
-9.478974
 20
38.755794
  0
VERTEX
  8
sensibilidade_ambiental
 10
-9.478787
 20
38.755993
  0
VERTEX
  8
sensibilidade_ambiental
 10
-9.478734
 20
38.756062
  0
VERTEX
  8
sensibilidade_ambiental
 10
-9.478645
 20
38.756114
  0
SEQEND
  0
POLYLINE
  8
sensibilidade_ambiental
  6
BYLAYER
 66
1
 70
0
 40
0.000000
 41
0.000000
  0
VERTEX
  8
sensibilidade_ambiental
 10
-9.475201
 20
38.753673
  0
VERTEX
  8
sensibilidade_ambiental
 10
-9.475063
 20
38.753629
  0
VERTEX
  8
sensibilidade_ambiental
 10
-9.474862
 20
38.753565
  0
VERTEX
  8
sensibilidade_ambiental
 10
-9.474799
 20
38.753465
  0
VERTEX
  8
sensibilidade_ambiental
 10
-9.474797
 20
38.753363
  0
SEQEND
  0
POLYLINE
  8
sensibilidade_ambiental
  6
BYLAYER
 66
1
 70
0
 40
0.000000
 41
0.000000
  0
VERTEX
  8
sensibilidade_ambiental
 10
-9.478392
 20
38.756045
  0
VERTEX
  8
sensibilidade_ambiental
 10
-9.478535
 20
38.755873
  0
VERTEX
  8
sensibilidade_ambiental
 10
-9.478604
 20
38.755781
  0
VERTEX
  8
sensibilidade_ambiental
 10
-9.478657
 20
38.755632
  0
VERTEX
  8
sensibilidade_ambiental
 10
-9.478643
 20
38.755511
  0
VERTEX
  8
sensibilidade_ambiental
 10
-9.478518
 20
38.755479
  0
VERTEX
  8
sensibilidade_ambiental
 10
-9.478364
 20
38.755540
  0
VERTEX
  8
sensibilidade_ambiental
 10
-9.478267
 20
38.755571
  0
VERTEX
  8
sensibilidade_ambiental
 10
-9.478248
 20
38.755531
  0
VERTEX
  8
sensibilidade_ambiental
 10
-9.478416
 20
38.755438
  0
VERTEX
  8
sensibilidade_ambiental
 10
-9.478671
 20
38.755279
  0
VERTEX
  8
sensibilidade_ambiental
 10
-9.478831
 20
38.755096
  0
VERTEX
  8
sensibilidade_ambiental
 10
-9.478858
 20
38.754938
  0
VERTEX
  8
sensibilidade_ambiental
 10
-9.478862
 20
38.754798
  0
VERTEX
  8
sensibilidade_ambiental
 10
-9.478858
 20
38.754713
  0
VERTEX
  8
sensibilidade_ambiental
 10
-9.478826
 20
38.754640
  0
VERTEX
  8
sensibilidade_ambiental
 10
-9.478742
 20
38.754605
  0
VERTEX
  8
sensibilidade_ambiental
 10
-9.478659
 20
38.754596
  0
VERTEX
  8
sensibilidade_ambiental
 10
-9.478622
 20
38.754603
  0
VERTEX
  8
sensibilidade_ambiental
 10
-9.478480
 20
38.754800
  0
VERTEX
  8
sensibilidade_ambiental
 10
-9.478387
 20
38.754998
  0
VERTEX
  8
sensibilidade_ambiental
 10
-9.478335
 20
38.755083
  0
VERTEX
  8
sensibilidade_ambiental
 10
-9.478282
 20
38.755141
  0
VERTEX
  8
sensibilidade_ambiental
 10
-9.478207
 20
38.755170
  0
VERTEX
  8
sensibilidade_ambiental
 10
-9.478127
 20
38.755212
  0
VERTEX
  8
sensibilidade_ambiental
 10
-9.478228
 20
38.754943
  0
VERTEX
  8
sensibilidade_ambiental
 10
-9.478258
 20
38.754865
  0
VERTEX
  8
sensibilidade_ambiental
 10
-9.478294
 20
38.754740
  0
VERTEX
  8
sensibilidade_ambiental
 10
-9.478305
 20
38.754690
  0
VERTEX
  8
sensibilidade_ambiental
 10
-9.478313
 20
38.754583
  0
VERTEX
  8
sensibilidade_ambiental
 10
-9.478305
 20
38.754517
  0
VERTEX
  8
sensibilidade_ambiental
 10
-9.478111
 20
38.754549
  0
VERTEX
  8
sensibilidade_ambiental
 10
-9.478013
 20
38.754558
  0
VERTEX
  8
sensibilidade_ambiental
 10
-9.477807
 20
38.754638
  0
VERTEX
  8
sensibilidade_ambiental
 10
-9.477776
 20
38.754726
  0
VERTEX
  8
sensibilidade_ambiental
 10
-9.477681
 20
38.754810
  0
VERTEX
  8
sensibilidade_ambiental
 10
-9.477587
 20
38.754929
  0
SEQEND
  0
POLYLINE
  8
sensibilidade_ambiental
  6
BYLAYER
 66
1
 70
0
 40
0.000000
 41
0.000000
  0
VERTEX
  8
sensibilidade_ambiental
 10
-9.477587
 20
38.754929
  0
VERTEX
  8
sensibilidade_ambiental
 10
-9.477472
 20
38.754923
  0
VERTEX
  8
sensibilidade_ambiental
 10
-9.477266
 20
38.754922
  0
VERTEX
  8
sensibilidade_ambiental
 10
-9.477146
 20
38.754906
  0
VERTEX
  8
sensibilidade_ambiental
 10
-9.477120
 20
38.754901
  0
VERTEX
  8
sensibilidade_ambiental
 10
-9.477022
 20
38.754884
  0
VERTEX
  8
sensibilidade_ambiental
 10
-9.476864
 20
38.754831
  0
VERTEX
  8
sensibilidade_ambiental
 10
-9.476707
 20
38.754811
  0
VERTEX
  8
sensibilidade_ambiental
 10
-9.476529
 20
38.754781
  0
VERTEX
  8
sensibilidade_ambiental
 10
-9.476421
 20
38.754734
  0
VERTEX
  8
sensibilidade_ambiental
 10
-9.476288
 20
38.754698
  0
SEQEND
  0
POLYLINE
  8
sensibilidade_ambiental
  6
BYLAYER
 66
1
 70
0
 40
0.000000
 41
0.000000
  0
VERTEX
  8
sensibilidade_ambiental
 10
-9.476288
 20
38.754698
  0
VERTEX
  8
sensibilidade_ambiental
 10
-9.476116
 20
38.754652
  0
VERTEX
  8
sensibilidade_ambiental
 10
-9.476095
 20
38.754631
  0
VERTEX
  8
sensibilidade_ambiental
 10
-9.476090
 20
38.754589
  0
VERTEX
  8
sensibilidade_ambiental
 10
-9.476099
 20
38.754568
  0
VERTEX
  8
sensibilidade_ambiental
 10
-9.476330
 20
38.754401
  0
VERTEX
  8
sensibilidade_ambiental
 10
-9.476485
 20
38.754280
  0
VERTEX
  8
sensibilidade_ambiental
 10
-9.476663
 20
38.754167
  0
VERTEX
  8
sensibilidade_ambiental
 10
-9.476736
 20
38.754060
  0
VERTEX
  8
sensibilidade_ambiental
 10
-9.476761
 20
38.753994
  0
VERTEX
  8
sensibilidade_ambiental
 10
-9.476791
 20
38.753899
  0
VERTEX
  8
sensibilidade_ambiental
 10
-9.476918
 20
38.753797
  0
VERTEX
  8
sensibilidade_ambiental
 10
-9.477006
 20
38.753744
  0
VERTEX
  8
sensibilidade_ambiental
 10
-9.477066
 20
38.753690
  0
VERTEX
  8
sensibilidade_ambiental
 10
-9.477137
 20
38.753532
  0
VERTEX
  8
sensibilidade_ambiental
 10
-9.477140
 20
38.753467
  0
VERTEX
  8
sensibilidade_ambiental
 10
-9.477146
 20
38.753367
  0
VERTEX
  8
sensibilidade_ambiental
 10
-9.477130
 20
38.753257
  0
VERTEX
  8
sensibilidade_ambiental
 10
-9.477074
 20
38.753222
  0
VERTEX
  8
sensibilidade_ambiental
 10
-9.476985
 20
38.753201
  0
VERTEX
  8
sensibilidade_ambiental
 10
-9.476886
 20
38.753218
  0
VERTEX
  8
sensibilidade_ambiental
 10
-9.476763
 20
38.753312
  0
VERTEX
  8
sensibilidade_ambiental
 10
-9.476696
 20
38.753390
  0
VERTEX
  8
sensibilidade_ambiental
 10
-9.476610
 20
38.753453
  0
VERTEX
  8
sensibilidade_ambiental
 10
-9.476447
 20
38.753472
  0
VERTEX
  8
sensibilidade_ambiental
 10
-9.476300
 20
38.753473
  0
VERTEX
  8
sensibilidade_ambiental
 10
-9.476234
 20
38.753415
  0
VERTEX
  8
sensibilidade_ambiental
 10
-9.476163
 20
38.753404
  0
VERTEX
  8
sensibilidade_ambiental
 10
-9.476064
 20
38.753349
  0
VERTEX
  8
sensibilidade_ambiental
 10
-9.475911
 20
38.753380
  0
VERTEX
  8
sensibilidade_ambiental
 10
-9.475821
 20
38.753399
  0
VERTEX
  8
sensibilidade_ambiental
 10
-9.475784
 20
38.753460
  0
VERTEX
  8
sensibilidade_ambiental
 10
-9.475788
 20
38.753567
  0
VERTEX
  8
sensibilidade_ambiental
 10
-9.475775
 20
38.753642
  0
VERTEX
  8
sensibilidade_ambiental
 10
-9.475631
 20
38.753670
  0
VERTEX
  8
sensibilidade_ambiental
 10
-9.475498
 20
38.753688
  0
VERTEX
  8
sensibilidade_ambiental
 10
-9.475355
 20
38.753707
  0
VERTEX
  8
sensibilidade_ambiental
 10
-9.475201
 20
38.753673
  0
SEQEND
  0
POLYLINE
  8
sensibilidade_ambiental
  6
BYLAYER
 66
1
 70
0
 40
0.000000
 41
0.000000
  0
VERTEX
  8
sensibilidade_ambiental
 10
-9.474797
 20
38.753363
  0
VERTEX
  8
sensibilidade_ambiental
 10
-9.474766
 20
38.753283
  0
VERTEX
  8
sensibilidade_ambiental
 10
-9.474744
 20
38.753209
  0
VERTEX
  8
sensibilidade_ambiental
 10
-9.474592
 20
38.753196
  0
VERTEX
  8
sensibilidade_ambiental
 10
-9.474425
 20
38.753262
  0
VERTEX
  8
sensibilidade_ambiental
 10
-9.474335
 20
38.753333
  0
VERTEX
  8
sensibilidade_ambiental
 10
-9.474256
 20
38.753346
  0
SEQEND
  0
POLYLINE
  8
sensibilidade_ambiental
  6
BYLAYER
 66
1
 70
0
 40
0.000000
 41
0.000000
  0
VERTEX
  8
sensibilidade_ambiental
 10
-9.474256
 20
38.753346
  0
VERTEX
  8
sensibilidade_ambiental
 10
-9.474001
 20
38.753249
  0
SEQEND
  0
POLYLINE
  8
sensibilidade_ambiental
  6
BYLAYER
 66
1
 70
0
 40
0.000000
 41
0.000000
  0
VERTEX
  8
sensibilidade_ambiental
 10
-9.474001
 20
38.753249
  0
VERTEX
  8
sensibilidade_ambiental
 10
-9.474010
 20
38.753158
  0
VERTEX
  8
sensibilidade_ambiental
 10
-9.474051
 20
38.753042
  0
VERTEX
  8
sensibilidade_ambiental
 10
-9.474069
 20
38.752989
  0
VERTEX
  8
sensibilidade_ambiental
 10
-9.474077
 20
38.752970
  0
VERTEX
  8
sensibilidade_ambiental
 10
-9.474085
 20
38.752934
  0
VERTEX
  8
sensibilidade_ambiental
 10
-9.474101
 20
38.752874
  0
VERTEX
  8
sensibilidade_ambiental
 10
-9.474107
 20
38.752848
  0
VERTEX
  8
sensibilidade_ambiental
 10
-9.474113
 20
38.752833
  0
VERTEX
  8
sensibilidade_ambiental
 10
-9.474121
 20
38.752818
  0
VERTEX
  8
sensibilidade_ambiental
 10
-9.474143
 20
38.752806
  0
VERTEX
  8
sensibilidade_ambiental
 10
-9.474187
 20
38.752803
  0
VERTEX
  8
sensibilidade_ambiental
 10
-9.474258
 20
38.752806
  0
VERTEX
  8
sensibilidade_ambiental
 10
-9.474288
 20
38.752808
  0
VERTEX
  8
sensibilidade_ambiental
 10
-9.474317
 20
38.752808
  0
VERTEX
  8
sensibilidade_ambiental
 10
-9.474347
 20
38.752803
  0
VERTEX
  8
sensibilidade_ambiental
 10
-9.474409
 20
38.752729
  0
VERTEX
  8
sensibilidade_ambiental
 10
-9.474411
 20
38.752658
  0
VERTEX
  8
sensibilidade_ambiental
 10
-9.474383
 20
38.752570
  0
VERTEX
  8
sensibilidade_ambiental
 10
-9.474272
 20
38.752472
  0
VERTEX
  8
sensibilidade_ambiental
 10
-9.474179
 20
38.752380
  0
VERTEX
  8
sensibilidade_ambiental
 10
-9.474138
 20
38.752326
  0
VERTEX
  8
sensibilidade_ambiental
 10
-9.474128
 20
38.752228
  0
VERTEX
  8
sensibilidade_ambiental
 10
-9.474022
 20
38.752163
  0
VERTEX
  8
sensibilidade_ambiental
 10
-9.473916
 20
38.752157
  0
VERTEX
  8
sensibilidade_ambiental
 10
-9.473803
 20
38.752158
  0
VERTEX
  8
sensibilidade_ambiental
 10
-9.473639
 20
38.752165
  0
VERTEX
  8
sensibilidade_ambiental
 10
-9.473500
 20
38.752171
  0
VERTEX
  8
sensibilidade_ambiental
 10
-9.473368
 20
38.752170
  0
SEQEND
  0
POLYLINE
  8
sensibilidade_ambiental
  6
BYLAYER
 66
1
 70
0
 40
0.000000
 41
0.000000
  0
VERTEX
  8
sensibilidade_ambiental
 10
-9.473368
 20
38.752170
  0
VERTEX
  8
sensibilidade_ambiental
 10
-9.473313
 20
38.752117
  0
VERTEX
  8
sensibilidade_ambiental
 10
-9.473281
 20
38.751974
  0
VERTEX
  8
sensibilidade_ambiental
 10
-9.473222
 20
38.751897
  0
VERTEX
  8
sensibilidade_ambiental
 10
-9.473198
 20
38.751739
  0
VERTEX
  8
sensibilidade_ambiental
 10
-9.473178
 20
38.751620
  0
VERTEX
  8
sensibilidade_ambiental
 10
-9.473184
 20
38.751467
  0
VERTEX
  8
sensibilidade_ambiental
 10
-9.473238
 20
38.751438
  0
VERTEX
  8
sensibilidade_ambiental
 10
-9.473329
 20
38.751366
  0
VERTEX
  8
sensibilidade_ambiental
 10
-9.473401
 20
38.751346
  0
VERTEX
  8
sensibilidade_ambiental
 10
-9.473463
 20
38.751246
  0
VERTEX
  8
sensibilidade_ambiental
 10
-9.473515
 20
38.751143
  0
VERTEX
  8
sensibilidade_ambiental
 10
-9.473569
 20
38.751116
  0
VERTEX
  8
sensibilidade_ambiental
 10
-9.473621
 20
38.751097
  0
VERTEX
  8
sensibilidade_ambiental
 10
-9.473777
 20
38.751085
  0
VERTEX
  8
sensibilidade_ambiental
 10
-9.473898
 20
38.751065
  0
SEQEND
  0
POLYLINE
  8
sensibilidade_ambiental
  6
BYLAYER
 66
1
 70
0
 40
0.000000
 41
0.000000
  0
VERTEX
  8
sensibilidade_ambiental
 10
-9.473898
 20
38.751065
  0
VERTEX
  8
sensibilidade_ambiental
 10
-9.474048
 20
38.751061
  0
VERTEX
  8
sensibilidade_ambiental
 10
-9.474192
 20
38.751071
  0
VERTEX
  8
sensibilidade_ambiental
 10
-9.474276
 20
38.751073
  0
VERTEX
  8
sensibilidade_ambiental
 10
-9.474367
 20
38.751061
  0
VERTEX
  8
sensibilidade_ambiental
 10
-9.474414
 20
38.751038
  0
VERTEX
  8
sensibilidade_ambiental
 10
-9.474414
 20
38.750986
  0
VERTEX
  8
sensibilidade_ambiental
 10
-9.474398
 20
38.750910
  0
VERTEX
  8
sensibilidade_ambiental
 10
-9.474380
 20
38.750878
  0
VERTEX
  8
sensibilidade_ambiental
 10
-9.474349
 20
38.750824
  0
VERTEX
  8
sensibilidade_ambiental
 10
-9.474339
 20
38.750803
  0
VERTEX
  8
sensibilidade_ambiental
 10
-9.474319
 20
38.750782
  0
VERTEX
  8
sensibilidade_ambiental
 10
-9.474187
 20
38.750707
  0
VERTEX
  8
sensibilidade_ambiental
 10
-9.473944
 20
38.750639
  0
VERTEX
  8
sensibilidade_ambiental
 10
-9.473792
 20
38.750611
  0
VERTEX
  8
sensibilidade_ambiental
 10
-9.473729
 20
38.750616
  0
VERTEX
  8
sensibilidade_ambiental
 10
-9.473563
 20
38.750618
  0
VERTEX
  8
sensibilidade_ambiental
 10
-9.473443
 20
38.750593
  0
VERTEX
  8
sensibilidade_ambiental
 10
-9.473310
 20
38.750559
  0
VERTEX
  8
sensibilidade_ambiental
 10
-9.473226
 20
38.750498
  0
VERTEX
  8
sensibilidade_ambiental
 10
-9.473162
 20
38.750457
  0
VERTEX
  8
sensibilidade_ambiental
 10
-9.473145
 20
38.750374
  0
VERTEX
  8
sensibilidade_ambiental
 10
-9.473045
 20
38.750289
  0
VERTEX
  8
sensibilidade_ambiental
 10
-9.472896
 20
38.750224
  0
VERTEX
  8
sensibilidade_ambiental
 10
-9.472803
 20
38.750257
  0
VERTEX
  8
sensibilidade_ambiental
 10
-9.472714
 20
38.750277
  0
SEQEND
  0
POLYLINE
  8
sensibilidade_ambiental
  6
BYLAYER
 66
1
 70
0
 40
0.000000
 41
0.000000
  0
VERTEX
  8
sensibilidade_ambiental
 10
-9.472714
 20
38.750277
  0
VERTEX
  8
sensibilidade_ambiental
 10
-9.472671
 20
38.750269
  0
VERTEX
  8
sensibilidade_ambiental
 10
-9.472593
 20
38.750255
  0
VERTEX
  8
sensibilidade_ambiental
 10
-9.472478
 20
38.750230
  0
VERTEX
  8
sensibilidade_ambiental
 10
-9.472332
 20
38.750224
  0
VERTEX
  8
sensibilidade_ambiental
 10
-9.472232
 20
38.750205
  0
VERTEX
  8
sensibilidade_ambiental
 10
-9.472110
 20
38.750182
  0
VERTEX
  8
sensibilidade_ambiental
 10
-9.471981
 20
38.750138
  0
VERTEX
  8
sensibilidade_ambiental
 10
-9.471861
 20
38.750109
  0
VERTEX
  8
sensibilidade_ambiental
 10
-9.471824
 20
38.750023
  0
VERTEX
  8
sensibilidade_ambiental
 10
-9.471775
 20
38.749892
  0
VERTEX
  8
sensibilidade_ambiental
 10
-9.471769
 20
38.749803
  0
VERTEX
  8
sensibilidade_ambiental
 10
-9.471847
 20
38.749659
  0
SEQEND
  0
POLYLINE
  8
sensibilidade_ambiental
  6
BYLAYER
 66
1
 70
0
 40
0.000000
 41
0.000000
  0
VERTEX
  8
sensibilidade_ambiental
 10
-9.471847
 20
38.749659
  0
VERTEX
  8
sensibilidade_ambiental
 10
-9.471979
 20
38.749464
  0
VERTEX
  8
sensibilidade_ambiental
 10
-9.472119
 20
38.749278
  0
VERTEX
  8
sensibilidade_ambiental
 10
-9.472337
 20
38.749133
  0
VERTEX
  8
sensibilidade_ambiental
 10
-9.472438
 20
38.749061
  0
VERTEX
  8
sensibilidade_ambiental
 10
-9.472500
 20
38.749004
  0
VERTEX
  8
sensibilidade_ambiental
 10
-9.472510
 20
38.748928
  0
VERTEX
  8
sensibilidade_ambiental
 10
-9.472524
 20
38.748836
  0
VERTEX
  8
sensibilidade_ambiental
 10
-9.472520
 20
38.748750
  0
VERTEX
  8
sensibilidade_ambiental
 10
-9.472466
 20
38.748662
  0
VERTEX
  8
sensibilidade_ambiental
 10
-9.472408
 20
38.748580
  0
VERTEX
  8
sensibilidade_ambiental
 10
-9.472301
 20
38.748429
  0
VERTEX
  8
sensibilidade_ambiental
 10
-9.472106
 20
38.748309
  0
VERTEX
  8
sensibilidade_ambiental
 10
-9.471997
 20
38.748280
  0
VERTEX
  8
sensibilidade_ambiental
 10
-9.471837
 20
38.748252
  0
SEQEND
  0
POLYLINE
  8
sensibilidade_ambiental
  6
BYLAYER
 66
1
 70
0
 40
0.000000
 41
0.000000
  0
VERTEX
  8
sensibilidade_ambiental
 10
-9.471837
 20
38.748252
  0
VERTEX
  8
sensibilidade_ambiental
 10
-9.471797
 20
38.748220
  0
VERTEX
  8
sensibilidade_ambiental
 10
-9.471783
 20
38.748115
  0
VERTEX
  8
sensibilidade_ambiental
 10
-9.471788
 20
38.748039
  0
VERTEX
  8
sensibilidade_ambiental
 10
-9.471880
 20
38.747983
  0
SEQEND
  0
POLYLINE
  8
sensibilidade_ambiental
  6
BYLAYER
 66
1
 70
0
 40
0.000000
 41
0.000000
  0
VERTEX
  8
sensibilidade_ambiental
 10
-9.473051
 20
38.743688
  0
VERTEX
  8
sensibilidade_ambiental
 10
-9.472981
 20
38.743447
  0
VERTEX
  8
sensibilidade_ambiental
 10
-9.472891
 20
38.743220
  0
VERTEX
  8
sensibilidade_ambiental
 10
-9.472951
 20
38.742908
  0
VERTEX
  8
sensibilidade_ambiental
 10
-9.473055
 20
38.742451
  0
VERTEX
  8
sensibilidade_ambiental
 10
-9.473114
 20
38.742047
  0
VERTEX
  8
sensibilidade_ambiental
 10
-9.473173
 20
38.741652
  0
VERTEX
  8
sensibilidade_ambiental
 10
-9.473400
 20
38.741179
  0
SEQEND
  0
POLYLINE
  8
sensibilidade_ambiental
  6
BYLAYER
 66
1
 70
0
 40
0.000000
 41
0.000000
  0
VERTEX
  8
sensibilidade_ambiental
 10
-9.471880
 20
38.747983
  0
VERTEX
  8
sensibilidade_ambiental
 10
-9.472150
 20
38.747979
  0
VERTEX
  8
sensibilidade_ambiental
 10
-9.472454
 20
38.747998
  0
VERTEX
  8
sensibilidade_ambiental
 10
-9.472677
 20
38.747975
  0
VERTEX
  8
sensibilidade_ambiental
 10
-9.472909
 20
38.747920
  0
VERTEX
  8
sensibilidade_ambiental
 10
-9.473074
 20
38.747855
  0
VERTEX
  8
sensibilidade_ambiental
 10
-9.473114
 20
38.747834
  0
VERTEX
  8
sensibilidade_ambiental
 10
-9.473156
 20
38.747764
  0
VERTEX
  8
sensibilidade_ambiental
 10
-9.473152
 20
38.747660
  0
VERTEX
  8
sensibilidade_ambiental
 10
-9.473127
 20
38.747598
  0
VERTEX
  8
sensibilidade_ambiental
 10
-9.473035
 20
38.747565
  0
VERTEX
  8
sensibilidade_ambiental
 10
-9.472771
 20
38.747537
  0
VERTEX
  8
sensibilidade_ambiental
 10
-9.472674
 20
38.747530
  0
VERTEX
  8
sensibilidade_ambiental
 10
-9.472538
 20
38.747501
  0
VERTEX
  8
sensibilidade_ambiental
 10
-9.472381
 20
38.747382
  0
VERTEX
  8
sensibilidade_ambiental
 10
-9.472303
 20
38.747302
  0
VERTEX
  8
sensibilidade_ambiental
 10
-9.472174
 20
38.747188
  0
VERTEX
  8
sensibilidade_ambiental
 10
-9.472163
 20
38.747106
  0
VERTEX
  8
sensibilidade_ambiental
 10
-9.472078
 20
38.747032
  0
VERTEX
  8
sensibilidade_ambiental
 10
-9.472009
 20
38.746995
  0
VERTEX
  8
sensibilidade_ambiental
 10
-9.471961
 20
38.746975
  0
VERTEX
  8
sensibilidade_ambiental
 10
-9.471865
 20
38.746912
  0
VERTEX
  8
sensibilidade_ambiental
 10
-9.471827
 20
38.746841
  0
VERTEX
  8
sensibilidade_ambiental
 10
-9.471857
 20
38.746778
  0
VERTEX
  8
sensibilidade_ambiental
 10
-9.471938
 20
38.746629
  0
VERTEX
  8
sensibilidade_ambiental
 10
-9.472067
 20
38.746625
  0
VERTEX
  8
sensibilidade_ambiental
 10
-9.472134
 20
38.746552
  0
VERTEX
  8
sensibilidade_ambiental
 10
-9.472089
 20
38.746453
  0
VERTEX
  8
sensibilidade_ambiental
 10
-9.472018
 20
38.746417
  0
VERTEX
  8
sensibilidade_ambiental
 10
-9.471860
 20
38.746396
  0
VERTEX
  8
sensibilidade_ambiental
 10
-9.471816
 20
38.746353
  0
VERTEX
  8
sensibilidade_ambiental
 10
-9.471856
 20
38.746244
  0
VERTEX
  8
sensibilidade_ambiental
 10
-9.471969
 20
38.746123
  0
VERTEX
  8
sensibilidade_ambiental
 10
-9.472076
 20
38.746081
  0
VERTEX
  8
sensibilidade_ambiental
 10
-9.472298
 20
38.746011
  0
VERTEX
  8
sensibilidade_ambiental
 10
-9.472475
 20
38.745989
  0
VERTEX
  8
sensibilidade_ambiental
 10
-9.472647
 20
38.745943
  0
VERTEX
  8
sensibilidade_ambiental
 10
-9.472830
 20
38.745885
  0
VERTEX
  8
sensibilidade_ambiental
 10
-9.472910
 20
38.745775
  0
VERTEX
  8
sensibilidade_ambiental
 10
-9.472841
 20
38.745662
  0
VERTEX
  8
sensibilidade_ambiental
 10
-9.472738
 20
38.745495
  0
VERTEX
  8
sensibilidade_ambiental
 10
-9.472664
 20
38.745402
  0
VERTEX
  8
sensibilidade_ambiental
 10
-9.472448
 20
38.745289
  0
VERTEX
  8
sensibilidade_ambiental
 10
-9.472397
 20
38.745179
  0
VERTEX
  8
sensibilidade_ambiental
 10
-9.472391
 20
38.745038
  0
VERTEX
  8
sensibilidade_ambiental
 10
-9.472464
 20
38.745009
  0
VERTEX
  8
sensibilidade_ambiental
 10
-9.472582
 20
38.745010
  0
VERTEX
  8
sensibilidade_ambiental
 10
-9.472663
 20
38.744972
  0
VERTEX
  8
sensibilidade_ambiental
 10
-9.472709
 20
38.744874
  0
VERTEX
  8
sensibilidade_ambiental
 10
-9.472736
 20
38.744780
  0
VERTEX
  8
sensibilidade_ambiental
 10
-9.472663
 20
38.744736
  0
VERTEX
  8
sensibilidade_ambiental
 10
-9.472561
 20
38.744704
  0
VERTEX
  8
sensibilidade_ambiental
 10
-9.472506
 20
38.744663
  0
VERTEX
  8
sensibilidade_ambiental
 10
-9.472480
 20
38.744640
  0
VERTEX
  8
sensibilidade_ambiental
 10
-9.472517
 20
38.744577
  0
VERTEX
  8
sensibilidade_ambiental
 10
-9.472654
 20
38.744493
  0
VERTEX
  8
sensibilidade_ambiental
 10
-9.472748
 20
38.744481
  0
VERTEX
  8
sensibilidade_ambiental
 10
-9.472885
 20
38.744412
  0
VERTEX
  8
sensibilidade_ambiental
 10
-9.472901
 20
38.744312
  0
VERTEX
  8
sensibilidade_ambiental
 10
-9.472902
 20
38.744244
  0
VERTEX
  8
sensibilidade_ambiental
 10
-9.472962
 20
38.744192
  0
VERTEX
  8
sensibilidade_ambiental
 10
-9.473061
 20
38.744146
  0
VERTEX
  8
sensibilidade_ambiental
 10
-9.473156
 20
38.744131
  0
VERTEX
  8
sensibilidade_ambiental
 10
-9.473256
 20
38.744103
  0
VERTEX
  8
sensibilidade_ambiental
 10
-9.473319
 20
38.744064
  0
VERTEX
  8
sensibilidade_ambiental
 10
-9.473371
 20
38.743994
  0
VERTEX
  8
sensibilidade_ambiental
 10
-9.473352
 20
38.743860
  0
VERTEX
  8
sensibilidade_ambiental
 10
-9.473278
 20
38.743787
  0
VERTEX
  8
sensibilidade_ambiental
 10
-9.473051
 20
38.743688
  0
SEQEND
  0
POLYLINE
  8
sensibilidade_ambiental
  6
BYLAYER
 66
1
 70
0
 40
0.000000
 41
0.000000
  0
VERTEX
  8
sensibilidade_ambiental
 10
-9.473400
 20
38.741179
  0
VERTEX
  8
sensibilidade_ambiental
 10
-9.473417
 20
38.741170
  0
VERTEX
  8
sensibilidade_ambiental
 10
-9.473444
 20
38.741113
  0
VERTEX
  8
sensibilidade_ambiental
 10
-9.473418
 20
38.741042
  0
VERTEX
  8
sensibilidade_ambiental
 10
-9.473408
 20
38.741028
  0
VERTEX
  8
sensibilidade_ambiental
 10
-9.473281
 20
38.740882
  0
VERTEX
  8
sensibilidade_ambiental
 10
-9.473185
 20
38.740778
  0
VERTEX
  8
sensibilidade_ambiental
 10
-9.473116
 20
38.740711
  0
VERTEX
  8
sensibilidade_ambiental
 10
-9.473104
 20
38.740695
  0
VERTEX
  8
sensibilidade_ambiental
 10
-9.473102
 20
38.740684
  0
VERTEX
  8
sensibilidade_ambiental
 10
-9.473115
 20
38.740628
  0
VERTEX
  8
sensibilidade_ambiental
 10
-9.473121
 20
38.740618
  0
VERTEX
  8
sensibilidade_ambiental
 10
-9.473133
 20
38.740612
  0
VERTEX
  8
sensibilidade_ambiental
 10
-9.473203
 20
38.740593
  0
VERTEX
  8
sensibilidade_ambiental
 10
-9.473217
 20
38.740588
  0
VERTEX
  8
sensibilidade_ambiental
 10
-9.473277
 20
38.740578
  0
VERTEX
  8
sensibilidade_ambiental
 10
-9.473293
 20
38.740574
  0
VERTEX
  8
sensibilidade_ambiental
 10
-9.473357
 20
38.740572
  0
VERTEX
  8
sensibilidade_ambiental
 10
-9.473373
 20
38.740573
  0
VERTEX
  8
sensibilidade_ambiental
 10
-9.473394
 20
38.740575
  0
VERTEX
  8
sensibilidade_ambiental
 10
-9.473588
 20
38.740605
  0
VERTEX
  8
sensibilidade_ambiental
 10
-9.473618
 20
38.740606
  0
VERTEX
  8
sensibilidade_ambiental
 10
-9.473636
 20
38.740601
  0
VERTEX
  8
sensibilidade_ambiental
 10
-9.473717
 20
38.740547
  0
VERTEX
  8
sensibilidade_ambiental
 10
-9.473736
 20
38.740530
  0
VERTEX
  8
sensibilidade_ambiental
 10
-9.473803
 20
38.740460
  0
VERTEX
  8
sensibilidade_ambiental
 10
-9.473815
 20
38.740430
  0
VERTEX
  8
sensibilidade_ambiental
 10
-9.473825
 20
38.740338
  0
VERTEX
  8
sensibilidade_ambiental
 10
-9.473795
 20
38.740265
  0
VERTEX
  8
sensibilidade_ambiental
 10
-9.473667
 20
38.740199
  0
VERTEX
  8
sensibilidade_ambiental
 10
-9.473634
 20
38.740186
  0
VERTEX
  8
sensibilidade_ambiental
 10
-9.473613
 20
38.740177
  0
VERTEX
  8
sensibilidade_ambiental
 10
-9.473613
 20
38.740158
  0
VERTEX
  8
sensibilidade_ambiental
 10
-9.473623
 20
38.740134
  0
VERTEX
  8
sensibilidade_ambiental
 10
-9.473672
 20
38.740014
  0
VERTEX
  8
sensibilidade_ambiental
 10
-9.473672
 20
38.740014
  0
VERTEX
  8
sensibilidade_ambiental
 10
-9.473698
 20
38.739955
  0
VERTEX
  8
sensibilidade_ambiental
 10
-9.473703
 20
38.739935
  0
VERTEX
  8
sensibilidade_ambiental
 10
-9.473702
 20
38.739888
  0
VERTEX
  8
sensibilidade_ambiental
 10
-9.473680
 20
38.739727
  0
VERTEX
  8
sensibilidade_ambiental
 10
-9.473608
 20
38.739560
  0
VERTEX
  8
sensibilidade_ambiental
 10
-9.473588
 20
38.739520
  0
VERTEX
  8
sensibilidade_ambiental
 10
-9.473524
 20
38.739449
  0
VERTEX
  8
sensibilidade_ambiental
 10
-9.473441
 20
38.739397
  0
VERTEX
  8
sensibilidade_ambiental
 10
-9.473387
 20
38.739306
  0
VERTEX
  8
sensibilidade_ambiental
 10
-9.473377
 20
38.739265
  0
VERTEX
  8
sensibilidade_ambiental
 10
-9.473347
 20
38.739217
  0
VERTEX
  8
sensibilidade_ambiental
 10
-9.473271
 20
38.739121
  0
VERTEX
  8
sensibilidade_ambiental
 10
-9.473262
 20
38.739110
  0
VERTEX
  8
sensibilidade_ambiental
 10
-9.473263
 20
38.739092
  0
VERTEX
  8
sensibilidade_ambiental
 10
-9.473294
 20
38.738997
  0
VERTEX
  8
sensibilidade_ambiental
 10
-9.473289
 20
38.738982
  0
VERTEX
  8
sensibilidade_ambiental
 10
-9.473205
 20
38.738901
  0
VERTEX
  8
sensibilidade_ambiental
 10
-9.473202
 20
38.738891
  0
VERTEX
  8
sensibilidade_ambiental
 10
-9.473217
 20
38.738891
  0
VERTEX
  8
sensibilidade_ambiental
 10
-9.473322
 20
38.738878
  0
VERTEX
  8
sensibilidade_ambiental
 10
-9.473351
 20
38.738845
  0
VERTEX
  8
sensibilidade_ambiental
 10
-9.473352
 20
38.738789
  0
VERTEX
  8
sensibilidade_ambiental
 10
-9.473353
 20
38.738737
  0
VERTEX
  8
sensibilidade_ambiental
 10
-9.473276
 20
38.738661
  0
VERTEX
  8
sensibilidade_ambiental
 10
-9.473256
 20
38.738640
  0
VERTEX
  8
sensibilidade_ambiental
 10
-9.473242
 20
38.738617
  0
VERTEX
  8
sensibilidade_ambiental
 10
-9.473235
 20
38.738548
  0
VERTEX
  8
sensibilidade_ambiental
 10
-9.473229
 20
38.738518
  0
VERTEX
  8
sensibilidade_ambiental
 10
-9.473210
 20
38.738429
  0
VERTEX
  8
sensibilidade_ambiental
 10
-9.473208
 20
38.738407
  0
VERTEX
  8
sensibilidade_ambiental
 10
-9.473203
 20
38.738385
  0
VERTEX
  8
sensibilidade_ambiental
 10
-9.473173
 20
38.738299
  0
VERTEX
  8
sensibilidade_ambiental
 10
-9.473151
 20
38.738262
  0
VERTEX
  8
sensibilidade_ambiental
 10
-9.473099
 20
38.738186
  0
VERTEX
  8
sensibilidade_ambiental
 10
-9.473077
 20
38.738155
  0
VERTEX
  8
sensibilidade_ambiental
 10
-9.473052
 20
38.738128
  0
VERTEX
  8
sensibilidade_ambiental
 10
-9.473032
 20
38.738101
  0
VERTEX
  8
sensibilidade_ambiental
 10
-9.472872
 20
38.737968
  0
VERTEX
  8
sensibilidade_ambiental
 10
-9.472824
 20
38.737897
  0
VERTEX
  8
sensibilidade_ambiental
 10
-9.472814
 20
38.737831
  0
VERTEX
  8
sensibilidade_ambiental
 10
-9.472732
 20
38.737758
  0
VERTEX
  8
sensibilidade_ambiental
 10
-9.472678
 20
38.737715
  0
VERTEX
  8
sensibilidade_ambiental
 10
-9.472660
 20
38.737685
  0
VERTEX
  8
sensibilidade_ambiental
 10
-9.472639
 20
38.737659
  0
VERTEX
  8
sensibilidade_ambiental
 10
-9.472616
 20
38.737626
  0
VERTEX
  8
sensibilidade_ambiental
 10
-9.472609
 20
38.737555
  0
VERTEX
  8
sensibilidade_ambiental
 10
-9.472587
 20
38.737441
  0
VERTEX
  8
sensibilidade_ambiental
 10
-9.472576
 20
38.737396
  0
VERTEX
  8
sensibilidade_ambiental
 10
-9.472555
 20
38.737322
  0
VERTEX
  8
sensibilidade_ambiental
 10
-9.472546
 20
38.737301
  0
VERTEX
  8
sensibilidade_ambiental
 10
-9.472528
 20
38.737224
  0
VERTEX
  8
sensibilidade_ambiental
 10
-9.472525
 20
38.737192
  0
VERTEX
  8
sensibilidade_ambiental
 10
-9.472525
 20
38.737172
  0
VERTEX
  8
sensibilidade_ambiental
 10
-9.472523
 20
38.737157
  0
VERTEX
  8
sensibilidade_ambiental
 10
-9.472505
 20
38.737073
  0
VERTEX
  8
sensibilidade_ambiental
 10
-9.472498
 20
38.737048
  0
VERTEX
  8
sensibilidade_ambiental
 10
-9.472492
 20
38.737005
  0
VERTEX
  8
sensibilidade_ambiental
 10
-9.472452
 20
38.736909
  0
SEQEND
  0
POLYLINE
  8
sensibilidade_ambiental
  6
BYLAYER
 66
1
 70
0
 40
0.000000
 41
0.000000
  0
VERTEX
  8
sensibilidade_ambiental
 10
-9.368024
 20
38.692576
  0
VERTEX
  8
sensibilidade_ambiental
 10
-9.367978
 20
38.692554
  0
VERTEX
  8
sensibilidade_ambiental
 10
-9.367918
 20
38.692545
  0
VERTEX
  8
sensibilidade_ambiental
 10
-9.367790
 20
38.692549
  0
VERTEX
  8
sensibilidade_ambiental
 10
-9.367688
 20
38.692547
  0
VERTEX
  8
sensibilidade_ambiental
 10
-9.367588
 20
38.692520
  0
VERTEX
  8
sensibilidade_ambiental
 10
-9.367424
 20
38.692439
  0
VERTEX
  8
sensibilidade_ambiental
 10
-9.367328
 20
38.692405
  0
VERTEX
  8
sensibilidade_ambiental
 10
-9.367262
 20
38.692381
  0
VERTEX
  8
sensibilidade_ambiental
 10
-9.367031
 20
38.692319
  0
VERTEX
  8
sensibilidade_ambiental
 10
-9.367029
 20
38.692319
  0
VERTEX
  8
sensibilidade_ambiental
 10
-9.366951
 20
38.692302
  0
VERTEX
  8
sensibilidade_ambiental
 10
-9.366887
 20
38.692288
  0
VERTEX
  8
sensibilidade_ambiental
 10
-9.366807
 20
38.692267
  0
SEQEND
  0
POLYLINE
  8
sensibilidade_ambiental
  6
BYLAYER
 66
1
 70
0
 40
0.000000
 41
0.000000
  0
VERTEX
  8
sensibilidade_ambiental
 10
-9.366807
 20
38.692267
  0
VERTEX
  8
sensibilidade_ambiental
 10
-9.366692
 20
38.692236
  0
VERTEX
  8
sensibilidade_ambiental
 10
-9.366515
 20
38.692180
  0
VERTEX
  8
sensibilidade_ambiental
 10
-9.366358
 20
38.692120
  0
VERTEX
  8
sensibilidade_ambiental
 10
-9.366220
 20
38.692061
  0
VERTEX
  8
sensibilidade_ambiental
 10
-9.366054
 20
38.691971
  0
VERTEX
  8
sensibilidade_ambiental
 10
-9.365881
 20
38.691849
  0
VERTEX
  8
sensibilidade_ambiental
 10
-9.365735
 20
38.691703
  0
VERTEX
  8
sensibilidade_ambiental
 10
-9.365703
 20
38.691669
  0
SEQEND
  0
POLYLINE
  8
sensibilidade_ambiental
  6
BYLAYER
 66
1
 70
0
 40
0.000000
 41
0.000000
  0
VERTEX
  8
sensibilidade_ambiental
 10
-9.365703
 20
38.691669
  0
VERTEX
  8
sensibilidade_ambiental
 10
-9.365655
 20
38.691616
  0
VERTEX
  8
sensibilidade_ambiental
 10
-9.365548
 20
38.691486
  0
VERTEX
  8
sensibilidade_ambiental
 10
-9.365469
 20
38.691375
  0
VERTEX
  8
sensibilidade_ambiental
 10
-9.365368
 20
38.691254
  0
VERTEX
  8
sensibilidade_ambiental
 10
-9.365252
 20
38.691150
  0
VERTEX
  8
sensibilidade_ambiental
 10
-9.365107
 20
38.691020
  0
VERTEX
  8
sensibilidade_ambiental
 10
-9.364938
 20
38.690864
  0
VERTEX
  8
sensibilidade_ambiental
 10
-9.364768
 20
38.690716
  0
VERTEX
  8
sensibilidade_ambiental
 10
-9.364589
 20
38.690568
  0
VERTEX
  8
sensibilidade_ambiental
 10
-9.364440
 20
38.690375
  0
VERTEX
  8
sensibilidade_ambiental
 10
-9.364341
 20
38.690217
  0
VERTEX
  8
sensibilidade_ambiental
 10
-9.364203
 20
38.690013
  0
VERTEX
  8
sensibilidade_ambiental
 10
-9.364091
 20
38.689849
  0
VERTEX
  8
sensibilidade_ambiental
 10
-9.364003
 20
38.689750
  0
VERTEX
  8
sensibilidade_ambiental
 10
-9.363940
 20
38.689699
  0
VERTEX
  8
sensibilidade_ambiental
 10
-9.363871
 20
38.689665
  0
VERTEX
  8
sensibilidade_ambiental
 10
-9.363803
 20
38.689663
  0
VERTEX
  8
sensibilidade_ambiental
 10
-9.363680
 20
38.689702
  0
VERTEX
  8
sensibilidade_ambiental
 10
-9.363596
 20
38.689719
  0
VERTEX
  8
sensibilidade_ambiental
 10
-9.363510
 20
38.689718
  0
VERTEX
  8
sensibilidade_ambiental
 10
-9.363379
 20
38.689672
  0
VERTEX
  8
sensibilidade_ambiental
 10
-9.363224
 20
38.689586
  0
VERTEX
  8
sensibilidade_ambiental
 10
-9.363001
 20
38.689475
  0
VERTEX
  8
sensibilidade_ambiental
 10
-9.362887
 20
38.689420
  0
VERTEX
  8
sensibilidade_ambiental
 10
-9.362826
 20
38.689393
  0
VERTEX
  8
sensibilidade_ambiental
 10
-9.362765
 20
38.689356
  0
VERTEX
  8
sensibilidade_ambiental
 10
-9.362663
 20
38.689273
  0
VERTEX
  8
sensibilidade_ambiental
 10
-9.362607
 20
38.689228
  0
VERTEX
  8
sensibilidade_ambiental
 10
-9.362513
 20
38.689155
  0
VERTEX
  8
sensibilidade_ambiental
 10
-9.362353
 20
38.689061
  0
VERTEX
  8
sensibilidade_ambiental
 10
-9.362219
 20
38.689004
  0
VERTEX
  8
sensibilidade_ambiental
 10
-9.362150
 20
38.688984
  0
VERTEX
  8
sensibilidade_ambiental
 10
-9.362055
 20
38.688950
  0
VERTEX
  8
sensibilidade_ambiental
 10
-9.361931
 20
38.688932
  0
VERTEX
  8
sensibilidade_ambiental
 10
-9.361861
 20
38.688916
  0
SEQEND
  0
POLYLINE
  8
sensibilidade_ambiental
  6
BYLAYER
 66
1
 70
1
 40
0.000000
 41
0.000000
  0
VERTEX
  8
sensibilidade_ambiental
 10
-9.370924
 20
38.636204
  0
VERTEX
  8
sensibilidade_ambiental
 10
-9.370893
 20
38.638545
  0
VERTEX
  8
sensibilidade_ambiental
 10
-9.370849
 20
38.638864
  0
VERTEX
  8
sensibilidade_ambiental
 10
-9.370805
 20
38.638944
  0
VERTEX
  8
sensibilidade_ambiental
 10
-9.370805
 20
38.639001
  0
VERTEX
  8
sensibilidade_ambiental
 10
-9.370674
 20
38.639218
  0
VERTEX
  8
sensibilidade_ambiental
 10
-9.370674
 20
38.639264
  0
VERTEX
  8
sensibilidade_ambiental
 10
-9.370630
 20
38.639310
  0
VERTEX
  8
sensibilidade_ambiental
 10
-9.370630
 20
38.639355
  0
VERTEX
  8
sensibilidade_ambiental
 10
-9.370587
 20
38.639412
  0
VERTEX
  8
sensibilidade_ambiental
 10
-9.370586
 20
38.639504
  0
VERTEX
  8
sensibilidade_ambiental
 10
-9.370543
 20
38.639652
  0
VERTEX
  8
sensibilidade_ambiental
 10
-9.370543
 20
38.639938
  0
VERTEX
  8
sensibilidade_ambiental
 10
-9.370499
 20
38.640040
  0
VERTEX
  8
sensibilidade_ambiental
 10
-9.370499
 20
38.640120
  0
VERTEX
  8
sensibilidade_ambiental
 10
-9.370455
 20
38.640177
  0
VERTEX
  8
sensibilidade_ambiental
 10
-9.370455
 20
38.640234
  0
VERTEX
  8
sensibilidade_ambiental
 10
-9.370411
 20
38.640337
  0
VERTEX
  8
sensibilidade_ambiental
 10
-9.370338
 20
38.640451
  0
VERTEX
  8
sensibilidade_ambiental
 10
-9.370236
 20
38.640702
  0
VERTEX
  8
sensibilidade_ambiental
 10
-9.370207
 20
38.640725
  0
VERTEX
  8
sensibilidade_ambiental
 10
-9.370090
 20
38.641011
  0
VERTEX
  8
sensibilidade_ambiental
 10
-9.369974
 20
38.641193
  0
VERTEX
  8
sensibilidade_ambiental
 10
-9.369711
 20
38.641502
  0
VERTEX
  8
sensibilidade_ambiental
 10
-9.369536
 20
38.641833
  0
VERTEX
  8
sensibilidade_ambiental
 10
-9.369493
 20
38.642050
  0
VERTEX
  8
sensibilidade_ambiental
 10
-9.369449
 20
38.642141
  0
VERTEX
  8
sensibilidade_ambiental
 10
-9.369449
 20
38.642209
  0
VERTEX
  8
sensibilidade_ambiental
 10
-9.369318
 20
38.642609
  0
VERTEX
  8
sensibilidade_ambiental
 10
-9.369318
 20
38.642678
  0
VERTEX
  8
sensibilidade_ambiental
 10
-9.369274
 20
38.642780
  0
VERTEX
  8
sensibilidade_ambiental
 10
-9.369230
 20
38.643032
  0
VERTEX
  8
sensibilidade_ambiental
 10
-9.369186
 20
38.643123
  0
VERTEX
  8
sensibilidade_ambiental
 10
-9.369142
 20
38.643374
  0
VERTEX
  8
sensibilidade_ambiental
 10
-9.369098
 20
38.643465
  0
VERTEX
  8
sensibilidade_ambiental
 10
-9.369098
 20
38.643534
  0
VERTEX
  8
sensibilidade_ambiental
 10
-9.369069
 20
38.643568
  0
VERTEX
  8
sensibilidade_ambiental
 10
-9.369055
 20
38.643682
  0
VERTEX
  8
sensibilidade_ambiental
 10
-9.369011
 20
38.643762
  0
VERTEX
  8
sensibilidade_ambiental
 10
-9.369011
 20
38.643831
  0
VERTEX
  8
sensibilidade_ambiental
 10
-9.368967
 20
38.643945
  0
VERTEX
  8
sensibilidade_ambiental
 10
-9.368967
 20
38.644048
  0
VERTEX
  8
sensibilidade_ambiental
 10
-9.368923
 20
38.644219
  0
VERTEX
  8
sensibilidade_ambiental
 10
-9.368908
 20
38.644710
  0
VERTEX
  8
sensibilidade_ambiental
 10
-9.368791
 20
38.645189
  0
VERTEX
  8
sensibilidade_ambiental
 10
-9.368704
 20
38.645338
  0
VERTEX
  8
sensibilidade_ambiental
 10
-9.368704
 20
38.645384
  0
VERTEX
  8
sensibilidade_ambiental
 10
-9.368660
 20
38.645441
  0
VERTEX
  8
sensibilidade_ambiental
 10
-9.368529
 20
38.645749
  0
VERTEX
  8
sensibilidade_ambiental
 10
-9.368485
 20
38.645909
  0
VERTEX
  8
sensibilidade_ambiental
 10
-9.368383
 20
38.646012
  0
VERTEX
  8
sensibilidade_ambiental
 10
-9.368077
 20
38.646171
  0
VERTEX
  8
sensibilidade_ambiental
 10
-9.368049
 20
38.646189
  0
VERTEX
  8
sensibilidade_ambiental
 10
-9.368004
 20
38.646217
  0
VERTEX
  8
sensibilidade_ambiental
 10
-9.367538
 20
38.646434
  0
VERTEX
  8
sensibilidade_ambiental
 10
-9.367364
 20
38.646559
  0
VERTEX
  8
sensibilidade_ambiental
 10
-9.367261
 20
38.646673
  0
VERTEX
  8
sensibilidade_ambiental
 10
-9.367174
 20
38.646913
  0
VERTEX
  8
sensibilidade_ambiental
 10
-9.367174
 20
38.647073
  0
VERTEX
  8
sensibilidade_ambiental
 10
-9.367246
 20
38.647256
  0
VERTEX
  8
sensibilidade_ambiental
 10
-9.367246
 20
38.647415
  0
VERTEX
  8
sensibilidade_ambiental
 10
-9.367217
 20
38.647553
  0
VERTEX
  8
sensibilidade_ambiental
 10
-9.367173
 20
38.647598
  0
VERTEX
  8
sensibilidade_ambiental
 10
-9.367173
 20
38.647632
  0
VERTEX
  8
sensibilidade_ambiental
 10
-9.367101
 20
38.647690
  0
VERTEX
  8
sensibilidade_ambiental
 10
-9.366999
 20
38.647735
  0
VERTEX
  8
sensibilidade_ambiental
 10
-9.366620
 20
38.647746
  0
VERTEX
  8
sensibilidade_ambiental
 10
-9.366183
 20
38.647803
  0
VERTEX
  8
sensibilidade_ambiental
 10
-9.366096
 20
38.647837
  0
VERTEX
  8
sensibilidade_ambiental
 10
-9.366037
 20
38.647837
  0
VERTEX
  8
sensibilidade_ambiental
 10
-9.365615
 20
38.647986
  0
VERTEX
  8
sensibilidade_ambiental
 10
-9.365498
 20
38.648043
  0
VERTEX
  8
sensibilidade_ambiental
 10
-9.364697
 20
38.648771
  0
VERTEX
  8
sensibilidade_ambiental
 10
-9.364683
 20
38.648785
  0
VERTEX
  8
sensibilidade_ambiental
 10
-9.364668
 20
38.648796
  0
VERTEX
  8
sensibilidade_ambiental
 10
-9.364581
 20
38.648876
  0
VERTEX
  8
sensibilidade_ambiental
 10
-9.364542
 20
38.648906
  0
VERTEX
  8
sensibilidade_ambiental
 10
-9.364508
 20
38.648933
  0
VERTEX
  8
sensibilidade_ambiental
 10
-9.364114
 20
38.649355
  0
VERTEX
  8
sensibilidade_ambiental
 10
-9.363983
 20
38.649538
  0
VERTEX
  8
sensibilidade_ambiental
 10
-9.363837
 20
38.649880
  0
VERTEX
  8
sensibilidade_ambiental
 10
-9.363691
 20
38.650063
  0
VERTEX
  8
sensibilidade_ambiental
 10
-9.363444
 20
38.650268
  0
VERTEX
  8
sensibilidade_ambiental
 10
-9.363123
 20
38.650451
  0
VERTEX
  8
sensibilidade_ambiental
 10
-9.362861
 20
38.650656
  0
VERTEX
  8
sensibilidade_ambiental
 10
-9.361899
 20
38.651615
  0
VERTEX
  8
sensibilidade_ambiental
 10
-9.361535
 20
38.652129
  0
VERTEX
  8
sensibilidade_ambiental
 10
-9.361360
 20
38.652448
  0
VERTEX
  8
sensibilidade_ambiental
 10
-9.361053
 20
38.652928
  0
VERTEX
  8
sensibilidade_ambiental
 10
-9.360893
 20
38.653122
  0
VERTEX
  8
sensibilidade_ambiental
 10
-9.360674
 20
38.653442
  0
VERTEX
  8
sensibilidade_ambiental
 10
-9.360368
 20
38.653773
  0
VERTEX
  8
sensibilidade_ambiental
 10
-9.359712
 20
38.654412
  0
VERTEX
  8
sensibilidade_ambiental
 10
-9.359188
 20
38.654994
  0
VERTEX
  8
sensibilidade_ambiental
 10
-9.358881
 20
38.655279
  0
VERTEX
  8
sensibilidade_ambiental
 10
-9.358648
 20
38.655599
  0
VERTEX
  8
sensibilidade_ambiental
 10
-9.358546
 20
38.655838
  0
VERTEX
  8
sensibilidade_ambiental
 10
-9.358517
 20
38.655861
  0
VERTEX
  8
sensibilidade_ambiental
 10
-9.358517
 20
38.655918
  0
VERTEX
  8
sensibilidade_ambiental
 10
-9.358473
 20
38.655987
  0
VERTEX
  8
sensibilidade_ambiental
 10
-9.358385
 20
38.656272
  0
VERTEX
  8
sensibilidade_ambiental
 10
-9.358342
 20
38.656329
  0
VERTEX
  8
sensibilidade_ambiental
 10
-9.358327
 20
38.656421
  0
VERTEX
  8
sensibilidade_ambiental
 10
-9.358254
 20
38.656569
  0
VERTEX
  8
sensibilidade_ambiental
 10
-9.358254
 20
38.656615
  0
VERTEX
  8
sensibilidade_ambiental
 10
-9.358210
 20
38.656672
  0
VERTEX
  8
sensibilidade_ambiental
 10
-9.358210
 20
38.656729
  0
VERTEX
  8
sensibilidade_ambiental
 10
-9.358167
 20
38.656797
  0
VERTEX
  8
sensibilidade_ambiental
 10
-9.358035
 20
38.657151
  0
VERTEX
  8
sensibilidade_ambiental
 10
-9.357729
 20
38.657711
  0
VERTEX
  8
sensibilidade_ambiental
 10
-9.357641
 20
38.658053
  0
VERTEX
  8
sensibilidade_ambiental
 10
-9.357612
 20
38.658316
  0
VERTEX
  8
sensibilidade_ambiental
 10
-9.357641
 20
38.658339
  0
VERTEX
  8
sensibilidade_ambiental
 10
-9.357612
 20
38.658362
  0
VERTEX
  8
sensibilidade_ambiental
 10
-9.357597
 20
38.658487
  0
VERTEX
  8
sensibilidade_ambiental
 10
-9.357640
 20
38.658898
  0
VERTEX
  8
sensibilidade_ambiental
 10
-9.357684
 20
38.659047
  0
VERTEX
  8
sensibilidade_ambiental
 10
-9.357683
 20
38.659800
  0
VERTEX
  8
sensibilidade_ambiental
 10
-9.357727
 20
38.659880
  0
VERTEX
  8
sensibilidade_ambiental
 10
-9.357727
 20
38.659960
  0
VERTEX
  8
sensibilidade_ambiental
 10
-9.357770
 20
38.660063
  0
VERTEX
  8
sensibilidade_ambiental
 10
-9.357785
 20
38.660234
  0
VERTEX
  8
sensibilidade_ambiental
 10
-9.357872
 20
38.660360
  0
VERTEX
  8
sensibilidade_ambiental
 10
-9.358091
 20
38.660509
  0
VERTEX
  8
sensibilidade_ambiental
 10
-9.358265
 20
38.660532
  0
VERTEX
  8
sensibilidade_ambiental
 10
-9.358688
 20
38.660475
  0
VERTEX
  8
sensibilidade_ambiental
 10
-9.358892
 20
38.660406
  0
VERTEX
  8
sensibilidade_ambiental
 10
-9.358950
 20
38.660406
  0
VERTEX
  8
sensibilidade_ambiental
 10
-9.359008
 20
38.660372
  0
VERTEX
  8
sensibilidade_ambiental
 10
-9.359256
 20
38.660304
  0
VERTEX
  8
sensibilidade_ambiental
 10
-9.359299
 20
38.660269
  0
VERTEX
  8
sensibilidade_ambiental
 10
-9.359562
 20
38.660167
  0
VERTEX
  8
sensibilidade_ambiental
 10
-9.359664
 20
38.660155
  0
VERTEX
  8
sensibilidade_ambiental
 10
-9.359911
 20
38.660167
  0
VERTEX
  8
sensibilidade_ambiental
 10
-9.360159
 20
38.660258
  0
VERTEX
  8
sensibilidade_ambiental
 10
-9.361091
 20
38.660716
  0
VERTEX
  8
sensibilidade_ambiental
 10
-9.361163
 20
38.660716
  0
VERTEX
  8
sensibilidade_ambiental
 10
-9.361236
 20
38.660750
  0
VERTEX
  8
sensibilidade_ambiental
 10
-9.361382
 20
38.660762
  0
VERTEX
  8
sensibilidade_ambiental
 10
-9.361425
 20
38.660784
  0
VERTEX
  8
sensibilidade_ambiental
 10
-9.361498
 20
38.660784
  0
VERTEX
  8
sensibilidade_ambiental
 10
-9.361775
 20
38.660853
  0
VERTEX
  8
sensibilidade_ambiental
 10
-9.361935
 20
38.660967
  0
VERTEX
  8
sensibilidade_ambiental
 10
-9.362095
 20
38.661139
  0
VERTEX
  8
sensibilidade_ambiental
 10
-9.362182
 20
38.661310
  0
VERTEX
  8
sensibilidade_ambiental
 10
-9.362197
 20
38.661459
  0
VERTEX
  8
sensibilidade_ambiental
 10
-9.362182
 20
38.661607
  0
VERTEX
  8
sensibilidade_ambiental
 10
-9.361963
 20
38.661949
  0
VERTEX
  8
sensibilidade_ambiental
 10
-9.361788
 20
38.662360
  0
VERTEX
  8
sensibilidade_ambiental
 10
-9.361730
 20
38.662417
  0
VERTEX
  8
sensibilidade_ambiental
 10
-9.361599
 20
38.662486
  0
VERTEX
  8
sensibilidade_ambiental
 10
-9.361351
 20
38.662531
  0
VERTEX
  8
sensibilidade_ambiental
 10
-9.361045
 20
38.662497
  0
VERTEX
  8
sensibilidade_ambiental
 10
-9.360783
 20
38.662428
  0
VERTEX
  8
sensibilidade_ambiental
 10
-9.360652
 20
38.662326
  0
VERTEX
  8
sensibilidade_ambiental
 10
-9.360579
 20
38.662223
  0
VERTEX
  8
sensibilidade_ambiental
 10
-9.360521
 20
38.661983
  0
VERTEX
  8
sensibilidade_ambiental
 10
-9.360522
 20
38.661766
  0
VERTEX
  8
sensibilidade_ambiental
 10
-9.360420
 20
38.661675
  0
VERTEX
  8
sensibilidade_ambiental
 10
-9.360318
 20
38.661640
  0
VERTEX
  8
sensibilidade_ambiental
 10
-9.360216
 20
38.661640
  0
VERTEX
  8
sensibilidade_ambiental
 10
-9.360056
 20
38.661606
  0
VERTEX
  8
sensibilidade_ambiental
 10
-9.359866
 20
38.661606
  0
VERTEX
  8
sensibilidade_ambiental
 10
-9.359764
 20
38.661640
  0
VERTEX
  8
sensibilidade_ambiental
 10
-9.359706
 20
38.661640
  0
VERTEX
  8
sensibilidade_ambiental
 10
-9.359531
 20
38.661708
  0
VERTEX
  8
sensibilidade_ambiental
 10
-9.359298
 20
38.661948
  0
VERTEX
  8
sensibilidade_ambiental
 10
-9.359211
 20
38.662074
  0
VERTEX
  8
sensibilidade_ambiental
 10
-9.359123
 20
38.662279
  0
VERTEX
  8
sensibilidade_ambiental
 10
-9.358831
 20
38.662564
  0
VERTEX
  8
sensibilidade_ambiental
 10
-9.358671
 20
38.662758
  0
VERTEX
  8
sensibilidade_ambiental
 10
-9.358569
 20
38.662953
  0
VERTEX
  8
sensibilidade_ambiental
 10
-9.358510
 20
38.663192
  0
VERTEX
  8
sensibilidade_ambiental
 10
-9.358350
 20
38.663329
  0
VERTEX
  8
sensibilidade_ambiental
 10
-9.357986
 20
38.663523
  0
VERTEX
  8
sensibilidade_ambiental
 10
-9.357942
 20
38.663523
  0
VERTEX
  8
sensibilidade_ambiental
 10
-9.357840
 20
38.663580
  0
VERTEX
  8
sensibilidade_ambiental
 10
-9.357738
 20
38.663603
  0
VERTEX
  8
sensibilidade_ambiental
 10
-9.357359
 20
38.663763
  0
VERTEX
  8
sensibilidade_ambiental
 10
-9.357083
 20
38.663831
  0
VERTEX
  8
sensibilidade_ambiental
 10
-9.357010
 20
38.663865
  0
VERTEX
  8
sensibilidade_ambiental
 10
-9.356937
 20
38.663865
  0
VERTEX
  8
sensibilidade_ambiental
 10
-9.356835
 20
38.663899
  0
VERTEX
  8
sensibilidade_ambiental
 10
-9.356529
 20
38.663899
  0
VERTEX
  8
sensibilidade_ambiental
 10
-9.356354
 20
38.663831
  0
VERTEX
  8
sensibilidade_ambiental
 10
-9.356209
 20
38.663831
  0
VERTEX
  8
sensibilidade_ambiental
 10
-9.356034
 20
38.663910
  0
VERTEX
  8
sensibilidade_ambiental
 10
-9.355961
 20
38.664024
  0
VERTEX
  8
sensibilidade_ambiental
 10
-9.355961
 20
38.664139
  0
VERTEX
  8
sensibilidade_ambiental
 10
-9.356019
 20
38.664321
  0
VERTEX
  8
sensibilidade_ambiental
 10
-9.356019
 20
38.664401
  0
VERTEX
  8
sensibilidade_ambiental
 10
-9.356063
 20
38.664493
  0
VERTEX
  8
sensibilidade_ambiental
 10
-9.356106
 20
38.664961
  0
VERTEX
  8
sensibilidade_ambiental
 10
-9.356062
 20
38.665064
  0
VERTEX
  8
sensibilidade_ambiental
 10
-9.355887
 20
38.665189
  0
VERTEX
  8
sensibilidade_ambiental
 10
-9.355610
 20
38.665269
  0
VERTEX
  8
sensibilidade_ambiental
 10
-9.354926
 20
38.665234
  0
VERTEX
  8
sensibilidade_ambiental
 10
-9.354620
 20
38.665166
  0
VERTEX
  8
sensibilidade_ambiental
 10
-9.354562
 20
38.665131
  0
VERTEX
  8
sensibilidade_ambiental
 10
-9.354518
 20
38.665131
  0
VERTEX
  8
sensibilidade_ambiental
 10
-9.354343
 20
38.665063
  0
VERTEX
  8
sensibilidade_ambiental
 10
-9.354198
 20
38.665028
  0
VERTEX
  8
sensibilidade_ambiental
 10
-9.354096
 20
38.665028
  0
VERTEX
  8
sensibilidade_ambiental
 10
-9.353921
 20
38.664994
  0
VERTEX
  8
sensibilidade_ambiental
 10
-9.353499
 20
38.664994
  0
VERTEX
  8
sensibilidade_ambiental
 10
-9.353309
 20
38.665028
  0
VERTEX
  8
sensibilidade_ambiental
 10
-9.353149
 20
38.665028
  0
VERTEX
  8
sensibilidade_ambiental
 10
-9.352901
 20
38.665062
  0
VERTEX
  8
sensibilidade_ambiental
 10
-9.352829
 20
38.665096
  0
VERTEX
  8
sensibilidade_ambiental
 10
-9.352785
 20
38.665096
  0
VERTEX
  8
sensibilidade_ambiental
 10
-9.352318
 20
38.665450
  0
VERTEX
  8
sensibilidade_ambiental
 10
-9.352250
 20
38.665488
  0
VERTEX
  8
sensibilidade_ambiental
 10
-9.352216
 20
38.665507
  0
VERTEX
  8
sensibilidade_ambiental
 10
-9.351386
 20
38.666157
  0
VERTEX
  8
sensibilidade_ambiental
 10
-9.351363
 20
38.666175
  0
VERTEX
  8
sensibilidade_ambiental
 10
-9.351313
 20
38.666214
  0
VERTEX
  8
sensibilidade_ambiental
 10
-9.350468
 20
38.666693
  0
VERTEX
  8
sensibilidade_ambiental
 10
-9.349972
 20
38.666910
  0
VERTEX
  8
sensibilidade_ambiental
 10
-9.349914
 20
38.666910
  0
VERTEX
  8
sensibilidade_ambiental
 10
-9.349841
 20
38.666944
  0
VERTEX
  8
sensibilidade_ambiental
 10
-9.349768
 20
38.666944
  0
VERTEX
  8
sensibilidade_ambiental
 10
-9.349724
 20
38.666967
  0
VERTEX
  8
sensibilidade_ambiental
 10
-9.349564
 20
38.666978
  0
VERTEX
  8
sensibilidade_ambiental
 10
-9.349462
 20
38.667013
  0
VERTEX
  8
sensibilidade_ambiental
 10
-9.348850
 20
38.667035
  0
VERTEX
  8
sensibilidade_ambiental
 10
-9.348778
 20
38.667046
  0
VERTEX
  8
sensibilidade_ambiental
 10
-9.348676
 20
38.667092
  0
VERTEX
  8
sensibilidade_ambiental
 10
-9.348515
 20
38.667206
  0
VERTEX
  8
sensibilidade_ambiental
 10
-9.348369
 20
38.667366
  0
VERTEX
  8
sensibilidade_ambiental
 10
-9.348296
 20
38.667537
  0
VERTEX
  8
sensibilidade_ambiental
 10
-9.348282
 20
38.667743
  0
VERTEX
  8
sensibilidade_ambiental
 10
-9.348165
 20
38.667845
  0
VERTEX
  8
sensibilidade_ambiental
 10
-9.348048
 20
38.667902
  0
VERTEX
  8
sensibilidade_ambiental
 10
-9.347976
 20
38.667925
  0
VERTEX
  8
sensibilidade_ambiental
 10
-9.347713
 20
38.667948
  0
VERTEX
  8
sensibilidade_ambiental
 10
-9.347204
 20
38.667947
  0
VERTEX
  8
sensibilidade_ambiental
 10
-9.347102
 20
38.667970
  0
VERTEX
  8
sensibilidade_ambiental
 10
-9.346956
 20
38.667970
  0
VERTEX
  8
sensibilidade_ambiental
 10
-9.346519
 20
38.668073
  0
VERTEX
  8
sensibilidade_ambiental
 10
-9.346461
 20
38.668073
  0
VERTEX
  8
sensibilidade_ambiental
 10
-9.345543
 20
38.668312
  0
VERTEX
  8
sensibilidade_ambiental
 10
-9.345484
 20
38.668346
  0
VERTEX
  8
sensibilidade_ambiental
 10
-9.345237
 20
38.668414
  0
VERTEX
  8
sensibilidade_ambiental
 10
-9.344916
 20
38.668551
  0
VERTEX
  8
sensibilidade_ambiental
 10
-9.343998
 20
38.668790
  0
VERTEX
  8
sensibilidade_ambiental
 10
-9.343503
 20
38.668961
  0
VERTEX
  8
sensibilidade_ambiental
 10
-9.343416
 20
38.668961
  0
VERTEX
  8
sensibilidade_ambiental
 10
-9.343328
 20
38.668996
  0
VERTEX
  8
sensibilidade_ambiental
 10
-9.343081
 20
38.669030
  0
VERTEX
  8
sensibilidade_ambiental
 10
-9.342993
 20
38.669064
  0
VERTEX
  8
sensibilidade_ambiental
 10
-9.342760
 20
38.669098
  0
VERTEX
  8
sensibilidade_ambiental
 10
-9.342687
 20
38.669132
  0
VERTEX
  8
sensibilidade_ambiental
 10
-9.342629
 20
38.669132
  0
VERTEX
  8
sensibilidade_ambiental
 10
-9.342556
 20
38.669166
  0
VERTEX
  8
sensibilidade_ambiental
 10
-9.342381
 20
38.669200
  0
VERTEX
  8
sensibilidade_ambiental
 10
-9.341915
 20
38.669371
  0
VERTEX
  8
sensibilidade_ambiental
 10
-9.341842
 20
38.669417
  0
VERTEX
  8
sensibilidade_ambiental
 10
-9.341361
 20
38.669611
  0
VERTEX
  8
sensibilidade_ambiental
 10
-9.341055
 20
38.669713
  0
VERTEX
  8
sensibilidade_ambiental
 10
-9.340997
 20
38.669713
  0
VERTEX
  8
sensibilidade_ambiental
 10
-9.340924
 20
38.669748
  0
VERTEX
  8
sensibilidade_ambiental
 10
-9.340866
 20
38.669748
  0
VERTEX
  8
sensibilidade_ambiental
 10
-9.340764
 20
38.669782
  0
VERTEX
  8
sensibilidade_ambiental
 10
-9.340472
 20
38.669816
  0
VERTEX
  8
sensibilidade_ambiental
 10
-9.339846
 20
38.670055
  0
VERTEX
  8
sensibilidade_ambiental
 10
-9.339802
 20
38.670089
  0
VERTEX
  8
sensibilidade_ambiental
 10
-9.339073
 20
38.670374
  0
VERTEX
  8
sensibilidade_ambiental
 10
-9.338971
 20
38.670431
  0
VERTEX
  8
sensibilidade_ambiental
 10
-9.338928
 20
38.670431
  0
VERTEX
  8
sensibilidade_ambiental
 10
-9.338884
 20
38.670466
  0
VERTEX
  8
sensibilidade_ambiental
 10
-9.338767
 20
38.670500
  0
VERTEX
  8
sensibilidade_ambiental
 10
-9.337951
 20
38.670876
  0
VERTEX
  8
sensibilidade_ambiental
 10
-9.337820
 20
38.670990
  0
VERTEX
  8
sensibilidade_ambiental
 10
-9.337689
 20
38.671264
  0
VERTEX
  8
sensibilidade_ambiental
 10
-9.337685
 20
38.671273
  0
VERTEX
  8
sensibilidade_ambiental
 10
-9.337674
 20
38.671298
  0
VERTEX
  8
sensibilidade_ambiental
 10
-9.337601
 20
38.671527
  0
VERTEX
  8
sensibilidade_ambiental
 10
-9.337601
 20
38.671536
  0
VERTEX
  8
sensibilidade_ambiental
 10
-9.327746
 20
38.666826
  0
VERTEX
  8
sensibilidade_ambiental
 10
-9.327935
 20
38.666495
  0
VERTEX
  8
sensibilidade_ambiental
 10
-9.328154
 20
38.666221
  0
VERTEX
  8
sensibilidade_ambiental
 10
-9.328329
 20
38.666050
  0
VERTEX
  8
sensibilidade_ambiental
 10
-9.329015
 20
38.665502
  0
VERTEX
  8
sensibilidade_ambiental
 10
-9.329055
 20
38.665480
  0
VERTEX
  8
sensibilidade_ambiental
 10
-9.329117
 20
38.665445
  0
VERTEX
  8
sensibilidade_ambiental
 10
-9.330123
 20
38.664692
  0
VERTEX
  8
sensibilidade_ambiental
 10
-9.330735
 20
38.664282
  0
VERTEX
  8
sensibilidade_ambiental
 10
-9.331318
 20
38.663951
  0
VERTEX
  8
sensibilidade_ambiental
 10
-9.331697
 20
38.663780
  0
VERTEX
  8
sensibilidade_ambiental
 10
-9.331959
 20
38.663678
  0
VERTEX
  8
sensibilidade_ambiental
 10
-9.332105
 20
38.663643
  0
VERTEX
  8
sensibilidade_ambiental
 10
-9.332163
 20
38.663609
  0
VERTEX
  8
sensibilidade_ambiental
 10
-9.332338
 20
38.663575
  0
VERTEX
  8
sensibilidade_ambiental
 10
-9.332396
 20
38.663541
  0
VERTEX
  8
sensibilidade_ambiental
 10
-9.332454
 20
38.663541
  0
VERTEX
  8
sensibilidade_ambiental
 10
-9.332542
 20
38.663507
  0
VERTEX
  8
sensibilidade_ambiental
 10
-9.332833
 20
38.663461
  0
VERTEX
  8
sensibilidade_ambiental
 10
-9.333431
 20
38.663268
  0
VERTEX
  8
sensibilidade_ambiental
 10
-9.333474
 20
38.663268
  0
VERTEX
  8
sensibilidade_ambiental
 10
-9.334028
 20
38.663040
  0
VERTEX
  8
sensibilidade_ambiental
 10
-9.334640
 20
38.662686
  0
VERTEX
  8
sensibilidade_ambiental
 10
-9.334679
 20
38.662662
  0
VERTEX
  8
sensibilidade_ambiental
 10
-9.334713
 20
38.662641
  0
VERTEX
  8
sensibilidade_ambiental
 10
-9.335806
 20
38.662048
  0
VERTEX
  8
sensibilidade_ambiental
 10
-9.336170
 20
38.661819
  0
VERTEX
  8
sensibilidade_ambiental
 10
-9.337176
 20
38.661135
  0
VERTEX
  8
sensibilidade_ambiental
 10
-9.338226
 20
38.660348
  0
VERTEX
  8
sensibilidade_ambiental
 10
-9.339013
 20
38.659846
  0
VERTEX
  8
sensibilidade_ambiental
 10
-9.339056
 20
38.659835
  0
VERTEX
  8
sensibilidade_ambiental
 10
-9.339435
 20
38.659595
  0
VERTEX
  8
sensibilidade_ambiental
 10
-9.340222
 20
38.659184
  0
VERTEX
  8
sensibilidade_ambiental
 10
-9.342670
 20
38.657747
  0
VERTEX
  8
sensibilidade_ambiental
 10
-9.343297
 20
38.657405
  0
VERTEX
  8
sensibilidade_ambiental
 10
-9.344113
 20
38.656892
  0
VERTEX
  8
sensibilidade_ambiental
 10
-9.344638
 20
38.656493
  0
VERTEX
  8
sensibilidade_ambiental
 10
-9.345075
 20
38.656105
  0
VERTEX
  8
sensibilidade_ambiental
 10
-9.346197
 20
38.655249
  0
VERTEX
  8
sensibilidade_ambiental
 10
-9.346605
 20
38.654872
  0
VERTEX
  8
sensibilidade_ambiental
 10
-9.346912
 20
38.654644
  0
VERTEX
  8
sensibilidade_ambiental
 10
-9.347698
 20
38.654245
  0
VERTEX
  8
sensibilidade_ambiental
 10
-9.348339
 20
38.653811
  0
VERTEX
  8
sensibilidade_ambiental
 10
-9.349272
 20
38.653298
  0
VERTEX
  8
sensibilidade_ambiental
 10
-9.349520
 20
38.653127
  0
VERTEX
  8
sensibilidade_ambiental
 10
-9.350175
 20
38.652728
  0
VERTEX
  8
sensibilidade_ambiental
 10
-9.351341
 20
38.652203
  0
VERTEX
  8
sensibilidade_ambiental
 10
-9.351372
 20
38.652185
  0
VERTEX
  8
sensibilidade_ambiental
 10
-9.351399
 20
38.652169
  0
VERTEX
  8
sensibilidade_ambiental
 10
-9.352638
 20
38.651519
  0
VERTEX
  8
sensibilidade_ambiental
 10
-9.353322
 20
38.651005
  0
VERTEX
  8
sensibilidade_ambiental
 10
-9.354270
 20
38.650424
  0
VERTEX
  8
sensibilidade_ambiental
 10
-9.355231
 20
38.649773
  0
VERTEX
  8
sensibilidade_ambiental
 10
-9.355785
 20
38.649328
  0
VERTEX
  8
sensibilidade_ambiental
 10
-9.356120
 20
38.649123
  0
VERTEX
  8
sensibilidade_ambiental
 10
-9.356339
 20
38.649032
  0
VERTEX
  8
sensibilidade_ambiental
 10
-9.356369
 20
38.649013
  0
VERTEX
  8
sensibilidade_ambiental
 10
-9.356411
 20
38.648986
  0
VERTEX
  8
sensibilidade_ambiental
 10
-9.356543
 20
38.648929
  0
VERTEX
  8
sensibilidade_ambiental
 10
-9.356621
 20
38.648898
  0
VERTEX
  8
sensibilidade_ambiental
 10
-9.356688
 20
38.648872
  0
VERTEX
  8
sensibilidade_ambiental
 10
-9.357067
 20
38.648644
  0
VERTEX
  8
sensibilidade_ambiental
 10
-9.357839
 20
38.648016
  0
VERTEX
  8
sensibilidade_ambiental
 10
-9.358539
 20
38.647366
  0
VERTEX
  8
sensibilidade_ambiental
 10
-9.358932
 20
38.646932
  0
VERTEX
  8
sensibilidade_ambiental
 10
-9.359268
 20
38.646521
  0
VERTEX
  8
sensibilidade_ambiental
 10
-9.359282
 20
38.646475
  0
VERTEX
  8
sensibilidade_ambiental
 10
-9.359894
 20
38.645653
  0
VERTEX
  8
sensibilidade_ambiental
 10
-9.360142
 20
38.645368
  0
VERTEX
  8
sensibilidade_ambiental
 10
-9.360419
 20
38.645003
  0
VERTEX
  8
sensibilidade_ambiental
 10
-9.361163
 20
38.644158
  0
VERTEX
  8
sensibilidade_ambiental
 10
-9.362343
 20
38.642891
  0
VERTEX
  8
sensibilidade_ambiental
 10
-9.363771
 20
38.641179
  0
VERTEX
  8
sensibilidade_ambiental
 10
-9.363786
 20
38.641133
  0
VERTEX
  8
sensibilidade_ambiental
 10
-9.363990
 20
38.640882
  0
VERTEX
  8
sensibilidade_ambiental
 10
-9.364267
 20
38.640483
  0
VERTEX
  8
sensibilidade_ambiental
 10
-9.364777
 20
38.639855
  0
VERTEX
  8
sensibilidade_ambiental
 10
-9.365171
 20
38.639227
  0
VERTEX
  8
sensibilidade_ambiental
 10
-9.365171
 20
38.639193
  0
VERTEX
  8
sensibilidade_ambiental
 10
-9.365885
 20
38.638097
  0
VERTEX
  8
sensibilidade_ambiental
 10
-9.365925
 20
38.638089
  0
VERTEX
  8
sensibilidade_ambiental
 10
-9.365899
 20
38.638063
  0
VERTEX
  8
sensibilidade_ambiental
 10
-9.366002
 20
38.637777
  0
VERTEX
  8
sensibilidade_ambiental
 10
-9.366002
 20
38.637754
  0
VERTEX
  8
sensibilidade_ambiental
 10
-9.366005
 20
38.637741
  0
VERTEX
  8
sensibilidade_ambiental
 10
-9.366060
 20
38.637549
  0
VERTEX
  8
sensibilidade_ambiental
 10
-9.366075
 20
38.637526
  0
VERTEX
  8
sensibilidade_ambiental
 10
-9.366076
 20
38.637520
  0
VERTEX
  8
sensibilidade_ambiental
 10
-9.366177
 20
38.637138
  0
VERTEX
  8
sensibilidade_ambiental
 10
-9.366265
 20
38.636350
  0
VERTEX
  8
sensibilidade_ambiental
 10
-9.366527
 20
38.635597
  0
VERTEX
  8
sensibilidade_ambiental
 10
-9.366542
 20
38.635242
  0
VERTEX
  8
sensibilidade_ambiental
 10
-9.366528
 20
38.634889
  0
VERTEX
  8
sensibilidade_ambiental
 10
-9.366586
 20
38.634614
  0
VERTEX
  8
sensibilidade_ambiental
 10
-9.366587
 20
38.634318
  0
VERTEX
  8
sensibilidade_ambiental
 10
-9.366529
 20
38.634078
  0
VERTEX
  8
sensibilidade_ambiental
 10
-9.366485
 20
38.634021
  0
VERTEX
  8
sensibilidade_ambiental
 10
-9.366485
 20
38.633975
  0
VERTEX
  8
sensibilidade_ambiental
 10
-9.366179
 20
38.633575
  0
VERTEX
  8
sensibilidade_ambiental
 10
-9.366180
 20
38.633529
  0
VERTEX
  8
sensibilidade_ambiental
 10
-9.366136
 20
38.633450
  0
VERTEX
  8
sensibilidade_ambiental
 10
-9.366122
 20
38.633210
  0
VERTEX
  8
sensibilidade_ambiental
 10
-9.366136
 20
38.633004
  0
VERTEX
  8
sensibilidade_ambiental
 10
-9.366355
 20
38.632342
  0
VERTEX
  8
sensibilidade_ambiental
 10
-9.366360
 20
38.632330
  0
VERTEX
  8
sensibilidade_ambiental
 10
-9.366370
 20
38.632308
  0
VERTEX
  8
sensibilidade_ambiental
 10
-9.366399
 20
38.631942
  0
VERTEX
  8
sensibilidade_ambiental
 10
-9.366370
 20
38.631794
  0
VERTEX
  8
sensibilidade_ambiental
 10
-9.366385
 20
38.631520
  0
VERTEX
  8
sensibilidade_ambiental
 10
-9.366400
 20
38.631428
  0
VERTEX
  8
sensibilidade_ambiental
 10
-9.366443
 20
38.631383
  0
VERTEX
  8
sensibilidade_ambiental
 10
-9.366443
 20
38.631337
  0
VERTEX
  8
sensibilidade_ambiental
 10
-9.366487
 20
38.631291
  0
VERTEX
  8
sensibilidade_ambiental
 10
-9.366487
 20
38.631257
  0
VERTEX
  8
sensibilidade_ambiental
 10
-9.366545
 20
38.631166
  0
VERTEX
  8
sensibilidade_ambiental
 10
-9.366662
 20
38.631086
  0
VERTEX
  8
sensibilidade_ambiental
 10
-9.366764
 20
38.631052
  0
VERTEX
  8
sensibilidade_ambiental
 10
-9.366938
 20
38.631018
  0
VERTEX
  8
sensibilidade_ambiental
 10
-9.367288
 20
38.630995
  0
VERTEX
  8
sensibilidade_ambiental
 10
-9.367419
 20
38.630961
  0
VERTEX
  8
sensibilidade_ambiental
 10
-9.367550
 20
38.630869
  0
VERTEX
  8
sensibilidade_ambiental
 10
-9.367594
 20
38.630801
  0
VERTEX
  8
sensibilidade_ambiental
 10
-9.367725
 20
38.630698
  0
VERTEX
  8
sensibilidade_ambiental
 10
-9.367900
 20
38.630607
  0
VERTEX
  8
sensibilidade_ambiental
 10
-9.367987
 20
38.630596
  0
VERTEX
  8
sensibilidade_ambiental
 10
-9.368025
 20
38.630581
  0
VERTEX
  8
sensibilidade_ambiental
 10
-9.368045
 20
38.630573
  0
VERTEX
  8
sensibilidade_ambiental
 10
-9.368293
 20
38.630630
  0
VERTEX
  8
sensibilidade_ambiental
 10
-9.368380
 20
38.630687
  0
VERTEX
  8
sensibilidade_ambiental
 10
-9.368482
 20
38.630824
  0
VERTEX
  8
sensibilidade_ambiental
 10
-9.368496
 20
38.631395
  0
VERTEX
  8
sensibilidade_ambiental
 10
-9.368569
 20
38.631567
  0
VERTEX
  8
sensibilidade_ambiental
 10
-9.368918
 20
38.631852
  0
VERTEX
  8
sensibilidade_ambiental
 10
-9.369398
 20
38.632218
  0
VERTEX
  8
sensibilidade_ambiental
 10
-9.369471
 20
38.632309
  0
VERTEX
  8
sensibilidade_ambiental
 10
-9.369507
 20
38.632332
  0
VERTEX
  8
sensibilidade_ambiental
 10
-9.369543
 20
38.632355
  0
VERTEX
  8
sensibilidade_ambiental
 10
-9.369921
 20
38.632915
  0
VERTEX
  8
sensibilidade_ambiental
 10
-9.370067
 20
38.633211
  0
VERTEX
  8
sensibilidade_ambiental
 10
-9.370110
 20
38.633257
  0
VERTEX
  8
sensibilidade_ambiental
 10
-9.370110
 20
38.633291
  0
VERTEX
  8
sensibilidade_ambiental
 10
-9.370300
 20
38.633577
  0
VERTEX
  8
sensibilidade_ambiental
 10
-9.370430
 20
38.633714
  0
VERTEX
  8
sensibilidade_ambiental
 10
-9.370678
 20
38.633908
  0
VERTEX
  8
sensibilidade_ambiental
 10
-9.370765
 20
38.634034
  0
VERTEX
  8
sensibilidade_ambiental
 10
-9.370809
 20
38.634331
  0
VERTEX
  8
sensibilidade_ambiental
 10
-9.370765
 20
38.634491
  0
VERTEX
  8
sensibilidade_ambiental
 10
-9.370765
 20
38.634525
  0
VERTEX
  8
sensibilidade_ambiental
 10
-9.370765
 20
38.634559
  0
VERTEX
  8
sensibilidade_ambiental
 10
-9.370721
 20
38.634696
  0
VERTEX
  8
sensibilidade_ambiental
 10
-9.370721
 20
38.634696
  0
VERTEX
  8
sensibilidade_ambiental
 10
-9.370721
 20
38.634719
  0
VERTEX
  8
sensibilidade_ambiental
 10
-9.370735
 20
38.634913
  0
VERTEX
  8
sensibilidade_ambiental
 10
-9.370764
 20
38.634936
  0
VERTEX
  8
sensibilidade_ambiental
 10
-9.370808
 20
38.634936
  0
VERTEX
  8
sensibilidade_ambiental
 10
-9.370764
 20
38.634959
  0
VERTEX
  8
sensibilidade_ambiental
 10
-9.370764
 20
38.634982
  0
VERTEX
  8
sensibilidade_ambiental
 10
-9.370764
 20
38.635005
  0
VERTEX
  8
sensibilidade_ambiental
 10
-9.370837
 20
38.635244
  0
VERTEX
  8
sensibilidade_ambiental
 10
-9.370851
 20
38.635473
  0
VERTEX
  8
sensibilidade_ambiental
 10
-9.370895
 20
38.635644
  0
VERTEX
  8
sensibilidade_ambiental
 10
-9.370895
 20
38.635975
  0
VERTEX
  8
sensibilidade_ambiental
 10
-9.370924
 20
38.636204
  0
SEQEND
  0
ENDSEC
  0
EOF
