  0
SECTION
  2
HEADER
  9
$LTSCALE
 40
1.000000
  9
$LUNITS
 70
2
  9
$LUPREC
 70
4
  9
$AUNITS
 70
1
  9
$AUPREC
 70
4
  9
$FILLMODE
 70
1
  0
ENDSEC
  0
SECTION
  2
TABLES
  0
TABLE
  2
VPORT
 70
0
  0
ENDTAB
  0
TABLE
  2
LTYPE
 70
1
  0
LTYPE
  2
CONTINUOUS
 70
64
  3
Solid line
 72
65
 73
0
 40
0.000000
  0
ENDTAB
  0
TABLE
  2
LAYER
 70
1
  0
LAYER
  2
0
 62
1
  6
CONTINUOUS
 70
64
  0
ENDTAB
  0
TABLE
  2
STYLE
 70
1
  0
STYLE
  2
STANDARD
 70
64
 40
0.000000
 41
1.000000
 50
0.000000
 71
0
 42
2.000000
  3
txt
  4

  0
ENDTAB
  0
TABLE
  2
VIEW
 70
0
  0
ENDTAB
  0
TABLE
  2
UCS
 70
0
  0
ENDTAB
  0
TABLE
  2
APPID
 70
0
  0
ENDTAB
  0
TABLE
  2
DIMSTYLE
 70
1
  0
DIMSTYLE
  2
STANDARD
 70
0
  3

  4

  5

  6

  7

 40
1.000000
 41
3.000000
 42
2.500000
 43
10.000000
 44
2.500000
 45
0.000000
 46
1.250000
 47
0.000000
 48
0.000000
140
3.000000
141
-3.000000
142
0.000000
143
0.039000
144
1.000000
145
1.500000
146
0.750000
147
1.500000
 71
0
 72
0
 73
0
 74
0
 75
0
 76
0
 77
0
 78
0
170
0
171
0
172
0
173
0
174
0
175
0
176
0
177
0
178
0
  0
ENDTAB
  0
ENDSEC
  0
SECTION
  2
ENTITIES
  0
POLYLINE
  8
estabelecimento_escolar_publico
  6
BYLAYER
 66
1
 70
1
 40
0.000000
 41
0.000000
  0
VERTEX
  8
estabelecimento_escolar_publico
 10
-9.463030
 20
38.718448
  0
VERTEX
  8
estabelecimento_escolar_publico
 10
-9.463190
 20
38.718848
  0
VERTEX
  8
estabelecimento_escolar_publico
 10
-9.463188
 20
38.718848
  0
VERTEX
  8
estabelecimento_escolar_publico
 10
-9.462720
 20
38.718920
  0
VERTEX
  8
estabelecimento_escolar_publico
 10
-9.462363
 20
38.718392
  0
VERTEX
  8
estabelecimento_escolar_publico
 10
-9.462874
 20
38.718326
  0
VERTEX
  8
estabelecimento_escolar_publico
 10
-9.463021
 20
38.718441
  0
VERTEX
  8
estabelecimento_escolar_publico
 10
-9.463030
 20
38.718448
  0
SEQEND
  0
POLYLINE
  8
estabelecimento_escolar_publico
  6
BYLAYER
 66
1
 70
1
 40
0.000000
 41
0.000000
  0
VERTEX
  8
estabelecimento_escolar_publico
 10
-9.364632
 20
38.713388
  0
VERTEX
  8
estabelecimento_escolar_publico
 10
-9.364566
 20
38.713421
  0
VERTEX
  8
estabelecimento_escolar_publico
 10
-9.364236
 20
38.713575
  0
VERTEX
  8
estabelecimento_escolar_publico
 10
-9.364199
 20
38.713567
  0
VERTEX
  8
estabelecimento_escolar_publico
 10
-9.364171
 20
38.713563
  0
VERTEX
  8
estabelecimento_escolar_publico
 10
-9.364127
 20
38.713556
  0
VERTEX
  8
estabelecimento_escolar_publico
 10
-9.364095
 20
38.713548
  0
VERTEX
  8
estabelecimento_escolar_publico
 10
-9.364067
 20
38.713535
  0
VERTEX
  8
estabelecimento_escolar_publico
 10
-9.363975
 20
38.713483
  0
VERTEX
  8
estabelecimento_escolar_publico
 10
-9.363921
 20
38.713452
  0
VERTEX
  8
estabelecimento_escolar_publico
 10
-9.363880
 20
38.713459
  0
VERTEX
  8
estabelecimento_escolar_publico
 10
-9.363664
 20
38.713517
  0
VERTEX
  8
estabelecimento_escolar_publico
 10
-9.363574
 20
38.713493
  0
VERTEX
  8
estabelecimento_escolar_publico
 10
-9.363631
 20
38.712827
  0
VERTEX
  8
estabelecimento_escolar_publico
 10
-9.364108
 20
38.712830
  0
VERTEX
  8
estabelecimento_escolar_publico
 10
-9.364142
 20
38.712830
  0
VERTEX
  8
estabelecimento_escolar_publico
 10
-9.364167
 20
38.712830
  0
VERTEX
  8
estabelecimento_escolar_publico
 10
-9.364243
 20
38.712961
  0
VERTEX
  8
estabelecimento_escolar_publico
 10
-9.364250
 20
38.712961
  0
VERTEX
  8
estabelecimento_escolar_publico
 10
-9.364257
 20
38.712960
  0
VERTEX
  8
estabelecimento_escolar_publico
 10
-9.364263
 20
38.712961
  0
VERTEX
  8
estabelecimento_escolar_publico
 10
-9.364270
 20
38.712961
  0
VERTEX
  8
estabelecimento_escolar_publico
 10
-9.364277
 20
38.712962
  0
VERTEX
  8
estabelecimento_escolar_publico
 10
-9.364283
 20
38.712963
  0
VERTEX
  8
estabelecimento_escolar_publico
 10
-9.364290
 20
38.712964
  0
VERTEX
  8
estabelecimento_escolar_publico
 10
-9.364297
 20
38.712965
  0
VERTEX
  8
estabelecimento_escolar_publico
 10
-9.364303
 20
38.712967
  0
VERTEX
  8
estabelecimento_escolar_publico
 10
-9.364309
 20
38.712969
  0
VERTEX
  8
estabelecimento_escolar_publico
 10
-9.364316
 20
38.712971
  0
VERTEX
  8
estabelecimento_escolar_publico
 10
-9.364322
 20
38.712973
  0
VERTEX
  8
estabelecimento_escolar_publico
 10
-9.364328
 20
38.712976
  0
VERTEX
  8
estabelecimento_escolar_publico
 10
-9.364333
 20
38.712979
  0
VERTEX
  8
estabelecimento_escolar_publico
 10
-9.364339
 20
38.712982
  0
VERTEX
  8
estabelecimento_escolar_publico
 10
-9.364344
 20
38.712985
  0
VERTEX
  8
estabelecimento_escolar_publico
 10
-9.364349
 20
38.712989
  0
VERTEX
  8
estabelecimento_escolar_publico
 10
-9.364354
 20
38.712992
  0
VERTEX
  8
estabelecimento_escolar_publico
 10
-9.364359
 20
38.712996
  0
VERTEX
  8
estabelecimento_escolar_publico
 10
-9.364363
 20
38.713000
  0
VERTEX
  8
estabelecimento_escolar_publico
 10
-9.364482
 20
38.713195
  0
VERTEX
  8
estabelecimento_escolar_publico
 10
-9.364515
 20
38.713199
  0
VERTEX
  8
estabelecimento_escolar_publico
 10
-9.364514
 20
38.713229
  0
VERTEX
  8
estabelecimento_escolar_publico
 10
-9.364513
 20
38.713256
  0
VERTEX
  8
estabelecimento_escolar_publico
 10
-9.364513
 20
38.713277
  0
VERTEX
  8
estabelecimento_escolar_publico
 10
-9.364531
 20
38.713282
  0
VERTEX
  8
estabelecimento_escolar_publico
 10
-9.364533
 20
38.713283
  0
VERTEX
  8
estabelecimento_escolar_publico
 10
-9.364535
 20
38.713284
  0
VERTEX
  8
estabelecimento_escolar_publico
 10
-9.364537
 20
38.713285
  0
VERTEX
  8
estabelecimento_escolar_publico
 10
-9.364539
 20
38.713286
  0
VERTEX
  8
estabelecimento_escolar_publico
 10
-9.364541
 20
38.713287
  0
VERTEX
  8
estabelecimento_escolar_publico
 10
-9.364543
 20
38.713289
  0
VERTEX
  8
estabelecimento_escolar_publico
 10
-9.364545
 20
38.713290
  0
VERTEX
  8
estabelecimento_escolar_publico
 10
-9.364547
 20
38.713291
  0
VERTEX
  8
estabelecimento_escolar_publico
 10
-9.364549
 20
38.713293
  0
VERTEX
  8
estabelecimento_escolar_publico
 10
-9.364550
 20
38.713294
  0
VERTEX
  8
estabelecimento_escolar_publico
 10
-9.364632
 20
38.713388
  0
SEQEND
  0
POLYLINE
  8
estabelecimento_escolar_publico
  6
BYLAYER
 66
1
 70
1
 40
0.000000
 41
0.000000
  0
VERTEX
  8
estabelecimento_escolar_publico
 10
-9.421670
 20
38.715888
  0
VERTEX
  8
estabelecimento_escolar_publico
 10
-9.422118
 20
38.715508
  0
VERTEX
  8
estabelecimento_escolar_publico
 10
-9.422457
 20
38.715770
  0
VERTEX
  8
estabelecimento_escolar_publico
 10
-9.422432
 20
38.715914
  0
VERTEX
  8
estabelecimento_escolar_publico
 10
-9.422441
 20
38.716117
  0
VERTEX
  8
estabelecimento_escolar_publico
 10
-9.422415
 20
38.716117
  0
VERTEX
  8
estabelecimento_escolar_publico
 10
-9.422306
 20
38.716124
  0
VERTEX
  8
estabelecimento_escolar_publico
 10
-9.422242
 20
38.716128
  0
VERTEX
  8
estabelecimento_escolar_publico
 10
-9.422112
 20
38.716136
  0
VERTEX
  8
estabelecimento_escolar_publico
 10
-9.422045
 20
38.716140
  0
VERTEX
  8
estabelecimento_escolar_publico
 10
-9.422011
 20
38.716142
  0
VERTEX
  8
estabelecimento_escolar_publico
 10
-9.421670
 20
38.715888
  0
SEQEND
  0
POLYLINE
  8
estabelecimento_escolar_publico
  6
BYLAYER
 66
1
 70
1
 40
0.000000
 41
0.000000
  0
VERTEX
  8
estabelecimento_escolar_publico
 10
-9.311509
 20
38.737170
  0
VERTEX
  8
estabelecimento_escolar_publico
 10
-9.311507
 20
38.737196
  0
VERTEX
  8
estabelecimento_escolar_publico
 10
-9.311415
 20
38.737493
  0
VERTEX
  8
estabelecimento_escolar_publico
 10
-9.311155
 20
38.737452
  0
VERTEX
  8
estabelecimento_escolar_publico
 10
-9.311169
 20
38.737357
  0
VERTEX
  8
estabelecimento_escolar_publico
 10
-9.311195
 20
38.737238
  0
VERTEX
  8
estabelecimento_escolar_publico
 10
-9.311254
 20
38.737019
  0
VERTEX
  8
estabelecimento_escolar_publico
 10
-9.311427
 20
38.737046
  0
VERTEX
  8
estabelecimento_escolar_publico
 10
-9.311418
 20
38.737086
  0
VERTEX
  8
estabelecimento_escolar_publico
 10
-9.311451
 20
38.737092
  0
VERTEX
  8
estabelecimento_escolar_publico
 10
-9.311485
 20
38.737107
  0
VERTEX
  8
estabelecimento_escolar_publico
 10
-9.311509
 20
38.737170
  0
SEQEND
  0
POLYLINE
  8
estabelecimento_escolar_publico
  6
BYLAYER
 66
1
 70
1
 40
0.000000
 41
0.000000
  0
VERTEX
  8
estabelecimento_escolar_publico
 10
-9.379693
 20
38.704683
  0
VERTEX
  8
estabelecimento_escolar_publico
 10
-9.379440
 20
38.704709
  0
VERTEX
  8
estabelecimento_escolar_publico
 10
-9.378709
 20
38.704773
  0
VERTEX
  8
estabelecimento_escolar_publico
 10
-9.378723
 20
38.704368
  0
VERTEX
  8
estabelecimento_escolar_publico
 10
-9.379394
 20
38.704294
  0
VERTEX
  8
estabelecimento_escolar_publico
 10
-9.379490
 20
38.704282
  0
VERTEX
  8
estabelecimento_escolar_publico
 10
-9.379598
 20
38.704272
  0
VERTEX
  8
estabelecimento_escolar_publico
 10
-9.379693
 20
38.704683
  0
SEQEND
  0
POLYLINE
  8
estabelecimento_escolar_publico
  6
BYLAYER
 66
1
 70
1
 40
0.000000
 41
0.000000
  0
VERTEX
  8
estabelecimento_escolar_publico
 10
-9.406971
 20
38.734001
  0
VERTEX
  8
estabelecimento_escolar_publico
 10
-9.407732
 20
38.734006
  0
VERTEX
  8
estabelecimento_escolar_publico
 10
-9.407710
 20
38.734417
  0
VERTEX
  8
estabelecimento_escolar_publico
 10
-9.407704
 20
38.734434
  0
VERTEX
  8
estabelecimento_escolar_publico
 10
-9.407693
 20
38.734444
  0
VERTEX
  8
estabelecimento_escolar_publico
 10
-9.407677
 20
38.734455
  0
VERTEX
  8
estabelecimento_escolar_publico
 10
-9.407659
 20
38.734461
  0
VERTEX
  8
estabelecimento_escolar_publico
 10
-9.407640
 20
38.734466
  0
VERTEX
  8
estabelecimento_escolar_publico
 10
-9.407382
 20
38.734470
  0
VERTEX
  8
estabelecimento_escolar_publico
 10
-9.407381
 20
38.734451
  0
VERTEX
  8
estabelecimento_escolar_publico
 10
-9.407305
 20
38.734454
  0
VERTEX
  8
estabelecimento_escolar_publico
 10
-9.407308
 20
38.734472
  0
VERTEX
  8
estabelecimento_escolar_publico
 10
-9.407036
 20
38.734494
  0
VERTEX
  8
estabelecimento_escolar_publico
 10
-9.407014
 20
38.734319
  0
VERTEX
  8
estabelecimento_escolar_publico
 10
-9.407020
 20
38.734289
  0
VERTEX
  8
estabelecimento_escolar_publico
 10
-9.406819
 20
38.734275
  0
VERTEX
  8
estabelecimento_escolar_publico
 10
-9.406783
 20
38.734309
  0
VERTEX
  8
estabelecimento_escolar_publico
 10
-9.406420
 20
38.734293
  0
VERTEX
  8
estabelecimento_escolar_publico
 10
-9.406421
 20
38.734266
  0
VERTEX
  8
estabelecimento_escolar_publico
 10
-9.406504
 20
38.734276
  0
VERTEX
  8
estabelecimento_escolar_publico
 10
-9.406526
 20
38.734277
  0
VERTEX
  8
estabelecimento_escolar_publico
 10
-9.406543
 20
38.734273
  0
VERTEX
  8
estabelecimento_escolar_publico
 10
-9.406565
 20
38.734267
  0
VERTEX
  8
estabelecimento_escolar_publico
 10
-9.406587
 20
38.734257
  0
VERTEX
  8
estabelecimento_escolar_publico
 10
-9.406752
 20
38.734155
  0
VERTEX
  8
estabelecimento_escolar_publico
 10
-9.406976
 20
38.734002
  0
VERTEX
  8
estabelecimento_escolar_publico
 10
-9.406971
 20
38.734001
  0
SEQEND
  0
POLYLINE
  8
estabelecimento_escolar_publico
  6
BYLAYER
 66
1
 70
1
 40
0.000000
 41
0.000000
  0
VERTEX
  8
estabelecimento_escolar_publico
 10
-9.394705
 20
38.733348
  0
VERTEX
  8
estabelecimento_escolar_publico
 10
-9.394614
 20
38.733393
  0
VERTEX
  8
estabelecimento_escolar_publico
 10
-9.394588
 20
38.733405
  0
VERTEX
  8
estabelecimento_escolar_publico
 10
-9.394352
 20
38.733516
  0
VERTEX
  8
estabelecimento_escolar_publico
 10
-9.394221
 20
38.733590
  0
VERTEX
  8
estabelecimento_escolar_publico
 10
-9.394168
 20
38.733618
  0
VERTEX
  8
estabelecimento_escolar_publico
 10
-9.394138
 20
38.733576
  0
VERTEX
  8
estabelecimento_escolar_publico
 10
-9.394149
 20
38.733573
  0
VERTEX
  8
estabelecimento_escolar_publico
 10
-9.393892
 20
38.733215
  0
VERTEX
  8
estabelecimento_escolar_publico
 10
-9.394563
 20
38.733034
  0
VERTEX
  8
estabelecimento_escolar_publico
 10
-9.394705
 20
38.733348
  0
SEQEND
  0
POLYLINE
  8
estabelecimento_escolar_publico
  6
BYLAYER
 66
1
 70
1
 40
0.000000
 41
0.000000
  0
VERTEX
  8
estabelecimento_escolar_publico
 10
-9.343677
 20
38.723304
  0
VERTEX
  8
estabelecimento_escolar_publico
 10
-9.343676
 20
38.723305
  0
VERTEX
  8
estabelecimento_escolar_publico
 10
-9.343665
 20
38.723346
  0
VERTEX
  8
estabelecimento_escolar_publico
 10
-9.343658
 20
38.723369
  0
VERTEX
  8
estabelecimento_escolar_publico
 10
-9.343639
 20
38.723436
  0
VERTEX
  8
estabelecimento_escolar_publico
 10
-9.343608
 20
38.723416
  0
VERTEX
  8
estabelecimento_escolar_publico
 10
-9.342968
 20
38.723580
  0
VERTEX
  8
estabelecimento_escolar_publico
 10
-9.342897
 20
38.723598
  0
VERTEX
  8
estabelecimento_escolar_publico
 10
-9.342827
 20
38.723616
  0
VERTEX
  8
estabelecimento_escolar_publico
 10
-9.342823
 20
38.723605
  0
VERTEX
  8
estabelecimento_escolar_publico
 10
-9.342817
 20
38.723590
  0
VERTEX
  8
estabelecimento_escolar_publico
 10
-9.342791
 20
38.723518
  0
VERTEX
  8
estabelecimento_escolar_publico
 10
-9.342739
 20
38.723490
  0
VERTEX
  8
estabelecimento_escolar_publico
 10
-9.342996
 20
38.723231
  0
VERTEX
  8
estabelecimento_escolar_publico
 10
-9.343039
 20
38.723182
  0
VERTEX
  8
estabelecimento_escolar_publico
 10
-9.343095
 20
38.723125
  0
VERTEX
  8
estabelecimento_escolar_publico
 10
-9.343230
 20
38.722988
  0
VERTEX
  8
estabelecimento_escolar_publico
 10
-9.343256
 20
38.722961
  0
VERTEX
  8
estabelecimento_escolar_publico
 10
-9.343497
 20
38.723158
  0
VERTEX
  8
estabelecimento_escolar_publico
 10
-9.343677
 20
38.723304
  0
SEQEND
  0
POLYLINE
  8
estabelecimento_escolar_publico
  6
BYLAYER
 66
1
 70
1
 40
0.000000
 41
0.000000
  0
VERTEX
  8
estabelecimento_escolar_publico
 10
-9.355260
 20
38.688370
  0
VERTEX
  8
estabelecimento_escolar_publico
 10
-9.355031
 20
38.688377
  0
VERTEX
  8
estabelecimento_escolar_publico
 10
-9.355028
 20
38.688346
  0
VERTEX
  8
estabelecimento_escolar_publico
 10
-9.355026
 20
38.688309
  0
VERTEX
  8
estabelecimento_escolar_publico
 10
-9.355182
 20
38.688303
  0
VERTEX
  8
estabelecimento_escolar_publico
 10
-9.355255
 20
38.688300
  0
VERTEX
  8
estabelecimento_escolar_publico
 10
-9.355256
 20
38.688314
  0
VERTEX
  8
estabelecimento_escolar_publico
 10
-9.355260
 20
38.688370
  0
SEQEND
  0
POLYLINE
  8
estabelecimento_escolar_publico
  6
BYLAYER
 66
1
 70
1
 40
0.000000
 41
0.000000
  0
VERTEX
  8
estabelecimento_escolar_publico
 10
-9.347346
 20
38.691510
  0
VERTEX
  8
estabelecimento_escolar_publico
 10
-9.347254
 20
38.691534
  0
VERTEX
  8
estabelecimento_escolar_publico
 10
-9.347198
 20
38.691549
  0
VERTEX
  8
estabelecimento_escolar_publico
 10
-9.347164
 20
38.691549
  0
VERTEX
  8
estabelecimento_escolar_publico
 10
-9.347126
 20
38.691532
  0
VERTEX
  8
estabelecimento_escolar_publico
 10
-9.347044
 20
38.691519
  0
VERTEX
  8
estabelecimento_escolar_publico
 10
-9.346997
 20
38.691537
  0
VERTEX
  8
estabelecimento_escolar_publico
 10
-9.346973
 20
38.691547
  0
VERTEX
  8
estabelecimento_escolar_publico
 10
-9.346951
 20
38.691614
  0
VERTEX
  8
estabelecimento_escolar_publico
 10
-9.346960
 20
38.691641
  0
VERTEX
  8
estabelecimento_escolar_publico
 10
-9.346835
 20
38.691684
  0
VERTEX
  8
estabelecimento_escolar_publico
 10
-9.346612
 20
38.691759
  0
VERTEX
  8
estabelecimento_escolar_publico
 10
-9.346607
 20
38.691762
  0
VERTEX
  8
estabelecimento_escolar_publico
 10
-9.346601
 20
38.691764
  0
VERTEX
  8
estabelecimento_escolar_publico
 10
-9.346595
 20
38.691766
  0
VERTEX
  8
estabelecimento_escolar_publico
 10
-9.346575
 20
38.691767
  0
VERTEX
  8
estabelecimento_escolar_publico
 10
-9.346563
 20
38.691765
  0
VERTEX
  8
estabelecimento_escolar_publico
 10
-9.346551
 20
38.691760
  0
VERTEX
  8
estabelecimento_escolar_publico
 10
-9.346546
 20
38.691757
  0
VERTEX
  8
estabelecimento_escolar_publico
 10
-9.346525
 20
38.691734
  0
VERTEX
  8
estabelecimento_escolar_publico
 10
-9.346462
 20
38.691752
  0
VERTEX
  8
estabelecimento_escolar_publico
 10
-9.346453
 20
38.691754
  0
VERTEX
  8
estabelecimento_escolar_publico
 10
-9.346446
 20
38.691756
  0
VERTEX
  8
estabelecimento_escolar_publico
 10
-9.346445
 20
38.691771
  0
VERTEX
  8
estabelecimento_escolar_publico
 10
-9.346439
 20
38.691791
  0
VERTEX
  8
estabelecimento_escolar_publico
 10
-9.346428
 20
38.691810
  0
VERTEX
  8
estabelecimento_escolar_publico
 10
-9.346410
 20
38.691827
  0
VERTEX
  8
estabelecimento_escolar_publico
 10
-9.346273
 20
38.691872
  0
VERTEX
  8
estabelecimento_escolar_publico
 10
-9.346287
 20
38.691896
  0
VERTEX
  8
estabelecimento_escolar_publico
 10
-9.346111
 20
38.691964
  0
VERTEX
  8
estabelecimento_escolar_publico
 10
-9.346107
 20
38.691966
  0
VERTEX
  8
estabelecimento_escolar_publico
 10
-9.346039
 20
38.691990
  0
VERTEX
  8
estabelecimento_escolar_publico
 10
-9.346032
 20
38.691993
  0
VERTEX
  8
estabelecimento_escolar_publico
 10
-9.345935
 20
38.691824
  0
VERTEX
  8
estabelecimento_escolar_publico
 10
-9.345816
 20
38.691873
  0
VERTEX
  8
estabelecimento_escolar_publico
 10
-9.345731
 20
38.691710
  0
VERTEX
  8
estabelecimento_escolar_publico
 10
-9.345540
 20
38.691362
  0
VERTEX
  8
estabelecimento_escolar_publico
 10
-9.345338
 20
38.690983
  0
VERTEX
  8
estabelecimento_escolar_publico
 10
-9.345337
 20
38.690980
  0
VERTEX
  8
estabelecimento_escolar_publico
 10
-9.345243
 20
38.690800
  0
VERTEX
  8
estabelecimento_escolar_publico
 10
-9.345234
 20
38.690783
  0
VERTEX
  8
estabelecimento_escolar_publico
 10
-9.345231
 20
38.690778
  0
VERTEX
  8
estabelecimento_escolar_publico
 10
-9.345345
 20
38.690736
  0
VERTEX
  8
estabelecimento_escolar_publico
 10
-9.345845
 20
38.690576
  0
VERTEX
  8
estabelecimento_escolar_publico
 10
-9.346093
 20
38.690492
  0
VERTEX
  8
estabelecimento_escolar_publico
 10
-9.346174
 20
38.690463
  0
VERTEX
  8
estabelecimento_escolar_publico
 10
-9.346179
 20
38.690462
  0
VERTEX
  8
estabelecimento_escolar_publico
 10
-9.346185
 20
38.690462
  0
VERTEX
  8
estabelecimento_escolar_publico
 10
-9.346190
 20
38.690462
  0
VERTEX
  8
estabelecimento_escolar_publico
 10
-9.346196
 20
38.690462
  0
VERTEX
  8
estabelecimento_escolar_publico
 10
-9.346202
 20
38.690462
  0
VERTEX
  8
estabelecimento_escolar_publico
 10
-9.346218
 20
38.690465
  0
VERTEX
  8
estabelecimento_escolar_publico
 10
-9.346223
 20
38.690466
  0
VERTEX
  8
estabelecimento_escolar_publico
 10
-9.346233
 20
38.690470
  0
VERTEX
  8
estabelecimento_escolar_publico
 10
-9.346261
 20
38.690486
  0
VERTEX
  8
estabelecimento_escolar_publico
 10
-9.346267
 20
38.690488
  0
VERTEX
  8
estabelecimento_escolar_publico
 10
-9.346273
 20
38.690490
  0
VERTEX
  8
estabelecimento_escolar_publico
 10
-9.346279
 20
38.690493
  0
VERTEX
  8
estabelecimento_escolar_publico
 10
-9.346285
 20
38.690495
  0
VERTEX
  8
estabelecimento_escolar_publico
 10
-9.346292
 20
38.690497
  0
VERTEX
  8
estabelecimento_escolar_publico
 10
-9.346298
 20
38.690498
  0
VERTEX
  8
estabelecimento_escolar_publico
 10
-9.346304
 20
38.690500
  0
VERTEX
  8
estabelecimento_escolar_publico
 10
-9.346311
 20
38.690502
  0
VERTEX
  8
estabelecimento_escolar_publico
 10
-9.346317
 20
38.690503
  0
VERTEX
  8
estabelecimento_escolar_publico
 10
-9.346324
 20
38.690504
  0
VERTEX
  8
estabelecimento_escolar_publico
 10
-9.346331
 20
38.690505
  0
VERTEX
  8
estabelecimento_escolar_publico
 10
-9.346368
 20
38.690510
  0
VERTEX
  8
estabelecimento_escolar_publico
 10
-9.346421
 20
38.690508
  0
VERTEX
  8
estabelecimento_escolar_publico
 10
-9.346456
 20
38.690504
  0
VERTEX
  8
estabelecimento_escolar_publico
 10
-9.346491
 20
38.690496
  0
VERTEX
  8
estabelecimento_escolar_publico
 10
-9.346524
 20
38.690486
  0
VERTEX
  8
estabelecimento_escolar_publico
 10
-9.346556
 20
38.690473
  0
VERTEX
  8
estabelecimento_escolar_publico
 10
-9.346721
 20
38.690419
  0
VERTEX
  8
estabelecimento_escolar_publico
 10
-9.346816
 20
38.690585
  0
VERTEX
  8
estabelecimento_escolar_publico
 10
-9.346909
 20
38.690746
  0
VERTEX
  8
estabelecimento_escolar_publico
 10
-9.347000
 20
38.690916
  0
VERTEX
  8
estabelecimento_escolar_publico
 10
-9.347003
 20
38.690921
  0
VERTEX
  8
estabelecimento_escolar_publico
 10
-9.347278
 20
38.691393
  0
VERTEX
  8
estabelecimento_escolar_publico
 10
-9.347346
 20
38.691510
  0
SEQEND
  0
POLYLINE
  8
estabelecimento_escolar_publico
  6
BYLAYER
 66
1
 70
1
 40
0.000000
 41
0.000000
  0
VERTEX
  8
estabelecimento_escolar_publico
 10
-9.437274
 20
38.714114
  0
VERTEX
  8
estabelecimento_escolar_publico
 10
-9.437011
 20
38.714218
  0
VERTEX
  8
estabelecimento_escolar_publico
 10
-9.436922
 20
38.714242
  0
VERTEX
  8
estabelecimento_escolar_publico
 10
-9.436721
 20
38.714277
  0
VERTEX
  8
estabelecimento_escolar_publico
 10
-9.436707
 20
38.714273
  0
VERTEX
  8
estabelecimento_escolar_publico
 10
-9.436695
 20
38.714267
  0
VERTEX
  8
estabelecimento_escolar_publico
 10
-9.436649
 20
38.714223
  0
VERTEX
  8
estabelecimento_escolar_publico
 10
-9.436647
 20
38.714214
  0
VERTEX
  8
estabelecimento_escolar_publico
 10
-9.436653
 20
38.714199
  0
VERTEX
  8
estabelecimento_escolar_publico
 10
-9.436717
 20
38.714145
  0
VERTEX
  8
estabelecimento_escolar_publico
 10
-9.436670
 20
38.714056
  0
VERTEX
  8
estabelecimento_escolar_publico
 10
-9.436801
 20
38.713967
  0
VERTEX
  8
estabelecimento_escolar_publico
 10
-9.436971
 20
38.713877
  0
VERTEX
  8
estabelecimento_escolar_publico
 10
-9.437225
 20
38.713776
  0
VERTEX
  8
estabelecimento_escolar_publico
 10
-9.437394
 20
38.713996
  0
VERTEX
  8
estabelecimento_escolar_publico
 10
-9.437396
 20
38.714019
  0
VERTEX
  8
estabelecimento_escolar_publico
 10
-9.437393
 20
38.714040
  0
VERTEX
  8
estabelecimento_escolar_publico
 10
-9.437384
 20
38.714061
  0
VERTEX
  8
estabelecimento_escolar_publico
 10
-9.437366
 20
38.714077
  0
VERTEX
  8
estabelecimento_escolar_publico
 10
-9.437273
 20
38.714115
  0
VERTEX
  8
estabelecimento_escolar_publico
 10
-9.437274
 20
38.714114
  0
SEQEND
  0
POLYLINE
  8
estabelecimento_escolar_publico
  6
BYLAYER
 66
1
 70
1
 40
0.000000
 41
0.000000
  0
VERTEX
  8
estabelecimento_escolar_publico
 10
-9.426212
 20
38.716671
  0
VERTEX
  8
estabelecimento_escolar_publico
 10
-9.426661
 20
38.716300
  0
VERTEX
  8
estabelecimento_escolar_publico
 10
-9.426868
 20
38.716286
  0
VERTEX
  8
estabelecimento_escolar_publico
 10
-9.427080
 20
38.717990
  0
VERTEX
  8
estabelecimento_escolar_publico
 10
-9.426503
 20
38.718529
  0
VERTEX
  8
estabelecimento_escolar_publico
 10
-9.425986
 20
38.718698
  0
VERTEX
  8
estabelecimento_escolar_publico
 10
-9.425188
 20
38.718741
  0
VERTEX
  8
estabelecimento_escolar_publico
 10
-9.425013
 20
38.718736
  0
VERTEX
  8
estabelecimento_escolar_publico
 10
-9.424711
 20
38.718590
  0
VERTEX
  8
estabelecimento_escolar_publico
 10
-9.424530
 20
38.718476
  0
VERTEX
  8
estabelecimento_escolar_publico
 10
-9.424389
 20
38.718316
  0
VERTEX
  8
estabelecimento_escolar_publico
 10
-9.424341
 20
38.718248
  0
VERTEX
  8
estabelecimento_escolar_publico
 10
-9.424302
 20
38.718139
  0
VERTEX
  8
estabelecimento_escolar_publico
 10
-9.424322
 20
38.718088
  0
VERTEX
  8
estabelecimento_escolar_publico
 10
-9.424316
 20
38.718068
  0
VERTEX
  8
estabelecimento_escolar_publico
 10
-9.424307
 20
38.718040
  0
VERTEX
  8
estabelecimento_escolar_publico
 10
-9.424301
 20
38.718020
  0
VERTEX
  8
estabelecimento_escolar_publico
 10
-9.424273
 20
38.717930
  0
VERTEX
  8
estabelecimento_escolar_publico
 10
-9.424226
 20
38.717889
  0
VERTEX
  8
estabelecimento_escolar_publico
 10
-9.424129
 20
38.717545
  0
VERTEX
  8
estabelecimento_escolar_publico
 10
-9.424150
 20
38.717505
  0
VERTEX
  8
estabelecimento_escolar_publico
 10
-9.424149
 20
38.717503
  0
VERTEX
  8
estabelecimento_escolar_publico
 10
-9.424141
 20
38.717482
  0
VERTEX
  8
estabelecimento_escolar_publico
 10
-9.424137
 20
38.717471
  0
VERTEX
  8
estabelecimento_escolar_publico
 10
-9.424102
 20
38.717442
  0
VERTEX
  8
estabelecimento_escolar_publico
 10
-9.424085
 20
38.717388
  0
VERTEX
  8
estabelecimento_escolar_publico
 10
-9.424310
 20
38.717475
  0
VERTEX
  8
estabelecimento_escolar_publico
 10
-9.424575
 20
38.717541
  0
VERTEX
  8
estabelecimento_escolar_publico
 10
-9.424685
 20
38.717568
  0
VERTEX
  8
estabelecimento_escolar_publico
 10
-9.424907
 20
38.717606
  0
VERTEX
  8
estabelecimento_escolar_publico
 10
-9.425256
 20
38.717640
  0
VERTEX
  8
estabelecimento_escolar_publico
 10
-9.425223
 20
38.716950
  0
VERTEX
  8
estabelecimento_escolar_publico
 10
-9.425348
 20
38.716889
  0
VERTEX
  8
estabelecimento_escolar_publico
 10
-9.425431
 20
38.716870
  0
VERTEX
  8
estabelecimento_escolar_publico
 10
-9.425467
 20
38.716861
  0
VERTEX
  8
estabelecimento_escolar_publico
 10
-9.426168
 20
38.716695
  0
VERTEX
  8
estabelecimento_escolar_publico
 10
-9.426212
 20
38.716671
  0
SEQEND
  0
POLYLINE
  8
estabelecimento_escolar_publico
  6
BYLAYER
 66
1
 70
1
 40
0.000000
 41
0.000000
  0
VERTEX
  8
estabelecimento_escolar_publico
 10
-9.411110
 20
38.718875
  0
VERTEX
  8
estabelecimento_escolar_publico
 10
-9.410431
 20
38.718979
  0
VERTEX
  8
estabelecimento_escolar_publico
 10
-9.410418
 20
38.718980
  0
VERTEX
  8
estabelecimento_escolar_publico
 10
-9.410406
 20
38.718980
  0
VERTEX
  8
estabelecimento_escolar_publico
 10
-9.410394
 20
38.718978
  0
VERTEX
  8
estabelecimento_escolar_publico
 10
-9.410382
 20
38.718976
  0
VERTEX
  8
estabelecimento_escolar_publico
 10
-9.410371
 20
38.718972
  0
VERTEX
  8
estabelecimento_escolar_publico
 10
-9.410284
 20
38.718936
  0
VERTEX
  8
estabelecimento_escolar_publico
 10
-9.410263
 20
38.718921
  0
VERTEX
  8
estabelecimento_escolar_publico
 10
-9.410258
 20
38.718914
  0
VERTEX
  8
estabelecimento_escolar_publico
 10
-9.410249
 20
38.718901
  0
VERTEX
  8
estabelecimento_escolar_publico
 10
-9.410245
 20
38.718886
  0
VERTEX
  8
estabelecimento_escolar_publico
 10
-9.410243
 20
38.718864
  0
VERTEX
  8
estabelecimento_escolar_publico
 10
-9.410242
 20
38.718843
  0
VERTEX
  8
estabelecimento_escolar_publico
 10
-9.410242
 20
38.718822
  0
VERTEX
  8
estabelecimento_escolar_publico
 10
-9.410244
 20
38.718801
  0
VERTEX
  8
estabelecimento_escolar_publico
 10
-9.410301
 20
38.718532
  0
VERTEX
  8
estabelecimento_escolar_publico
 10
-9.410416
 20
38.718544
  0
VERTEX
  8
estabelecimento_escolar_publico
 10
-9.410483
 20
38.718552
  0
VERTEX
  8
estabelecimento_escolar_publico
 10
-9.410566
 20
38.718562
  0
VERTEX
  8
estabelecimento_escolar_publico
 10
-9.410673
 20
38.718574
  0
VERTEX
  8
estabelecimento_escolar_publico
 10
-9.410778
 20
38.718586
  0
VERTEX
  8
estabelecimento_escolar_publico
 10
-9.410829
 20
38.718592
  0
VERTEX
  8
estabelecimento_escolar_publico
 10
-9.410886
 20
38.718599
  0
VERTEX
  8
estabelecimento_escolar_publico
 10
-9.411059
 20
38.718619
  0
VERTEX
  8
estabelecimento_escolar_publico
 10
-9.411235
 20
38.718640
  0
VERTEX
  8
estabelecimento_escolar_publico
 10
-9.411209
 20
38.718800
  0
VERTEX
  8
estabelecimento_escolar_publico
 10
-9.411205
 20
38.718809
  0
VERTEX
  8
estabelecimento_escolar_publico
 10
-9.411199
 20
38.718818
  0
VERTEX
  8
estabelecimento_escolar_publico
 10
-9.411192
 20
38.718827
  0
VERTEX
  8
estabelecimento_escolar_publico
 10
-9.411184
 20
38.718835
  0
VERTEX
  8
estabelecimento_escolar_publico
 10
-9.411176
 20
38.718843
  0
VERTEX
  8
estabelecimento_escolar_publico
 10
-9.411166
 20
38.718850
  0
VERTEX
  8
estabelecimento_escolar_publico
 10
-9.411156
 20
38.718857
  0
VERTEX
  8
estabelecimento_escolar_publico
 10
-9.411145
 20
38.718863
  0
VERTEX
  8
estabelecimento_escolar_publico
 10
-9.411134
 20
38.718868
  0
VERTEX
  8
estabelecimento_escolar_publico
 10
-9.411122
 20
38.718872
  0
VERTEX
  8
estabelecimento_escolar_publico
 10
-9.411110
 20
38.718875
  0
SEQEND
  0
POLYLINE
  8
estabelecimento_escolar_publico
  6
BYLAYER
 66
1
 70
1
 40
0.000000
 41
0.000000
  0
VERTEX
  8
estabelecimento_escolar_publico
 10
-9.425146
 20
38.699140
  0
VERTEX
  8
estabelecimento_escolar_publico
 10
-9.425135
 20
38.699141
  0
VERTEX
  8
estabelecimento_escolar_publico
 10
-9.425129
 20
38.699140
  0
VERTEX
  8
estabelecimento_escolar_publico
 10
-9.425124
 20
38.699139
  0
VERTEX
  8
estabelecimento_escolar_publico
 10
-9.425119
 20
38.699138
  0
VERTEX
  8
estabelecimento_escolar_publico
 10
-9.425114
 20
38.699136
  0
VERTEX
  8
estabelecimento_escolar_publico
 10
-9.425110
 20
38.699134
  0
VERTEX
  8
estabelecimento_escolar_publico
 10
-9.425105
 20
38.699131
  0
VERTEX
  8
estabelecimento_escolar_publico
 10
-9.425065
 20
38.699077
  0
VERTEX
  8
estabelecimento_escolar_publico
 10
-9.424718
 20
38.698620
  0
VERTEX
  8
estabelecimento_escolar_publico
 10
-9.424791
 20
38.698587
  0
VERTEX
  8
estabelecimento_escolar_publico
 10
-9.424799
 20
38.698598
  0
VERTEX
  8
estabelecimento_escolar_publico
 10
-9.425002
 20
38.698501
  0
VERTEX
  8
estabelecimento_escolar_publico
 10
-9.425241
 20
38.698387
  0
VERTEX
  8
estabelecimento_escolar_publico
 10
-9.425369
 20
38.698324
  0
VERTEX
  8
estabelecimento_escolar_publico
 10
-9.425385
 20
38.698318
  0
VERTEX
  8
estabelecimento_escolar_publico
 10
-9.425485
 20
38.698272
  0
VERTEX
  8
estabelecimento_escolar_publico
 10
-9.425834
 20
38.698753
  0
VERTEX
  8
estabelecimento_escolar_publico
 10
-9.425836
 20
38.698755
  0
VERTEX
  8
estabelecimento_escolar_publico
 10
-9.425836
 20
38.698755
  0
VERTEX
  8
estabelecimento_escolar_publico
 10
-9.425839
 20
38.698761
  0
VERTEX
  8
estabelecimento_escolar_publico
 10
-9.425840
 20
38.698765
  0
VERTEX
  8
estabelecimento_escolar_publico
 10
-9.425841
 20
38.698770
  0
VERTEX
  8
estabelecimento_escolar_publico
 10
-9.425841
 20
38.698774
  0
VERTEX
  8
estabelecimento_escolar_publico
 10
-9.425841
 20
38.698778
  0
VERTEX
  8
estabelecimento_escolar_publico
 10
-9.425839
 20
38.698782
  0
VERTEX
  8
estabelecimento_escolar_publico
 10
-9.425838
 20
38.698786
  0
VERTEX
  8
estabelecimento_escolar_publico
 10
-9.425833
 20
38.698793
  0
VERTEX
  8
estabelecimento_escolar_publico
 10
-9.425828
 20
38.698797
  0
VERTEX
  8
estabelecimento_escolar_publico
 10
-9.425826
 20
38.698799
  0
VERTEX
  8
estabelecimento_escolar_publico
 10
-9.425817
 20
38.698804
  0
VERTEX
  8
estabelecimento_escolar_publico
 10
-9.425165
 20
38.699133
  0
VERTEX
  8
estabelecimento_escolar_publico
 10
-9.425156
 20
38.699137
  0
VERTEX
  8
estabelecimento_escolar_publico
 10
-9.425146
 20
38.699140
  0
SEQEND
  0
POLYLINE
  8
estabelecimento_escolar_publico
  6
BYLAYER
 66
1
 70
1
 40
0.000000
 41
0.000000
  0
VERTEX
  8
estabelecimento_escolar_publico
 10
-9.368696
 20
38.735078
  0
VERTEX
  8
estabelecimento_escolar_publico
 10
-9.368652
 20
38.735089
  0
VERTEX
  8
estabelecimento_escolar_publico
 10
-9.368507
 20
38.735108
  0
VERTEX
  8
estabelecimento_escolar_publico
 10
-9.368116
 20
38.735159
  0
VERTEX
  8
estabelecimento_escolar_publico
 10
-9.368060
 20
38.735187
  0
VERTEX
  8
estabelecimento_escolar_publico
 10
-9.367900
 20
38.735033
  0
VERTEX
  8
estabelecimento_escolar_publico
 10
-9.367888
 20
38.735012
  0
VERTEX
  8
estabelecimento_escolar_publico
 10
-9.367869
 20
38.734981
  0
VERTEX
  8
estabelecimento_escolar_publico
 10
-9.367854
 20
38.734935
  0
VERTEX
  8
estabelecimento_escolar_publico
 10
-9.367850
 20
38.734906
  0
VERTEX
  8
estabelecimento_escolar_publico
 10
-9.367844
 20
38.734864
  0
VERTEX
  8
estabelecimento_escolar_publico
 10
-9.367847
 20
38.734834
  0
VERTEX
  8
estabelecimento_escolar_publico
 10
-9.367856
 20
38.734814
  0
VERTEX
  8
estabelecimento_escolar_publico
 10
-9.368003
 20
38.734557
  0
VERTEX
  8
estabelecimento_escolar_publico
 10
-9.368226
 20
38.734636
  0
VERTEX
  8
estabelecimento_escolar_publico
 10
-9.368504
 20
38.734759
  0
VERTEX
  8
estabelecimento_escolar_publico
 10
-9.368777
 20
38.734884
  0
VERTEX
  8
estabelecimento_escolar_publico
 10
-9.368820
 20
38.734902
  0
VERTEX
  8
estabelecimento_escolar_publico
 10
-9.368627
 20
38.734994
  0
VERTEX
  8
estabelecimento_escolar_publico
 10
-9.368694
 20
38.735078
  0
VERTEX
  8
estabelecimento_escolar_publico
 10
-9.368696
 20
38.735078
  0
SEQEND
  0
POLYLINE
  8
estabelecimento_escolar_publico
  6
BYLAYER
 66
1
 70
1
 40
0.000000
 41
0.000000
  0
VERTEX
  8
estabelecimento_escolar_publico
 10
-9.341232
 20
38.717225
  0
VERTEX
  8
estabelecimento_escolar_publico
 10
-9.341128
 20
38.717265
  0
VERTEX
  8
estabelecimento_escolar_publico
 10
-9.341062
 20
38.717248
  0
VERTEX
  8
estabelecimento_escolar_publico
 10
-9.341031
 20
38.717261
  0
VERTEX
  8
estabelecimento_escolar_publico
 10
-9.340990
 20
38.717278
  0
VERTEX
  8
estabelecimento_escolar_publico
 10
-9.340943
 20
38.717297
  0
VERTEX
  8
estabelecimento_escolar_publico
 10
-9.340856
 20
38.717333
  0
VERTEX
  8
estabelecimento_escolar_publico
 10
-9.340838
 20
38.717382
  0
VERTEX
  8
estabelecimento_escolar_publico
 10
-9.340501
 20
38.717518
  0
VERTEX
  8
estabelecimento_escolar_publico
 10
-9.340460
 20
38.717534
  0
VERTEX
  8
estabelecimento_escolar_publico
 10
-9.340286
 20
38.717604
  0
VERTEX
  8
estabelecimento_escolar_publico
 10
-9.340273
 20
38.717587
  0
VERTEX
  8
estabelecimento_escolar_publico
 10
-9.340241
 20
38.717544
  0
VERTEX
  8
estabelecimento_escolar_publico
 10
-9.340206
 20
38.717558
  0
VERTEX
  8
estabelecimento_escolar_publico
 10
-9.340170
 20
38.717572
  0
VERTEX
  8
estabelecimento_escolar_publico
 10
-9.340051
 20
38.717619
  0
VERTEX
  8
estabelecimento_escolar_publico
 10
-9.340005
 20
38.717552
  0
VERTEX
  8
estabelecimento_escolar_publico
 10
-9.339990
 20
38.717529
  0
VERTEX
  8
estabelecimento_escolar_publico
 10
-9.339967
 20
38.717496
  0
VERTEX
  8
estabelecimento_escolar_publico
 10
-9.339951
 20
38.717472
  0
VERTEX
  8
estabelecimento_escolar_publico
 10
-9.339897
 20
38.717394
  0
VERTEX
  8
estabelecimento_escolar_publico
 10
-9.339844
 20
38.717315
  0
VERTEX
  8
estabelecimento_escolar_publico
 10
-9.339655
 20
38.717055
  0
VERTEX
  8
estabelecimento_escolar_publico
 10
-9.339636
 20
38.717030
  0
VERTEX
  8
estabelecimento_escolar_publico
 10
-9.339687
 20
38.716595
  0
VERTEX
  8
estabelecimento_escolar_publico
 10
-9.339704
 20
38.716442
  0
VERTEX
  8
estabelecimento_escolar_publico
 10
-9.339708
 20
38.716390
  0
VERTEX
  8
estabelecimento_escolar_publico
 10
-9.339711
 20
38.716340
  0
VERTEX
  8
estabelecimento_escolar_publico
 10
-9.339707
 20
38.716289
  0
VERTEX
  8
estabelecimento_escolar_publico
 10
-9.339700
 20
38.716241
  0
VERTEX
  8
estabelecimento_escolar_publico
 10
-9.339686
 20
38.716189
  0
VERTEX
  8
estabelecimento_escolar_publico
 10
-9.339678
 20
38.716165
  0
VERTEX
  8
estabelecimento_escolar_publico
 10
-9.339663
 20
38.716130
  0
VERTEX
  8
estabelecimento_escolar_publico
 10
-9.339641
 20
38.716091
  0
VERTEX
  8
estabelecimento_escolar_publico
 10
-9.339608
 20
38.716045
  0
VERTEX
  8
estabelecimento_escolar_publico
 10
-9.339562
 20
38.715992
  0
VERTEX
  8
estabelecimento_escolar_publico
 10
-9.339440
 20
38.715873
  0
VERTEX
  8
estabelecimento_escolar_publico
 10
-9.339285
 20
38.715723
  0
VERTEX
  8
estabelecimento_escolar_publico
 10
-9.339588
 20
38.715675
  0
VERTEX
  8
estabelecimento_escolar_publico
 10
-9.339716
 20
38.715655
  0
VERTEX
  8
estabelecimento_escolar_publico
 10
-9.339755
 20
38.715649
  0
VERTEX
  8
estabelecimento_escolar_publico
 10
-9.339789
 20
38.715644
  0
VERTEX
  8
estabelecimento_escolar_publico
 10
-9.339905
 20
38.715626
  0
VERTEX
  8
estabelecimento_escolar_publico
 10
-9.339953
 20
38.715616
  0
VERTEX
  8
estabelecimento_escolar_publico
 10
-9.340036
 20
38.715600
  0
VERTEX
  8
estabelecimento_escolar_publico
 10
-9.340121
 20
38.715709
  0
VERTEX
  8
estabelecimento_escolar_publico
 10
-9.340171
 20
38.715773
  0
VERTEX
  8
estabelecimento_escolar_publico
 10
-9.340204
 20
38.715815
  0
VERTEX
  8
estabelecimento_escolar_publico
 10
-9.340226
 20
38.715844
  0
VERTEX
  8
estabelecimento_escolar_publico
 10
-9.340404
 20
38.716080
  0
VERTEX
  8
estabelecimento_escolar_publico
 10
-9.340459
 20
38.716153
  0
VERTEX
  8
estabelecimento_escolar_publico
 10
-9.340467
 20
38.716164
  0
VERTEX
  8
estabelecimento_escolar_publico
 10
-9.340519
 20
38.716232
  0
VERTEX
  8
estabelecimento_escolar_publico
 10
-9.340548
 20
38.716270
  0
VERTEX
  8
estabelecimento_escolar_publico
 10
-9.340674
 20
38.716436
  0
VERTEX
  8
estabelecimento_escolar_publico
 10
-9.340801
 20
38.716603
  0
VERTEX
  8
estabelecimento_escolar_publico
 10
-9.340826
 20
38.716635
  0
VERTEX
  8
estabelecimento_escolar_publico
 10
-9.340877
 20
38.716702
  0
VERTEX
  8
estabelecimento_escolar_publico
 10
-9.341013
 20
38.716880
  0
VERTEX
  8
estabelecimento_escolar_publico
 10
-9.341062
 20
38.716944
  0
VERTEX
  8
estabelecimento_escolar_publico
 10
-9.341082
 20
38.716977
  0
VERTEX
  8
estabelecimento_escolar_publico
 10
-9.341109
 20
38.717022
  0
VERTEX
  8
estabelecimento_escolar_publico
 10
-9.341128
 20
38.717054
  0
VERTEX
  8
estabelecimento_escolar_publico
 10
-9.341152
 20
38.717092
  0
VERTEX
  8
estabelecimento_escolar_publico
 10
-9.341232
 20
38.717225
  0
SEQEND
  0
POLYLINE
  8
estabelecimento_escolar_publico
  6
BYLAYER
 66
1
 70
1
 40
0.000000
 41
0.000000
  0
VERTEX
  8
estabelecimento_escolar_publico
 10
-9.384735
 20
38.702256
  0
VERTEX
  8
estabelecimento_escolar_publico
 10
-9.384726
 20
38.702379
  0
VERTEX
  8
estabelecimento_escolar_publico
 10
-9.384667
 20
38.702376
  0
VERTEX
  8
estabelecimento_escolar_publico
 10
-9.384654
 20
38.702522
  0
VERTEX
  8
estabelecimento_escolar_publico
 10
-9.384710
 20
38.702524
  0
VERTEX
  8
estabelecimento_escolar_publico
 10
-9.384654
 20
38.703134
  0
VERTEX
  8
estabelecimento_escolar_publico
 10
-9.384651
 20
38.703170
  0
VERTEX
  8
estabelecimento_escolar_publico
 10
-9.384645
 20
38.703242
  0
VERTEX
  8
estabelecimento_escolar_publico
 10
-9.384640
 20
38.703253
  0
VERTEX
  8
estabelecimento_escolar_publico
 10
-9.384623
 20
38.703272
  0
VERTEX
  8
estabelecimento_escolar_publico
 10
-9.384612
 20
38.703279
  0
VERTEX
  8
estabelecimento_escolar_publico
 10
-9.384595
 20
38.703285
  0
VERTEX
  8
estabelecimento_escolar_publico
 10
-9.384571
 20
38.703291
  0
VERTEX
  8
estabelecimento_escolar_publico
 10
-9.384463
 20
38.703313
  0
VERTEX
  8
estabelecimento_escolar_publico
 10
-9.384131
 20
38.703383
  0
VERTEX
  8
estabelecimento_escolar_publico
 10
-9.383942
 20
38.703430
  0
VERTEX
  8
estabelecimento_escolar_publico
 10
-9.383901
 20
38.703429
  0
VERTEX
  8
estabelecimento_escolar_publico
 10
-9.383891
 20
38.703428
  0
VERTEX
  8
estabelecimento_escolar_publico
 10
-9.383882
 20
38.703428
  0
VERTEX
  8
estabelecimento_escolar_publico
 10
-9.383868
 20
38.703428
  0
VERTEX
  8
estabelecimento_escolar_publico
 10
-9.383854
 20
38.703427
  0
VERTEX
  8
estabelecimento_escolar_publico
 10
-9.383841
 20
38.703425
  0
VERTEX
  8
estabelecimento_escolar_publico
 10
-9.383829
 20
38.703421
  0
VERTEX
  8
estabelecimento_escolar_publico
 10
-9.383818
 20
38.703419
  0
VERTEX
  8
estabelecimento_escolar_publico
 10
-9.383795
 20
38.703408
  0
VERTEX
  8
estabelecimento_escolar_publico
 10
-9.383758
 20
38.703384
  0
VERTEX
  8
estabelecimento_escolar_publico
 10
-9.383713
 20
38.703359
  0
VERTEX
  8
estabelecimento_escolar_publico
 10
-9.383669
 20
38.703338
  0
VERTEX
  8
estabelecimento_escolar_publico
 10
-9.383642
 20
38.703330
  0
VERTEX
  8
estabelecimento_escolar_publico
 10
-9.383616
 20
38.703322
  0
VERTEX
  8
estabelecimento_escolar_publico
 10
-9.383583
 20
38.703318
  0
VERTEX
  8
estabelecimento_escolar_publico
 10
-9.383540
 20
38.703317
  0
VERTEX
  8
estabelecimento_escolar_publico
 10
-9.383517
 20
38.703319
  0
VERTEX
  8
estabelecimento_escolar_publico
 10
-9.383481
 20
38.703324
  0
VERTEX
  8
estabelecimento_escolar_publico
 10
-9.383454
 20
38.703332
  0
VERTEX
  8
estabelecimento_escolar_publico
 10
-9.383434
 20
38.703338
  0
VERTEX
  8
estabelecimento_escolar_publico
 10
-9.383406
 20
38.703352
  0
VERTEX
  8
estabelecimento_escolar_publico
 10
-9.383368
 20
38.703371
  0
VERTEX
  8
estabelecimento_escolar_publico
 10
-9.383249
 20
38.703324
  0
VERTEX
  8
estabelecimento_escolar_publico
 10
-9.383246
 20
38.703324
  0
VERTEX
  8
estabelecimento_escolar_publico
 10
-9.383158
 20
38.703276
  0
VERTEX
  8
estabelecimento_escolar_publico
 10
-9.383047
 20
38.703204
  0
VERTEX
  8
estabelecimento_escolar_publico
 10
-9.382979
 20
38.703154
  0
VERTEX
  8
estabelecimento_escolar_publico
 10
-9.382920
 20
38.703100
  0
VERTEX
  8
estabelecimento_escolar_publico
 10
-9.382861
 20
38.703035
  0
VERTEX
  8
estabelecimento_escolar_publico
 10
-9.382840
 20
38.703003
  0
VERTEX
  8
estabelecimento_escolar_publico
 10
-9.382810
 20
38.702968
  0
VERTEX
  8
estabelecimento_escolar_publico
 10
-9.382769
 20
38.702908
  0
VERTEX
  8
estabelecimento_escolar_publico
 10
-9.382728
 20
38.702833
  0
VERTEX
  8
estabelecimento_escolar_publico
 10
-9.382715
 20
38.702810
  0
VERTEX
  8
estabelecimento_escolar_publico
 10
-9.382684
 20
38.702738
  0
VERTEX
  8
estabelecimento_escolar_publico
 10
-9.382653
 20
38.702647
  0
VERTEX
  8
estabelecimento_escolar_publico
 10
-9.382639
 20
38.702567
  0
VERTEX
  8
estabelecimento_escolar_publico
 10
-9.382630
 20
38.702471
  0
VERTEX
  8
estabelecimento_escolar_publico
 10
-9.382632
 20
38.702367
  0
VERTEX
  8
estabelecimento_escolar_publico
 10
-9.382637
 20
38.702278
  0
VERTEX
  8
estabelecimento_escolar_publico
 10
-9.382649
 20
38.702096
  0
VERTEX
  8
estabelecimento_escolar_publico
 10
-9.382663
 20
38.701999
  0
VERTEX
  8
estabelecimento_escolar_publico
 10
-9.382669
 20
38.701967
  0
VERTEX
  8
estabelecimento_escolar_publico
 10
-9.382689
 20
38.701936
  0
VERTEX
  8
estabelecimento_escolar_publico
 10
-9.382704
 20
38.701921
  0
VERTEX
  8
estabelecimento_escolar_publico
 10
-9.382713
 20
38.701914
  0
VERTEX
  8
estabelecimento_escolar_publico
 10
-9.382730
 20
38.701901
  0
VERTEX
  8
estabelecimento_escolar_publico
 10
-9.382756
 20
38.701882
  0
VERTEX
  8
estabelecimento_escolar_publico
 10
-9.382769
 20
38.701873
  0
VERTEX
  8
estabelecimento_escolar_publico
 10
-9.382792
 20
38.701859
  0
VERTEX
  8
estabelecimento_escolar_publico
 10
-9.382825
 20
38.701848
  0
VERTEX
  8
estabelecimento_escolar_publico
 10
-9.382869
 20
38.701840
  0
VERTEX
  8
estabelecimento_escolar_publico
 10
-9.382905
 20
38.701838
  0
VERTEX
  8
estabelecimento_escolar_publico
 10
-9.382948
 20
38.701836
  0
VERTEX
  8
estabelecimento_escolar_publico
 10
-9.382996
 20
38.701834
  0
VERTEX
  8
estabelecimento_escolar_publico
 10
-9.383163
 20
38.701838
  0
VERTEX
  8
estabelecimento_escolar_publico
 10
-9.383522
 20
38.701863
  0
VERTEX
  8
estabelecimento_escolar_publico
 10
-9.383517
 20
38.701899
  0
VERTEX
  8
estabelecimento_escolar_publico
 10
-9.383792
 20
38.701913
  0
VERTEX
  8
estabelecimento_escolar_publico
 10
-9.383839
 20
38.701915
  0
VERTEX
  8
estabelecimento_escolar_publico
 10
-9.383840
 20
38.701915
  0
VERTEX
  8
estabelecimento_escolar_publico
 10
-9.383898
 20
38.701920
  0
VERTEX
  8
estabelecimento_escolar_publico
 10
-9.384386
 20
38.701957
  0
VERTEX
  8
estabelecimento_escolar_publico
 10
-9.384426
 20
38.701923
  0
VERTEX
  8
estabelecimento_escolar_publico
 10
-9.384624
 20
38.701927
  0
VERTEX
  8
estabelecimento_escolar_publico
 10
-9.384662
 20
38.701931
  0
VERTEX
  8
estabelecimento_escolar_publico
 10
-9.384679
 20
38.701936
  0
VERTEX
  8
estabelecimento_escolar_publico
 10
-9.384696
 20
38.701943
  0
VERTEX
  8
estabelecimento_escolar_publico
 10
-9.384710
 20
38.701952
  0
VERTEX
  8
estabelecimento_escolar_publico
 10
-9.384725
 20
38.701962
  0
VERTEX
  8
estabelecimento_escolar_publico
 10
-9.384737
 20
38.701976
  0
VERTEX
  8
estabelecimento_escolar_publico
 10
-9.384743
 20
38.701996
  0
VERTEX
  8
estabelecimento_escolar_publico
 10
-9.384744
 20
38.702008
  0
VERTEX
  8
estabelecimento_escolar_publico
 10
-9.384747
 20
38.702091
  0
VERTEX
  8
estabelecimento_escolar_publico
 10
-9.384735
 20
38.702256
  0
SEQEND
  0
POLYLINE
  8
estabelecimento_escolar_publico
  6
BYLAYER
 66
1
 70
1
 40
0.000000
 41
0.000000
  0
VERTEX
  8
estabelecimento_escolar_publico
 10
-9.374227
 20
38.709183
  0
VERTEX
  8
estabelecimento_escolar_publico
 10
-9.374081
 20
38.709201
  0
VERTEX
  8
estabelecimento_escolar_publico
 10
-9.373794
 20
38.709297
  0
VERTEX
  8
estabelecimento_escolar_publico
 10
-9.373786
 20
38.709297
  0
VERTEX
  8
estabelecimento_escolar_publico
 10
-9.373170
 20
38.709220
  0
VERTEX
  8
estabelecimento_escolar_publico
 10
-9.373121
 20
38.709168
  0
VERTEX
  8
estabelecimento_escolar_publico
 10
-9.373086
 20
38.709131
  0
VERTEX
  8
estabelecimento_escolar_publico
 10
-9.373047
 20
38.709090
  0
VERTEX
  8
estabelecimento_escolar_publico
 10
-9.372993
 20
38.709081
  0
VERTEX
  8
estabelecimento_escolar_publico
 10
-9.373042
 20
38.708867
  0
VERTEX
  8
estabelecimento_escolar_publico
 10
-9.373083
 20
38.708704
  0
VERTEX
  8
estabelecimento_escolar_publico
 10
-9.373105
 20
38.708616
  0
VERTEX
  8
estabelecimento_escolar_publico
 10
-9.373118
 20
38.708564
  0
VERTEX
  8
estabelecimento_escolar_publico
 10
-9.373124
 20
38.708538
  0
VERTEX
  8
estabelecimento_escolar_publico
 10
-9.373165
 20
38.708378
  0
VERTEX
  8
estabelecimento_escolar_publico
 10
-9.373187
 20
38.708295
  0
VERTEX
  8
estabelecimento_escolar_publico
 10
-9.373248
 20
38.708067
  0
VERTEX
  8
estabelecimento_escolar_publico
 10
-9.373254
 20
38.708045
  0
VERTEX
  8
estabelecimento_escolar_publico
 10
-9.373483
 20
38.707539
  0
VERTEX
  8
estabelecimento_escolar_publico
 10
-9.373459
 20
38.707436
  0
VERTEX
  8
estabelecimento_escolar_publico
 10
-9.374298
 20
38.707515
  0
VERTEX
  8
estabelecimento_escolar_publico
 10
-9.374293
 20
38.707738
  0
VERTEX
  8
estabelecimento_escolar_publico
 10
-9.374281
 20
38.707993
  0
VERTEX
  8
estabelecimento_escolar_publico
 10
-9.374273
 20
38.708162
  0
VERTEX
  8
estabelecimento_escolar_publico
 10
-9.374263
 20
38.708398
  0
VERTEX
  8
estabelecimento_escolar_publico
 10
-9.374227
 20
38.709183
  0
SEQEND
  0
POLYLINE
  8
estabelecimento_escolar_publico
  6
BYLAYER
 66
1
 70
1
 40
0.000000
 41
0.000000
  0
VERTEX
  8
estabelecimento_escolar_publico
 10
-9.408908
 20
38.712292
  0
VERTEX
  8
estabelecimento_escolar_publico
 10
-9.408526
 20
38.712693
  0
VERTEX
  8
estabelecimento_escolar_publico
 10
-9.408521
 20
38.712696
  0
VERTEX
  8
estabelecimento_escolar_publico
 10
-9.408488
 20
38.712701
  0
VERTEX
  8
estabelecimento_escolar_publico
 10
-9.408432
 20
38.712673
  0
VERTEX
  8
estabelecimento_escolar_publico
 10
-9.408366
 20
38.712637
  0
VERTEX
  8
estabelecimento_escolar_publico
 10
-9.408307
 20
38.712604
  0
VERTEX
  8
estabelecimento_escolar_publico
 10
-9.408257
 20
38.712574
  0
VERTEX
  8
estabelecimento_escolar_publico
 10
-9.408204
 20
38.712542
  0
VERTEX
  8
estabelecimento_escolar_publico
 10
-9.408164
 20
38.712518
  0
VERTEX
  8
estabelecimento_escolar_publico
 10
-9.408103
 20
38.712477
  0
VERTEX
  8
estabelecimento_escolar_publico
 10
-9.408068
 20
38.712453
  0
VERTEX
  8
estabelecimento_escolar_publico
 10
-9.408031
 20
38.712427
  0
VERTEX
  8
estabelecimento_escolar_publico
 10
-9.407975
 20
38.712386
  0
VERTEX
  8
estabelecimento_escolar_publico
 10
-9.407944
 20
38.712363
  0
VERTEX
  8
estabelecimento_escolar_publico
 10
-9.407922
 20
38.712346
  0
VERTEX
  8
estabelecimento_escolar_publico
 10
-9.407900
 20
38.712328
  0
VERTEX
  8
estabelecimento_escolar_publico
 10
-9.407873
 20
38.712303
  0
VERTEX
  8
estabelecimento_escolar_publico
 10
-9.407845
 20
38.712274
  0
VERTEX
  8
estabelecimento_escolar_publico
 10
-9.407814
 20
38.712238
  0
VERTEX
  8
estabelecimento_escolar_publico
 10
-9.407805
 20
38.712226
  0
VERTEX
  8
estabelecimento_escolar_publico
 10
-9.407800
 20
38.712213
  0
VERTEX
  8
estabelecimento_escolar_publico
 10
-9.407799
 20
38.712200
  0
VERTEX
  8
estabelecimento_escolar_publico
 10
-9.407799
 20
38.712190
  0
VERTEX
  8
estabelecimento_escolar_publico
 10
-9.407800
 20
38.712182
  0
VERTEX
  8
estabelecimento_escolar_publico
 10
-9.407804
 20
38.712172
  0
VERTEX
  8
estabelecimento_escolar_publico
 10
-9.407811
 20
38.712158
  0
VERTEX
  8
estabelecimento_escolar_publico
 10
-9.407820
 20
38.712146
  0
VERTEX
  8
estabelecimento_escolar_publico
 10
-9.407831
 20
38.712137
  0
VERTEX
  8
estabelecimento_escolar_publico
 10
-9.407911
 20
38.712103
  0
VERTEX
  8
estabelecimento_escolar_publico
 10
-9.408082
 20
38.712032
  0
VERTEX
  8
estabelecimento_escolar_publico
 10
-9.408404
 20
38.711897
  0
VERTEX
  8
estabelecimento_escolar_publico
 10
-9.408585
 20
38.711819
  0
VERTEX
  8
estabelecimento_escolar_publico
 10
-9.408758
 20
38.712087
  0
VERTEX
  8
estabelecimento_escolar_publico
 10
-9.408893
 20
38.712290
  0
VERTEX
  8
estabelecimento_escolar_publico
 10
-9.408908
 20
38.712292
  0
SEQEND
  0
POLYLINE
  8
estabelecimento_escolar_publico
  6
BYLAYER
 66
1
 70
1
 40
0.000000
 41
0.000000
  0
VERTEX
  8
estabelecimento_escolar_publico
 10
-9.436344
 20
38.703714
  0
VERTEX
  8
estabelecimento_escolar_publico
 10
-9.436379
 20
38.703711
  0
VERTEX
  8
estabelecimento_escolar_publico
 10
-9.436618
 20
38.703969
  0
VERTEX
  8
estabelecimento_escolar_publico
 10
-9.436656
 20
38.704000
  0
VERTEX
  8
estabelecimento_escolar_publico
 10
-9.436466
 20
38.704252
  0
VERTEX
  8
estabelecimento_escolar_publico
 10
-9.436277
 20
38.704355
  0
VERTEX
  8
estabelecimento_escolar_publico
 10
-9.435657
 20
38.704363
  0
VERTEX
  8
estabelecimento_escolar_publico
 10
-9.435209
 20
38.704256
  0
VERTEX
  8
estabelecimento_escolar_publico
 10
-9.435191
 20
38.703822
  0
VERTEX
  8
estabelecimento_escolar_publico
 10
-9.435189
 20
38.703808
  0
VERTEX
  8
estabelecimento_escolar_publico
 10
-9.435186
 20
38.703787
  0
VERTEX
  8
estabelecimento_escolar_publico
 10
-9.435184
 20
38.703780
  0
VERTEX
  8
estabelecimento_escolar_publico
 10
-9.435178
 20
38.703770
  0
VERTEX
  8
estabelecimento_escolar_publico
 10
-9.435173
 20
38.703756
  0
VERTEX
  8
estabelecimento_escolar_publico
 10
-9.435168
 20
38.703747
  0
VERTEX
  8
estabelecimento_escolar_publico
 10
-9.435163
 20
38.703739
  0
VERTEX
  8
estabelecimento_escolar_publico
 10
-9.435157
 20
38.703730
  0
VERTEX
  8
estabelecimento_escolar_publico
 10
-9.435152
 20
38.703723
  0
VERTEX
  8
estabelecimento_escolar_publico
 10
-9.435146
 20
38.703717
  0
VERTEX
  8
estabelecimento_escolar_publico
 10
-9.435138
 20
38.703707
  0
VERTEX
  8
estabelecimento_escolar_publico
 10
-9.435131
 20
38.703698
  0
VERTEX
  8
estabelecimento_escolar_publico
 10
-9.435122
 20
38.703690
  0
VERTEX
  8
estabelecimento_escolar_publico
 10
-9.435116
 20
38.703685
  0
VERTEX
  8
estabelecimento_escolar_publico
 10
-9.435111
 20
38.703680
  0
VERTEX
  8
estabelecimento_escolar_publico
 10
-9.435025
 20
38.703610
  0
VERTEX
  8
estabelecimento_escolar_publico
 10
-9.435040
 20
38.703541
  0
VERTEX
  8
estabelecimento_escolar_publico
 10
-9.435069
 20
38.703412
  0
VERTEX
  8
estabelecimento_escolar_publico
 10
-9.435076
 20
38.703362
  0
VERTEX
  8
estabelecimento_escolar_publico
 10
-9.435099
 20
38.703277
  0
VERTEX
  8
estabelecimento_escolar_publico
 10
-9.435123
 20
38.703191
  0
VERTEX
  8
estabelecimento_escolar_publico
 10
-9.435177
 20
38.703166
  0
VERTEX
  8
estabelecimento_escolar_publico
 10
-9.435218
 20
38.703150
  0
VERTEX
  8
estabelecimento_escolar_publico
 10
-9.435308
 20
38.703109
  0
VERTEX
  8
estabelecimento_escolar_publico
 10
-9.435352
 20
38.703091
  0
VERTEX
  8
estabelecimento_escolar_publico
 10
-9.435427
 20
38.703060
  0
VERTEX
  8
estabelecimento_escolar_publico
 10
-9.435499
 20
38.703028
  0
VERTEX
  8
estabelecimento_escolar_publico
 10
-9.435586
 20
38.702988
  0
VERTEX
  8
estabelecimento_escolar_publico
 10
-9.435654
 20
38.702960
  0
VERTEX
  8
estabelecimento_escolar_publico
 10
-9.435675
 20
38.702951
  0
VERTEX
  8
estabelecimento_escolar_publico
 10
-9.435951
 20
38.703248
  0
VERTEX
  8
estabelecimento_escolar_publico
 10
-9.435953
 20
38.703251
  0
VERTEX
  8
estabelecimento_escolar_publico
 10
-9.435955
 20
38.703254
  0
VERTEX
  8
estabelecimento_escolar_publico
 10
-9.435958
 20
38.703258
  0
VERTEX
  8
estabelecimento_escolar_publico
 10
-9.435960
 20
38.703262
  0
VERTEX
  8
estabelecimento_escolar_publico
 10
-9.435960
 20
38.703266
  0
VERTEX
  8
estabelecimento_escolar_publico
 10
-9.435960
 20
38.703270
  0
VERTEX
  8
estabelecimento_escolar_publico
 10
-9.435958
 20
38.703274
  0
VERTEX
  8
estabelecimento_escolar_publico
 10
-9.435955
 20
38.703281
  0
VERTEX
  8
estabelecimento_escolar_publico
 10
-9.435951
 20
38.703289
  0
VERTEX
  8
estabelecimento_escolar_publico
 10
-9.435944
 20
38.703292
  0
VERTEX
  8
estabelecimento_escolar_publico
 10
-9.435970
 20
38.703323
  0
VERTEX
  8
estabelecimento_escolar_publico
 10
-9.435998
 20
38.703318
  0
VERTEX
  8
estabelecimento_escolar_publico
 10
-9.436007
 20
38.703318
  0
VERTEX
  8
estabelecimento_escolar_publico
 10
-9.436013
 20
38.703321
  0
VERTEX
  8
estabelecimento_escolar_publico
 10
-9.436017
 20
38.703323
  0
VERTEX
  8
estabelecimento_escolar_publico
 10
-9.436027
 20
38.703328
  0
VERTEX
  8
estabelecimento_escolar_publico
 10
-9.436035
 20
38.703335
  0
VERTEX
  8
estabelecimento_escolar_publico
 10
-9.436137
 20
38.703455
  0
VERTEX
  8
estabelecimento_escolar_publico
 10
-9.436266
 20
38.703590
  0
VERTEX
  8
estabelecimento_escolar_publico
 10
-9.436282
 20
38.703720
  0
VERTEX
  8
estabelecimento_escolar_publico
 10
-9.436323
 20
38.703716
  0
VERTEX
  8
estabelecimento_escolar_publico
 10
-9.436344
 20
38.703714
  0
SEQEND
  0
POLYLINE
  8
estabelecimento_escolar_publico
  6
BYLAYER
 66
1
 70
1
 40
0.000000
 41
0.000000
  0
VERTEX
  8
estabelecimento_escolar_publico
 10
-9.447364
 20
38.753784
  0
VERTEX
  8
estabelecimento_escolar_publico
 10
-9.447309
 20
38.753887
  0
VERTEX
  8
estabelecimento_escolar_publico
 10
-9.446787
 20
38.753786
  0
VERTEX
  8
estabelecimento_escolar_publico
 10
-9.446553
 20
38.753706
  0
VERTEX
  8
estabelecimento_escolar_publico
 10
-9.446749
 20
38.753362
  0
VERTEX
  8
estabelecimento_escolar_publico
 10
-9.446957
 20
38.753434
  0
VERTEX
  8
estabelecimento_escolar_publico
 10
-9.447365
 20
38.753781
  0
VERTEX
  8
estabelecimento_escolar_publico
 10
-9.447364
 20
38.753784
  0
SEQEND
  0
POLYLINE
  8
estabelecimento_escolar_publico
  6
BYLAYER
 66
1
 70
1
 40
0.000000
 41
0.000000
  0
VERTEX
  8
estabelecimento_escolar_publico
 10
-9.391122
 20
38.734595
  0
VERTEX
  8
estabelecimento_escolar_publico
 10
-9.391138
 20
38.734595
  0
VERTEX
  8
estabelecimento_escolar_publico
 10
-9.391137
 20
38.734542
  0
VERTEX
  8
estabelecimento_escolar_publico
 10
-9.391100
 20
38.734542
  0
VERTEX
  8
estabelecimento_escolar_publico
 10
-9.391100
 20
38.734473
  0
VERTEX
  8
estabelecimento_escolar_publico
 10
-9.391262
 20
38.734375
  0
VERTEX
  8
estabelecimento_escolar_publico
 10
-9.391283
 20
38.734372
  0
VERTEX
  8
estabelecimento_escolar_publico
 10
-9.391285
 20
38.734483
  0
VERTEX
  8
estabelecimento_escolar_publico
 10
-9.391291
 20
38.734484
  0
VERTEX
  8
estabelecimento_escolar_publico
 10
-9.391295
 20
38.734551
  0
VERTEX
  8
estabelecimento_escolar_publico
 10
-9.391285
 20
38.734551
  0
VERTEX
  8
estabelecimento_escolar_publico
 10
-9.391289
 20
38.734646
  0
VERTEX
  8
estabelecimento_escolar_publico
 10
-9.391272
 20
38.734647
  0
VERTEX
  8
estabelecimento_escolar_publico
 10
-9.391274
 20
38.734734
  0
VERTEX
  8
estabelecimento_escolar_publico
 10
-9.391261
 20
38.734734
  0
VERTEX
  8
estabelecimento_escolar_publico
 10
-9.391261
 20
38.734753
  0
VERTEX
  8
estabelecimento_escolar_publico
 10
-9.391274
 20
38.734753
  0
VERTEX
  8
estabelecimento_escolar_publico
 10
-9.391275
 20
38.734791
  0
VERTEX
  8
estabelecimento_escolar_publico
 10
-9.391306
 20
38.734790
  0
VERTEX
  8
estabelecimento_escolar_publico
 10
-9.391322
 20
38.734939
  0
VERTEX
  8
estabelecimento_escolar_publico
 10
-9.391283
 20
38.734941
  0
VERTEX
  8
estabelecimento_escolar_publico
 10
-9.391288
 20
38.734963
  0
VERTEX
  8
estabelecimento_escolar_publico
 10
-9.391277
 20
38.734964
  0
VERTEX
  8
estabelecimento_escolar_publico
 10
-9.391279
 20
38.734980
  0
VERTEX
  8
estabelecimento_escolar_publico
 10
-9.391266
 20
38.734981
  0
VERTEX
  8
estabelecimento_escolar_publico
 10
-9.391266
 20
38.734987
  0
VERTEX
  8
estabelecimento_escolar_publico
 10
-9.391160
 20
38.734995
  0
VERTEX
  8
estabelecimento_escolar_publico
 10
-9.391159
 20
38.734984
  0
VERTEX
  8
estabelecimento_escolar_publico
 10
-9.391142
 20
38.734985
  0
VERTEX
  8
estabelecimento_escolar_publico
 10
-9.391134
 20
38.734810
  0
VERTEX
  8
estabelecimento_escolar_publico
 10
-9.391121
 20
38.734693
  0
VERTEX
  8
estabelecimento_escolar_publico
 10
-9.391120
 20
38.734595
  0
VERTEX
  8
estabelecimento_escolar_publico
 10
-9.391122
 20
38.734595
  0
SEQEND
  0
POLYLINE
  8
estabelecimento_escolar_publico
  6
BYLAYER
 66
1
 70
1
 40
0.000000
 41
0.000000
  0
VERTEX
  8
estabelecimento_escolar_publico
 10
-9.341016
 20
38.737699
  0
VERTEX
  8
estabelecimento_escolar_publico
 10
-9.340897
 20
38.737517
  0
VERTEX
  8
estabelecimento_escolar_publico
 10
-9.340878
 20
38.737488
  0
VERTEX
  8
estabelecimento_escolar_publico
 10
-9.340769
 20
38.737436
  0
VERTEX
  8
estabelecimento_escolar_publico
 10
-9.340700
 20
38.737305
  0
VERTEX
  8
estabelecimento_escolar_publico
 10
-9.340700
 20
38.737289
  0
VERTEX
  8
estabelecimento_escolar_publico
 10
-9.340698
 20
38.737056
  0
VERTEX
  8
estabelecimento_escolar_publico
 10
-9.340805
 20
38.737001
  0
VERTEX
  8
estabelecimento_escolar_publico
 10
-9.341139
 20
38.737004
  0
VERTEX
  8
estabelecimento_escolar_publico
 10
-9.341149
 20
38.737004
  0
VERTEX
  8
estabelecimento_escolar_publico
 10
-9.341161
 20
38.737004
  0
VERTEX
  8
estabelecimento_escolar_publico
 10
-9.341202
 20
38.736999
  0
VERTEX
  8
estabelecimento_escolar_publico
 10
-9.341255
 20
38.736999
  0
VERTEX
  8
estabelecimento_escolar_publico
 10
-9.341265
 20
38.737540
  0
VERTEX
  8
estabelecimento_escolar_publico
 10
-9.341210
 20
38.737539
  0
VERTEX
  8
estabelecimento_escolar_publico
 10
-9.341222
 20
38.737925
  0
VERTEX
  8
estabelecimento_escolar_publico
 10
-9.341168
 20
38.737955
  0
VERTEX
  8
estabelecimento_escolar_publico
 10
-9.341135
 20
38.737942
  0
VERTEX
  8
estabelecimento_escolar_publico
 10
-9.341108
 20
38.737912
  0
VERTEX
  8
estabelecimento_escolar_publico
 10
-9.341019
 20
38.737704
  0
VERTEX
  8
estabelecimento_escolar_publico
 10
-9.341016
 20
38.737699
  0
SEQEND
  0
POLYLINE
  8
estabelecimento_escolar_publico
  6
BYLAYER
 66
1
 70
1
 40
0.000000
 41
0.000000
  0
VERTEX
  8
estabelecimento_escolar_publico
 10
-9.352828
 20
38.697007
  0
VERTEX
  8
estabelecimento_escolar_publico
 10
-9.352307
 20
38.697084
  0
VERTEX
  8
estabelecimento_escolar_publico
 10
-9.352274
 20
38.697088
  0
VERTEX
  8
estabelecimento_escolar_publico
 10
-9.352263
 20
38.697090
  0
VERTEX
  8
estabelecimento_escolar_publico
 10
-9.351987
 20
38.697130
  0
VERTEX
  8
estabelecimento_escolar_publico
 10
-9.351910
 20
38.697140
  0
VERTEX
  8
estabelecimento_escolar_publico
 10
-9.351864
 20
38.697146
  0
VERTEX
  8
estabelecimento_escolar_publico
 10
-9.351203
 20
38.697231
  0
VERTEX
  8
estabelecimento_escolar_publico
 10
-9.351057
 20
38.696929
  0
VERTEX
  8
estabelecimento_escolar_publico
 10
-9.350772
 20
38.696360
  0
VERTEX
  8
estabelecimento_escolar_publico
 10
-9.350548
 20
38.695894
  0
VERTEX
  8
estabelecimento_escolar_publico
 10
-9.351239
 20
38.695687
  0
VERTEX
  8
estabelecimento_escolar_publico
 10
-9.351580
 20
38.695591
  0
VERTEX
  8
estabelecimento_escolar_publico
 10
-9.351637
 20
38.695585
  0
VERTEX
  8
estabelecimento_escolar_publico
 10
-9.351659
 20
38.695584
  0
VERTEX
  8
estabelecimento_escolar_publico
 10
-9.351672
 20
38.695583
  0
VERTEX
  8
estabelecimento_escolar_publico
 10
-9.352022
 20
38.695554
  0
VERTEX
  8
estabelecimento_escolar_publico
 10
-9.352657
 20
38.695514
  0
VERTEX
  8
estabelecimento_escolar_publico
 10
-9.352708
 20
38.695973
  0
VERTEX
  8
estabelecimento_escolar_publico
 10
-9.352753
 20
38.696359
  0
VERTEX
  8
estabelecimento_escolar_publico
 10
-9.352761
 20
38.696414
  0
VERTEX
  8
estabelecimento_escolar_publico
 10
-9.352796
 20
38.696765
  0
VERTEX
  8
estabelecimento_escolar_publico
 10
-9.352828
 20
38.697007
  0
SEQEND
  0
POLYLINE
  8
estabelecimento_escolar_publico
  6
BYLAYER
 66
1
 70
1
 40
0.000000
 41
0.000000
  0
VERTEX
  8
estabelecimento_escolar_publico
 10
-9.402185
 20
38.735941
  0
VERTEX
  8
estabelecimento_escolar_publico
 10
-9.400499
 20
38.736059
  0
VERTEX
  8
estabelecimento_escolar_publico
 10
-9.400488
 20
38.735999
  0
VERTEX
  8
estabelecimento_escolar_publico
 10
-9.400536
 20
38.735984
  0
VERTEX
  8
estabelecimento_escolar_publico
 10
-9.400590
 20
38.735957
  0
VERTEX
  8
estabelecimento_escolar_publico
 10
-9.400640
 20
38.735929
  0
VERTEX
  8
estabelecimento_escolar_publico
 10
-9.400681
 20
38.735895
  0
VERTEX
  8
estabelecimento_escolar_publico
 10
-9.400721
 20
38.735862
  0
VERTEX
  8
estabelecimento_escolar_publico
 10
-9.400752
 20
38.735822
  0
VERTEX
  8
estabelecimento_escolar_publico
 10
-9.400764
 20
38.735789
  0
VERTEX
  8
estabelecimento_escolar_publico
 10
-9.400894
 20
38.735773
  0
VERTEX
  8
estabelecimento_escolar_publico
 10
-9.400877
 20
38.735663
  0
VERTEX
  8
estabelecimento_escolar_publico
 10
-9.402164
 20
38.735332
  0
VERTEX
  8
estabelecimento_escolar_publico
 10
-9.402177
 20
38.735462
  0
VERTEX
  8
estabelecimento_escolar_publico
 10
-9.402152
 20
38.735472
  0
VERTEX
  8
estabelecimento_escolar_publico
 10
-9.402131
 20
38.735486
  0
VERTEX
  8
estabelecimento_escolar_publico
 10
-9.402115
 20
38.735501
  0
VERTEX
  8
estabelecimento_escolar_publico
 10
-9.402104
 20
38.735522
  0
VERTEX
  8
estabelecimento_escolar_publico
 10
-9.402096
 20
38.735547
  0
VERTEX
  8
estabelecimento_escolar_publico
 10
-9.402099
 20
38.735573
  0
VERTEX
  8
estabelecimento_escolar_publico
 10
-9.402116
 20
38.735606
  0
VERTEX
  8
estabelecimento_escolar_publico
 10
-9.402150
 20
38.735631
  0
VERTEX
  8
estabelecimento_escolar_publico
 10
-9.402163
 20
38.735756
  0
VERTEX
  8
estabelecimento_escolar_publico
 10
-9.402134
 20
38.735761
  0
VERTEX
  8
estabelecimento_escolar_publico
 10
-9.402148
 20
38.735861
  0
VERTEX
  8
estabelecimento_escolar_publico
 10
-9.402180
 20
38.735866
  0
VERTEX
  8
estabelecimento_escolar_publico
 10
-9.402185
 20
38.735941
  0
SEQEND
  0
POLYLINE
  8
estabelecimento_escolar_publico
  6
BYLAYER
 66
1
 70
1
 40
0.000000
 41
0.000000
  0
VERTEX
  8
estabelecimento_escolar_publico
 10
-9.333408
 20
38.725342
  0
VERTEX
  8
estabelecimento_escolar_publico
 10
-9.333312
 20
38.725397
  0
VERTEX
  8
estabelecimento_escolar_publico
 10
-9.333421
 20
38.725490
  0
VERTEX
  8
estabelecimento_escolar_publico
 10
-9.333423
 20
38.725493
  0
VERTEX
  8
estabelecimento_escolar_publico
 10
-9.333108
 20
38.725617
  0
VERTEX
  8
estabelecimento_escolar_publico
 10
-9.333037
 20
38.725540
  0
VERTEX
  8
estabelecimento_escolar_publico
 10
-9.332748
 20
38.725601
  0
VERTEX
  8
estabelecimento_escolar_publico
 10
-9.332747
 20
38.725517
  0
VERTEX
  8
estabelecimento_escolar_publico
 10
-9.332756
 20
38.725462
  0
VERTEX
  8
estabelecimento_escolar_publico
 10
-9.332772
 20
38.725404
  0
VERTEX
  8
estabelecimento_escolar_publico
 10
-9.332805
 20
38.725340
  0
VERTEX
  8
estabelecimento_escolar_publico
 10
-9.332854
 20
38.725265
  0
VERTEX
  8
estabelecimento_escolar_publico
 10
-9.332907
 20
38.725204
  0
VERTEX
  8
estabelecimento_escolar_publico
 10
-9.332972
 20
38.725147
  0
VERTEX
  8
estabelecimento_escolar_publico
 10
-9.333020
 20
38.725124
  0
VERTEX
  8
estabelecimento_escolar_publico
 10
-9.333043
 20
38.725117
  0
VERTEX
  8
estabelecimento_escolar_publico
 10
-9.333064
 20
38.725122
  0
VERTEX
  8
estabelecimento_escolar_publico
 10
-9.333085
 20
38.725128
  0
VERTEX
  8
estabelecimento_escolar_publico
 10
-9.333208
 20
38.725224
  0
VERTEX
  8
estabelecimento_escolar_publico
 10
-9.333244
 20
38.725199
  0
VERTEX
  8
estabelecimento_escolar_publico
 10
-9.333408
 20
38.725342
  0
SEQEND
  0
POLYLINE
  8
estabelecimento_escolar_publico
  6
BYLAYER
 66
1
 70
1
 40
0.000000
 41
0.000000
  0
VERTEX
  8
estabelecimento_escolar_publico
 10
-9.326673
 20
38.701904
  0
VERTEX
  8
estabelecimento_escolar_publico
 10
-9.326811
 20
38.701915
  0
VERTEX
  8
estabelecimento_escolar_publico
 10
-9.326686
 20
38.702685
  0
VERTEX
  8
estabelecimento_escolar_publico
 10
-9.326145
 20
38.702686
  0
VERTEX
  8
estabelecimento_escolar_publico
 10
-9.326124
 20
38.702515
  0
VERTEX
  8
estabelecimento_escolar_publico
 10
-9.326101
 20
38.702389
  0
VERTEX
  8
estabelecimento_escolar_publico
 10
-9.326115
 20
38.702358
  0
VERTEX
  8
estabelecimento_escolar_publico
 10
-9.326105
 20
38.702311
  0
VERTEX
  8
estabelecimento_escolar_publico
 10
-9.326078
 20
38.702288
  0
VERTEX
  8
estabelecimento_escolar_publico
 10
-9.325971
 20
38.701961
  0
VERTEX
  8
estabelecimento_escolar_publico
 10
-9.326108
 20
38.701934
  0
VERTEX
  8
estabelecimento_escolar_publico
 10
-9.326237
 20
38.701916
  0
VERTEX
  8
estabelecimento_escolar_publico
 10
-9.326371
 20
38.701907
  0
VERTEX
  8
estabelecimento_escolar_publico
 10
-9.326518
 20
38.701904
  0
VERTEX
  8
estabelecimento_escolar_publico
 10
-9.326673
 20
38.701904
  0
SEQEND
  0
POLYLINE
  8
estabelecimento_escolar_publico
  6
BYLAYER
 66
1
 70
1
 40
0.000000
 41
0.000000
  0
VERTEX
  8
estabelecimento_escolar_publico
 10
-9.330641
 20
38.698592
  0
VERTEX
  8
estabelecimento_escolar_publico
 10
-9.330671
 20
38.698749
  0
VERTEX
  8
estabelecimento_escolar_publico
 10
-9.330433
 20
38.698816
  0
VERTEX
  8
estabelecimento_escolar_publico
 10
-9.330420
 20
38.698606
  0
VERTEX
  8
estabelecimento_escolar_publico
 10
-9.330426
 20
38.698597
  0
VERTEX
  8
estabelecimento_escolar_publico
 10
-9.330439
 20
38.698590
  0
VERTEX
  8
estabelecimento_escolar_publico
 10
-9.330459
 20
38.698586
  0
VERTEX
  8
estabelecimento_escolar_publico
 10
-9.330579
 20
38.698564
  0
VERTEX
  8
estabelecimento_escolar_publico
 10
-9.330600
 20
38.698565
  0
VERTEX
  8
estabelecimento_escolar_publico
 10
-9.330614
 20
38.698570
  0
VERTEX
  8
estabelecimento_escolar_publico
 10
-9.330629
 20
38.698577
  0
VERTEX
  8
estabelecimento_escolar_publico
 10
-9.330641
 20
38.698592
  0
SEQEND
  0
POLYLINE
  8
estabelecimento_escolar_publico
  6
BYLAYER
 66
1
 70
1
 40
0.000000
 41
0.000000
  0
VERTEX
  8
estabelecimento_escolar_publico
 10
-9.329308
 20
38.690315
  0
VERTEX
  8
estabelecimento_escolar_publico
 10
-9.329360
 20
38.690328
  0
VERTEX
  8
estabelecimento_escolar_publico
 10
-9.329472
 20
38.690354
  0
VERTEX
  8
estabelecimento_escolar_publico
 10
-9.329562
 20
38.690338
  0
VERTEX
  8
estabelecimento_escolar_publico
 10
-9.329575
 20
38.690338
  0
VERTEX
  8
estabelecimento_escolar_publico
 10
-9.329595
 20
38.690339
  0
VERTEX
  8
estabelecimento_escolar_publico
 10
-9.329650
 20
38.690350
  0
VERTEX
  8
estabelecimento_escolar_publico
 10
-9.329672
 20
38.690356
  0
VERTEX
  8
estabelecimento_escolar_publico
 10
-9.329685
 20
38.690362
  0
VERTEX
  8
estabelecimento_escolar_publico
 10
-9.329704
 20
38.690372
  0
VERTEX
  8
estabelecimento_escolar_publico
 10
-9.329720
 20
38.690384
  0
VERTEX
  8
estabelecimento_escolar_publico
 10
-9.329735
 20
38.690407
  0
VERTEX
  8
estabelecimento_escolar_publico
 10
-9.329743
 20
38.690423
  0
VERTEX
  8
estabelecimento_escolar_publico
 10
-9.329747
 20
38.690439
  0
VERTEX
  8
estabelecimento_escolar_publico
 10
-9.329748
 20
38.690457
  0
VERTEX
  8
estabelecimento_escolar_publico
 10
-9.329747
 20
38.690474
  0
VERTEX
  8
estabelecimento_escolar_publico
 10
-9.329681
 20
38.690586
  0
VERTEX
  8
estabelecimento_escolar_publico
 10
-9.329625
 20
38.690670
  0
VERTEX
  8
estabelecimento_escolar_publico
 10
-9.329558
 20
38.690754
  0
VERTEX
  8
estabelecimento_escolar_publico
 10
-9.329515
 20
38.690802
  0
VERTEX
  8
estabelecimento_escolar_publico
 10
-9.329485
 20
38.690832
  0
VERTEX
  8
estabelecimento_escolar_publico
 10
-9.329437
 20
38.690877
  0
VERTEX
  8
estabelecimento_escolar_publico
 10
-9.329403
 20
38.690905
  0
VERTEX
  8
estabelecimento_escolar_publico
 10
-9.329363
 20
38.690937
  0
VERTEX
  8
estabelecimento_escolar_publico
 10
-9.329322
 20
38.690966
  0
VERTEX
  8
estabelecimento_escolar_publico
 10
-9.329279
 20
38.690994
  0
VERTEX
  8
estabelecimento_escolar_publico
 10
-9.329234
 20
38.691020
  0
VERTEX
  8
estabelecimento_escolar_publico
 10
-9.329164
 20
38.691056
  0
VERTEX
  8
estabelecimento_escolar_publico
 10
-9.329153
 20
38.691059
  0
VERTEX
  8
estabelecimento_escolar_publico
 10
-9.329130
 20
38.691057
  0
VERTEX
  8
estabelecimento_escolar_publico
 10
-9.328705
 20
38.690926
  0
VERTEX
  8
estabelecimento_escolar_publico
 10
-9.328693
 20
38.690919
  0
VERTEX
  8
estabelecimento_escolar_publico
 10
-9.328689
 20
38.690914
  0
VERTEX
  8
estabelecimento_escolar_publico
 10
-9.328456
 20
38.690498
  0
VERTEX
  8
estabelecimento_escolar_publico
 10
-9.328425
 20
38.690442
  0
VERTEX
  8
estabelecimento_escolar_publico
 10
-9.328384
 20
38.690368
  0
VERTEX
  8
estabelecimento_escolar_publico
 10
-9.328423
 20
38.690362
  0
VERTEX
  8
estabelecimento_escolar_publico
 10
-9.329093
 20
38.690248
  0
VERTEX
  8
estabelecimento_escolar_publico
 10
-9.329107
 20
38.690258
  0
VERTEX
  8
estabelecimento_escolar_publico
 10
-9.329125
 20
38.690269
  0
VERTEX
  8
estabelecimento_escolar_publico
 10
-9.329279
 20
38.690308
  0
VERTEX
  8
estabelecimento_escolar_publico
 10
-9.329308
 20
38.690315
  0
SEQEND
  0
POLYLINE
  8
estabelecimento_escolar_publico
  6
BYLAYER
 66
1
 70
1
 40
0.000000
 41
0.000000
  0
VERTEX
  8
estabelecimento_escolar_publico
 10
-9.388759
 20
38.745904
  0
VERTEX
  8
estabelecimento_escolar_publico
 10
-9.388773
 20
38.745912
  0
VERTEX
  8
estabelecimento_escolar_publico
 10
-9.388789
 20
38.745920
  0
VERTEX
  8
estabelecimento_escolar_publico
 10
-9.388284
 20
38.746475
  0
VERTEX
  8
estabelecimento_escolar_publico
 10
-9.388196
 20
38.746423
  0
VERTEX
  8
estabelecimento_escolar_publico
 10
-9.388090
 20
38.746536
  0
VERTEX
  8
estabelecimento_escolar_publico
 10
-9.388040
 20
38.746510
  0
VERTEX
  8
estabelecimento_escolar_publico
 10
-9.388018
 20
38.746533
  0
VERTEX
  8
estabelecimento_escolar_publico
 10
-9.387399
 20
38.746186
  0
VERTEX
  8
estabelecimento_escolar_publico
 10
-9.387746
 20
38.746091
  0
VERTEX
  8
estabelecimento_escolar_publico
 10
-9.387924
 20
38.746020
  0
VERTEX
  8
estabelecimento_escolar_publico
 10
-9.388101
 20
38.745943
  0
VERTEX
  8
estabelecimento_escolar_publico
 10
-9.388507
 20
38.745769
  0
VERTEX
  8
estabelecimento_escolar_publico
 10
-9.388689
 20
38.745868
  0
VERTEX
  8
estabelecimento_escolar_publico
 10
-9.388759
 20
38.745904
  0
SEQEND
  0
POLYLINE
  8
estabelecimento_escolar_publico
  6
BYLAYER
 66
1
 70
1
 40
0.000000
 41
0.000000
  0
VERTEX
  8
estabelecimento_escolar_publico
 10
-9.383933
 20
38.706058
  0
VERTEX
  8
estabelecimento_escolar_publico
 10
-9.383922
 20
38.706079
  0
VERTEX
  8
estabelecimento_escolar_publico
 10
-9.383887
 20
38.706097
  0
VERTEX
  8
estabelecimento_escolar_publico
 10
-9.383725
 20
38.706148
  0
VERTEX
  8
estabelecimento_escolar_publico
 10
-9.383678
 20
38.706152
  0
VERTEX
  8
estabelecimento_escolar_publico
 10
-9.383655
 20
38.706147
  0
VERTEX
  8
estabelecimento_escolar_publico
 10
-9.383465
 20
38.706094
  0
VERTEX
  8
estabelecimento_escolar_publico
 10
-9.383305
 20
38.705983
  0
VERTEX
  8
estabelecimento_escolar_publico
 10
-9.383187
 20
38.705500
  0
VERTEX
  8
estabelecimento_escolar_publico
 10
-9.383200
 20
38.705480
  0
VERTEX
  8
estabelecimento_escolar_publico
 10
-9.383219
 20
38.705467
  0
VERTEX
  8
estabelecimento_escolar_publico
 10
-9.383547
 20
38.705408
  0
VERTEX
  8
estabelecimento_escolar_publico
 10
-9.383628
 20
38.705400
  0
VERTEX
  8
estabelecimento_escolar_publico
 10
-9.383782
 20
38.705386
  0
VERTEX
  8
estabelecimento_escolar_publico
 10
-9.384022
 20
38.705381
  0
VERTEX
  8
estabelecimento_escolar_publico
 10
-9.384043
 20
38.705394
  0
VERTEX
  8
estabelecimento_escolar_publico
 10
-9.384055
 20
38.705410
  0
VERTEX
  8
estabelecimento_escolar_publico
 10
-9.384058
 20
38.705427
  0
VERTEX
  8
estabelecimento_escolar_publico
 10
-9.383933
 20
38.706058
  0
SEQEND
  0
POLYLINE
  8
estabelecimento_escolar_publico
  6
BYLAYER
 66
1
 70
1
 40
0.000000
 41
0.000000
  0
VERTEX
  8
estabelecimento_escolar_publico
 10
-9.439796
 20
38.701386
  0
VERTEX
  8
estabelecimento_escolar_publico
 10
-9.439644
 20
38.701401
  0
VERTEX
  8
estabelecimento_escolar_publico
 10
-9.439656
 20
38.701483
  0
VERTEX
  8
estabelecimento_escolar_publico
 10
-9.439338
 20
38.701519
  0
VERTEX
  8
estabelecimento_escolar_publico
 10
-9.439247
 20
38.701120
  0
VERTEX
  8
estabelecimento_escolar_publico
 10
-9.439742
 20
38.701061
  0
VERTEX
  8
estabelecimento_escolar_publico
 10
-9.439796
 20
38.701386
  0
SEQEND
  0
POLYLINE
  8
estabelecimento_escolar_publico
  6
BYLAYER
 66
1
 70
1
 40
0.000000
 41
0.000000
  0
VERTEX
  8
estabelecimento_escolar_publico
 10
-9.424780
 20
38.708742
  0
VERTEX
  8
estabelecimento_escolar_publico
 10
-9.424845
 20
38.708742
  0
VERTEX
  8
estabelecimento_escolar_publico
 10
-9.425057
 20
38.708879
  0
VERTEX
  8
estabelecimento_escolar_publico
 10
-9.425080
 20
38.709013
  0
VERTEX
  8
estabelecimento_escolar_publico
 10
-9.424906
 20
38.709056
  0
VERTEX
  8
estabelecimento_escolar_publico
 10
-9.424712
 20
38.709121
  0
VERTEX
  8
estabelecimento_escolar_publico
 10
-9.424627
 20
38.709056
  0
VERTEX
  8
estabelecimento_escolar_publico
 10
-9.424528
 20
38.708958
  0
VERTEX
  8
estabelecimento_escolar_publico
 10
-9.424414
 20
38.708853
  0
VERTEX
  8
estabelecimento_escolar_publico
 10
-9.424647
 20
38.708623
  0
VERTEX
  8
estabelecimento_escolar_publico
 10
-9.424743
 20
38.708665
  0
VERTEX
  8
estabelecimento_escolar_publico
 10
-9.424760
 20
38.708675
  0
VERTEX
  8
estabelecimento_escolar_publico
 10
-9.424780
 20
38.708742
  0
SEQEND
  0
POLYLINE
  8
estabelecimento_escolar_publico
  6
BYLAYER
 66
1
 70
1
 40
0.000000
 41
0.000000
  0
VERTEX
  8
estabelecimento_escolar_publico
 10
-9.400990
 20
38.734004
  0
VERTEX
  8
estabelecimento_escolar_publico
 10
-9.400938
 20
38.734005
  0
VERTEX
  8
estabelecimento_escolar_publico
 10
-9.400933
 20
38.733830
  0
VERTEX
  8
estabelecimento_escolar_publico
 10
-9.400984
 20
38.733829
  0
VERTEX
  8
estabelecimento_escolar_publico
 10
-9.400980
 20
38.733727
  0
VERTEX
  8
estabelecimento_escolar_publico
 10
-9.400035
 20
38.733742
  0
VERTEX
  8
estabelecimento_escolar_publico
 10
-9.400030
 20
38.733580
  0
VERTEX
  8
estabelecimento_escolar_publico
 10
-9.400330
 20
38.733575
  0
VERTEX
  8
estabelecimento_escolar_publico
 10
-9.400332
 20
38.733491
  0
VERTEX
  8
estabelecimento_escolar_publico
 10
-9.400442
 20
38.733499
  0
VERTEX
  8
estabelecimento_escolar_publico
 10
-9.400439
 20
38.733349
  0
VERTEX
  8
estabelecimento_escolar_publico
 10
-9.400563
 20
38.733344
  0
VERTEX
  8
estabelecimento_escolar_publico
 10
-9.400567
 20
38.733447
  0
VERTEX
  8
estabelecimento_escolar_publico
 10
-9.400930
 20
38.733440
  0
VERTEX
  8
estabelecimento_escolar_publico
 10
-9.400916
 20
38.732989
  0
VERTEX
  8
estabelecimento_escolar_publico
 10
-9.400658
 20
38.732999
  0
VERTEX
  8
estabelecimento_escolar_publico
 10
-9.400661
 20
38.733040
  0
VERTEX
  8
estabelecimento_escolar_publico
 10
-9.400155
 20
38.733049
  0
VERTEX
  8
estabelecimento_escolar_publico
 10
-9.400149
 20
38.732887
  0
VERTEX
  8
estabelecimento_escolar_publico
 10
-9.400848
 20
38.732870
  0
VERTEX
  8
estabelecimento_escolar_publico
 10
-9.401209
 20
38.732868
  0
VERTEX
  8
estabelecimento_escolar_publico
 10
-9.401894
 20
38.732854
  0
VERTEX
  8
estabelecimento_escolar_publico
 10
-9.401900
 20
38.733017
  0
VERTEX
  8
estabelecimento_escolar_publico
 10
-9.401397
 20
38.733029
  0
VERTEX
  8
estabelecimento_escolar_publico
 10
-9.401396
 20
38.732985
  0
VERTEX
  8
estabelecimento_escolar_publico
 10
-9.401091
 20
38.732991
  0
VERTEX
  8
estabelecimento_escolar_publico
 10
-9.401094
 20
38.733031
  0
VERTEX
  8
estabelecimento_escolar_publico
 10
-9.401133
 20
38.733030
  0
VERTEX
  8
estabelecimento_escolar_publico
 10
-9.401151
 20
38.733594
  0
VERTEX
  8
estabelecimento_escolar_publico
 10
-9.401212
 20
38.733591
  0
VERTEX
  8
estabelecimento_escolar_publico
 10
-9.401210
 20
38.733552
  0
VERTEX
  8
estabelecimento_escolar_publico
 10
-9.401758
 20
38.733539
  0
VERTEX
  8
estabelecimento_escolar_publico
 10
-9.401780
 20
38.734145
  0
VERTEX
  8
estabelecimento_escolar_publico
 10
-9.401232
 20
38.734157
  0
VERTEX
  8
estabelecimento_escolar_publico
 10
-9.401230
 20
38.734105
  0
VERTEX
  8
estabelecimento_escolar_publico
 10
-9.401165
 20
38.734106
  0
VERTEX
  8
estabelecimento_escolar_publico
 10
-9.401170
 20
38.734181
  0
VERTEX
  8
estabelecimento_escolar_publico
 10
-9.400999
 20
38.734185
  0
VERTEX
  8
estabelecimento_escolar_publico
 10
-9.400990
 20
38.734004
  0
SEQEND
  0
POLYLINE
  8
estabelecimento_escolar_publico
  6
BYLAYER
 66
1
 70
1
 40
0.000000
 41
0.000000
  0
VERTEX
  8
estabelecimento_escolar_publico
 10
-9.341815
 20
38.701405
  0
VERTEX
  8
estabelecimento_escolar_publico
 10
-9.341491
 20
38.701401
  0
VERTEX
  8
estabelecimento_escolar_publico
 10
-9.341446
 20
38.701332
  0
VERTEX
  8
estabelecimento_escolar_publico
 10
-9.341398
 20
38.701341
  0
VERTEX
  8
estabelecimento_escolar_publico
 10
-9.341386
 20
38.701343
  0
VERTEX
  8
estabelecimento_escolar_publico
 10
-9.341337
 20
38.701352
  0
VERTEX
  8
estabelecimento_escolar_publico
 10
-9.341259
 20
38.701239
  0
VERTEX
  8
estabelecimento_escolar_publico
 10
-9.341232
 20
38.701200
  0
VERTEX
  8
estabelecimento_escolar_publico
 10
-9.341242
 20
38.701148
  0
VERTEX
  8
estabelecimento_escolar_publico
 10
-9.341257
 20
38.701066
  0
VERTEX
  8
estabelecimento_escolar_publico
 10
-9.341270
 20
38.701006
  0
VERTEX
  8
estabelecimento_escolar_publico
 10
-9.341284
 20
38.700938
  0
VERTEX
  8
estabelecimento_escolar_publico
 10
-9.341299
 20
38.700864
  0
VERTEX
  8
estabelecimento_escolar_publico
 10
-9.341315
 20
38.700789
  0
VERTEX
  8
estabelecimento_escolar_publico
 10
-9.341560
 20
38.700813
  0
VERTEX
  8
estabelecimento_escolar_publico
 10
-9.341630
 20
38.700819
  0
VERTEX
  8
estabelecimento_escolar_publico
 10
-9.341629
 20
38.700839
  0
VERTEX
  8
estabelecimento_escolar_publico
 10
-9.341638
 20
38.700877
  0
VERTEX
  8
estabelecimento_escolar_publico
 10
-9.341644
 20
38.700890
  0
VERTEX
  8
estabelecimento_escolar_publico
 10
-9.341660
 20
38.700914
  0
VERTEX
  8
estabelecimento_escolar_publico
 10
-9.341672
 20
38.700927
  0
VERTEX
  8
estabelecimento_escolar_publico
 10
-9.341681
 20
38.700936
  0
VERTEX
  8
estabelecimento_escolar_publico
 10
-9.341693
 20
38.700946
  0
VERTEX
  8
estabelecimento_escolar_publico
 10
-9.341713
 20
38.700959
  0
VERTEX
  8
estabelecimento_escolar_publico
 10
-9.341736
 20
38.700970
  0
VERTEX
  8
estabelecimento_escolar_publico
 10
-9.341769
 20
38.700980
  0
VERTEX
  8
estabelecimento_escolar_publico
 10
-9.341786
 20
38.700984
  0
VERTEX
  8
estabelecimento_escolar_publico
 10
-9.341835
 20
38.701079
  0
VERTEX
  8
estabelecimento_escolar_publico
 10
-9.341865
 20
38.701146
  0
VERTEX
  8
estabelecimento_escolar_publico
 10
-9.341860
 20
38.701147
  0
VERTEX
  8
estabelecimento_escolar_publico
 10
-9.341889
 20
38.701204
  0
VERTEX
  8
estabelecimento_escolar_publico
 10
-9.341930
 20
38.701193
  0
VERTEX
  8
estabelecimento_escolar_publico
 10
-9.341974
 20
38.701264
  0
VERTEX
  8
estabelecimento_escolar_publico
 10
-9.342016
 20
38.701332
  0
VERTEX
  8
estabelecimento_escolar_publico
 10
-9.342020
 20
38.701349
  0
VERTEX
  8
estabelecimento_escolar_publico
 10
-9.341815
 20
38.701405
  0
SEQEND
  0
POLYLINE
  8
estabelecimento_escolar_publico
  6
BYLAYER
 66
1
 70
1
 40
0.000000
 41
0.000000
  0
VERTEX
  8
estabelecimento_escolar_publico
 10
-9.329345
 20
38.700208
  0
VERTEX
  8
estabelecimento_escolar_publico
 10
-9.329297
 20
38.700753
  0
VERTEX
  8
estabelecimento_escolar_publico
 10
-9.329296
 20
38.700757
  0
VERTEX
  8
estabelecimento_escolar_publico
 10
-9.329294
 20
38.700760
  0
VERTEX
  8
estabelecimento_escolar_publico
 10
-9.329291
 20
38.700762
  0
VERTEX
  8
estabelecimento_escolar_publico
 10
-9.329289
 20
38.700764
  0
VERTEX
  8
estabelecimento_escolar_publico
 10
-9.329285
 20
38.700765
  0
VERTEX
  8
estabelecimento_escolar_publico
 10
-9.329281
 20
38.700765
  0
VERTEX
  8
estabelecimento_escolar_publico
 10
-9.329277
 20
38.700765
  0
VERTEX
  8
estabelecimento_escolar_publico
 10
-9.329275
 20
38.700765
  0
VERTEX
  8
estabelecimento_escolar_publico
 10
-9.328961
 20
38.700740
  0
VERTEX
  8
estabelecimento_escolar_publico
 10
-9.328917
 20
38.700765
  0
VERTEX
  8
estabelecimento_escolar_publico
 10
-9.328664
 20
38.700585
  0
VERTEX
  8
estabelecimento_escolar_publico
 10
-9.328687
 20
38.700358
  0
VERTEX
  8
estabelecimento_escolar_publico
 10
-9.328700
 20
38.700268
  0
VERTEX
  8
estabelecimento_escolar_publico
 10
-9.328743
 20
38.700097
  0
VERTEX
  8
estabelecimento_escolar_publico
 10
-9.328766
 20
38.700031
  0
VERTEX
  8
estabelecimento_escolar_publico
 10
-9.328833
 20
38.699887
  0
VERTEX
  8
estabelecimento_escolar_publico
 10
-9.329289
 20
38.700173
  0
VERTEX
  8
estabelecimento_escolar_publico
 10
-9.329345
 20
38.700208
  0
SEQEND
  0
POLYLINE
  8
estabelecimento_escolar_publico
  6
BYLAYER
 66
1
 70
1
 40
0.000000
 41
0.000000
  0
VERTEX
  8
estabelecimento_escolar_publico
 10
-9.439611
 20
38.736992
  0
VERTEX
  8
estabelecimento_escolar_publico
 10
-9.439590
 20
38.736988
  0
VERTEX
  8
estabelecimento_escolar_publico
 10
-9.439459
 20
38.736969
  0
VERTEX
  8
estabelecimento_escolar_publico
 10
-9.439391
 20
38.736957
  0
VERTEX
  8
estabelecimento_escolar_publico
 10
-9.439354
 20
38.736950
  0
VERTEX
  8
estabelecimento_escolar_publico
 10
-9.439316
 20
38.736945
  0
VERTEX
  8
estabelecimento_escolar_publico
 10
-9.439278
 20
38.736942
  0
VERTEX
  8
estabelecimento_escolar_publico
 10
-9.439241
 20
38.736942
  0
VERTEX
  8
estabelecimento_escolar_publico
 10
-9.439203
 20
38.736945
  0
VERTEX
  8
estabelecimento_escolar_publico
 10
-9.439190
 20
38.736946
  0
VERTEX
  8
estabelecimento_escolar_publico
 10
-9.438858
 20
38.736983
  0
VERTEX
  8
estabelecimento_escolar_publico
 10
-9.438848
 20
38.736934
  0
VERTEX
  8
estabelecimento_escolar_publico
 10
-9.438844
 20
38.736911
  0
VERTEX
  8
estabelecimento_escolar_publico
 10
-9.438835
 20
38.736867
  0
VERTEX
  8
estabelecimento_escolar_publico
 10
-9.438813
 20
38.736731
  0
VERTEX
  8
estabelecimento_escolar_publico
 10
-9.438794
 20
38.736623
  0
VERTEX
  8
estabelecimento_escolar_publico
 10
-9.438790
 20
38.736585
  0
VERTEX
  8
estabelecimento_escolar_publico
 10
-9.438791
 20
38.736548
  0
VERTEX
  8
estabelecimento_escolar_publico
 10
-9.438796
 20
38.736510
  0
VERTEX
  8
estabelecimento_escolar_publico
 10
-9.438805
 20
38.736473
  0
VERTEX
  8
estabelecimento_escolar_publico
 10
-9.438817
 20
38.736439
  0
VERTEX
  8
estabelecimento_escolar_publico
 10
-9.438830
 20
38.736413
  0
VERTEX
  8
estabelecimento_escolar_publico
 10
-9.438845
 20
38.736388
  0
VERTEX
  8
estabelecimento_escolar_publico
 10
-9.438863
 20
38.736364
  0
VERTEX
  8
estabelecimento_escolar_publico
 10
-9.438883
 20
38.736342
  0
VERTEX
  8
estabelecimento_escolar_publico
 10
-9.438914
 20
38.736315
  0
VERTEX
  8
estabelecimento_escolar_publico
 10
-9.438973
 20
38.736262
  0
VERTEX
  8
estabelecimento_escolar_publico
 10
-9.439107
 20
38.736164
  0
VERTEX
  8
estabelecimento_escolar_publico
 10
-9.439160
 20
38.736126
  0
VERTEX
  8
estabelecimento_escolar_publico
 10
-9.439192
 20
38.736148
  0
VERTEX
  8
estabelecimento_escolar_publico
 10
-9.439214
 20
38.736164
  0
VERTEX
  8
estabelecimento_escolar_publico
 10
-9.439234
 20
38.736178
  0
VERTEX
  8
estabelecimento_escolar_publico
 10
-9.439328
 20
38.736246
  0
VERTEX
  8
estabelecimento_escolar_publico
 10
-9.439554
 20
38.736404
  0
VERTEX
  8
estabelecimento_escolar_publico
 10
-9.439597
 20
38.736439
  0
VERTEX
  8
estabelecimento_escolar_publico
 10
-9.439692
 20
38.736516
  0
VERTEX
  8
estabelecimento_escolar_publico
 10
-9.439715
 20
38.736770
  0
VERTEX
  8
estabelecimento_escolar_publico
 10
-9.439611
 20
38.736992
  0
SEQEND
  0
POLYLINE
  8
estabelecimento_escolar_publico
  6
BYLAYER
 66
1
 70
1
 40
0.000000
 41
0.000000
  0
VERTEX
  8
estabelecimento_escolar_publico
 10
-9.334797
 20
38.689602
  0
VERTEX
  8
estabelecimento_escolar_publico
 10
-9.334452
 20
38.689615
  0
VERTEX
  8
estabelecimento_escolar_publico
 10
-9.334445
 20
38.689435
  0
VERTEX
  8
estabelecimento_escolar_publico
 10
-9.334502
 20
38.689436
  0
VERTEX
  8
estabelecimento_escolar_publico
 10
-9.334555
 20
38.689436
  0
VERTEX
  8
estabelecimento_escolar_publico
 10
-9.334602
 20
38.689431
  0
VERTEX
  8
estabelecimento_escolar_publico
 10
-9.334626
 20
38.689431
  0
VERTEX
  8
estabelecimento_escolar_publico
 10
-9.334672
 20
38.689430
  0
VERTEX
  8
estabelecimento_escolar_publico
 10
-9.334692
 20
38.689432
  0
VERTEX
  8
estabelecimento_escolar_publico
 10
-9.334784
 20
38.689431
  0
VERTEX
  8
estabelecimento_escolar_publico
 10
-9.334797
 20
38.689577
  0
VERTEX
  8
estabelecimento_escolar_publico
 10
-9.334797
 20
38.689602
  0
SEQEND
  0
POLYLINE
  8
estabelecimento_escolar_publico
  6
BYLAYER
 66
1
 70
1
 40
0.000000
 41
0.000000
  0
VERTEX
  8
estabelecimento_escolar_publico
 10
-9.361304
 20
38.705844
  0
VERTEX
  8
estabelecimento_escolar_publico
 10
-9.361459
 20
38.705898
  0
VERTEX
  8
estabelecimento_escolar_publico
 10
-9.361526
 20
38.705924
  0
VERTEX
  8
estabelecimento_escolar_publico
 10
-9.361698
 20
38.706004
  0
VERTEX
  8
estabelecimento_escolar_publico
 10
-9.361781
 20
38.706049
  0
VERTEX
  8
estabelecimento_escolar_publico
 10
-9.361831
 20
38.706083
  0
VERTEX
  8
estabelecimento_escolar_publico
 10
-9.361840
 20
38.706104
  0
VERTEX
  8
estabelecimento_escolar_publico
 10
-9.361842
 20
38.706114
  0
VERTEX
  8
estabelecimento_escolar_publico
 10
-9.361841
 20
38.706118
  0
VERTEX
  8
estabelecimento_escolar_publico
 10
-9.361767
 20
38.706273
  0
VERTEX
  8
estabelecimento_escolar_publico
 10
-9.361664
 20
38.706486
  0
VERTEX
  8
estabelecimento_escolar_publico
 10
-9.361639
 20
38.706538
  0
VERTEX
  8
estabelecimento_escolar_publico
 10
-9.361544
 20
38.706733
  0
VERTEX
  8
estabelecimento_escolar_publico
 10
-9.361022
 20
38.706580
  0
VERTEX
  8
estabelecimento_escolar_publico
 10
-9.360851
 20
38.706530
  0
VERTEX
  8
estabelecimento_escolar_publico
 10
-9.360889
 20
38.706445
  0
VERTEX
  8
estabelecimento_escolar_publico
 10
-9.360907
 20
38.706417
  0
VERTEX
  8
estabelecimento_escolar_publico
 10
-9.361009
 20
38.706267
  0
VERTEX
  8
estabelecimento_escolar_publico
 10
-9.361118
 20
38.706132
  0
VERTEX
  8
estabelecimento_escolar_publico
 10
-9.361212
 20
38.705986
  0
VERTEX
  8
estabelecimento_escolar_publico
 10
-9.361224
 20
38.705968
  0
VERTEX
  8
estabelecimento_escolar_publico
 10
-9.361225
 20
38.705966
  0
VERTEX
  8
estabelecimento_escolar_publico
 10
-9.361292
 20
38.705862
  0
VERTEX
  8
estabelecimento_escolar_publico
 10
-9.361304
 20
38.705844
  0
SEQEND
  0
POLYLINE
  8
estabelecimento_escolar_publico
  6
BYLAYER
 66
1
 70
1
 40
0.000000
 41
0.000000
  0
VERTEX
  8
estabelecimento_escolar_publico
 10
-9.408656
 20
38.730145
  0
VERTEX
  8
estabelecimento_escolar_publico
 10
-9.408316
 20
38.730330
  0
VERTEX
  8
estabelecimento_escolar_publico
 10
-9.408299
 20
38.730277
  0
VERTEX
  8
estabelecimento_escolar_publico
 10
-9.408240
 20
38.730289
  0
VERTEX
  8
estabelecimento_escolar_publico
 10
-9.408239
 20
38.730258
  0
VERTEX
  8
estabelecimento_escolar_publico
 10
-9.408210
 20
38.730173
  0
VERTEX
  8
estabelecimento_escolar_publico
 10
-9.408205
 20
38.730158
  0
VERTEX
  8
estabelecimento_escolar_publico
 10
-9.408186
 20
38.730066
  0
VERTEX
  8
estabelecimento_escolar_publico
 10
-9.408177
 20
38.729972
  0
VERTEX
  8
estabelecimento_escolar_publico
 10
-9.408176
 20
38.729908
  0
VERTEX
  8
estabelecimento_escolar_publico
 10
-9.408180
 20
38.729887
  0
VERTEX
  8
estabelecimento_escolar_publico
 10
-9.408219
 20
38.729623
  0
VERTEX
  8
estabelecimento_escolar_publico
 10
-9.408354
 20
38.729596
  0
VERTEX
  8
estabelecimento_escolar_publico
 10
-9.408581
 20
38.730008
  0
VERTEX
  8
estabelecimento_escolar_publico
 10
-9.408656
 20
38.730145
  0
SEQEND
  0
POLYLINE
  8
estabelecimento_escolar_publico
  6
BYLAYER
 66
1
 70
1
 40
0.000000
 41
0.000000
  0
VERTEX
  8
estabelecimento_escolar_publico
 10
-9.393295
 20
38.716517
  0
VERTEX
  8
estabelecimento_escolar_publico
 10
-9.393339
 20
38.716936
  0
VERTEX
  8
estabelecimento_escolar_publico
 10
-9.393562
 20
38.716925
  0
VERTEX
  8
estabelecimento_escolar_publico
 10
-9.393579
 20
38.717079
  0
VERTEX
  8
estabelecimento_escolar_publico
 10
-9.393203
 20
38.717925
  0
VERTEX
  8
estabelecimento_escolar_publico
 10
-9.393104
 20
38.717924
  0
VERTEX
  8
estabelecimento_escolar_publico
 10
-9.392895
 20
38.717811
  0
VERTEX
  8
estabelecimento_escolar_publico
 10
-9.392481
 20
38.717721
  0
VERTEX
  8
estabelecimento_escolar_publico
 10
-9.392011
 20
38.717694
  0
VERTEX
  8
estabelecimento_escolar_publico
 10
-9.391928
 20
38.717759
  0
VERTEX
  8
estabelecimento_escolar_publico
 10
-9.391958
 20
38.717826
  0
VERTEX
  8
estabelecimento_escolar_publico
 10
-9.391893
 20
38.717829
  0
VERTEX
  8
estabelecimento_escolar_publico
 10
-9.391651
 20
38.717780
  0
VERTEX
  8
estabelecimento_escolar_publico
 10
-9.391591
 20
38.717687
  0
VERTEX
  8
estabelecimento_escolar_publico
 10
-9.391303
 20
38.717680
  0
VERTEX
  8
estabelecimento_escolar_publico
 10
-9.391004
 20
38.717531
  0
VERTEX
  8
estabelecimento_escolar_publico
 10
-9.391007
 20
38.717235
  0
VERTEX
  8
estabelecimento_escolar_publico
 10
-9.391001
 20
38.716601
  0
VERTEX
  8
estabelecimento_escolar_publico
 10
-9.391006
 20
38.716480
  0
VERTEX
  8
estabelecimento_escolar_publico
 10
-9.391823
 20
38.716465
  0
VERTEX
  8
estabelecimento_escolar_publico
 10
-9.392229
 20
38.716451
  0
VERTEX
  8
estabelecimento_escolar_publico
 10
-9.392228
 20
38.716427
  0
VERTEX
  8
estabelecimento_escolar_publico
 10
-9.392883
 20
38.716412
  0
VERTEX
  8
estabelecimento_escolar_publico
 10
-9.392961
 20
38.716417
  0
VERTEX
  8
estabelecimento_escolar_publico
 10
-9.393014
 20
38.716425
  0
VERTEX
  8
estabelecimento_escolar_publico
 10
-9.393048
 20
38.716444
  0
VERTEX
  8
estabelecimento_escolar_publico
 10
-9.393070
 20
38.716456
  0
VERTEX
  8
estabelecimento_escolar_publico
 10
-9.393090
 20
38.716470
  0
VERTEX
  8
estabelecimento_escolar_publico
 10
-9.393114
 20
38.716489
  0
VERTEX
  8
estabelecimento_escolar_publico
 10
-9.393143
 20
38.716522
  0
VERTEX
  8
estabelecimento_escolar_publico
 10
-9.393295
 20
38.716517
  0
SEQEND
  0
POLYLINE
  8
estabelecimento_escolar_publico
  6
BYLAYER
 66
1
 70
1
 40
0.000000
 41
0.000000
  0
VERTEX
  8
estabelecimento_escolar_publico
 10
-9.348928
 20
38.713857
  0
VERTEX
  8
estabelecimento_escolar_publico
 10
-9.348688
 20
38.713868
  0
VERTEX
  8
estabelecimento_escolar_publico
 10
-9.348662
 20
38.713870
  0
VERTEX
  8
estabelecimento_escolar_publico
 10
-9.348635
 20
38.713871
  0
VERTEX
  8
estabelecimento_escolar_publico
 10
-9.348553
 20
38.713875
  0
VERTEX
  8
estabelecimento_escolar_publico
 10
-9.348398
 20
38.713882
  0
VERTEX
  8
estabelecimento_escolar_publico
 10
-9.348327
 20
38.713886
  0
VERTEX
  8
estabelecimento_escolar_publico
 10
-9.348256
 20
38.713889
  0
VERTEX
  8
estabelecimento_escolar_publico
 10
-9.348249
 20
38.713861
  0
VERTEX
  8
estabelecimento_escolar_publico
 10
-9.348242
 20
38.713798
  0
VERTEX
  8
estabelecimento_escolar_publico
 10
-9.348239
 20
38.713690
  0
VERTEX
  8
estabelecimento_escolar_publico
 10
-9.348232
 20
38.713474
  0
VERTEX
  8
estabelecimento_escolar_publico
 10
-9.348604
 20
38.713480
  0
VERTEX
  8
estabelecimento_escolar_publico
 10
-9.349049
 20
38.713490
  0
VERTEX
  8
estabelecimento_escolar_publico
 10
-9.349115
 20
38.713490
  0
VERTEX
  8
estabelecimento_escolar_publico
 10
-9.349044
 20
38.713645
  0
VERTEX
  8
estabelecimento_escolar_publico
 10
-9.349013
 20
38.713710
  0
VERTEX
  8
estabelecimento_escolar_publico
 10
-9.348928
 20
38.713857
  0
SEQEND
  0
POLYLINE
  8
estabelecimento_escolar_publico
  6
BYLAYER
 66
1
 70
1
 40
0.000000
 41
0.000000
  0
VERTEX
  8
estabelecimento_escolar_publico
 10
-9.447652
 20
38.729862
  0
VERTEX
  8
estabelecimento_escolar_publico
 10
-9.447576
 20
38.729885
  0
VERTEX
  8
estabelecimento_escolar_publico
 10
-9.447488
 20
38.729913
  0
VERTEX
  8
estabelecimento_escolar_publico
 10
-9.447385
 20
38.729945
  0
VERTEX
  8
estabelecimento_escolar_publico
 10
-9.447296
 20
38.729972
  0
VERTEX
  8
estabelecimento_escolar_publico
 10
-9.447217
 20
38.729995
  0
VERTEX
  8
estabelecimento_escolar_publico
 10
-9.447147
 20
38.730018
  0
VERTEX
  8
estabelecimento_escolar_publico
 10
-9.447130
 20
38.730025
  0
VERTEX
  8
estabelecimento_escolar_publico
 10
-9.447124
 20
38.729991
  0
VERTEX
  8
estabelecimento_escolar_publico
 10
-9.447120
 20
38.729968
  0
VERTEX
  8
estabelecimento_escolar_publico
 10
-9.447112
 20
38.729923
  0
VERTEX
  8
estabelecimento_escolar_publico
 10
-9.447090
 20
38.729771
  0
VERTEX
  8
estabelecimento_escolar_publico
 10
-9.447074
 20
38.729666
  0
VERTEX
  8
estabelecimento_escolar_publico
 10
-9.447063
 20
38.729591
  0
VERTEX
  8
estabelecimento_escolar_publico
 10
-9.447060
 20
38.729563
  0
VERTEX
  8
estabelecimento_escolar_publico
 10
-9.447058
 20
38.729553
  0
VERTEX
  8
estabelecimento_escolar_publico
 10
-9.447181
 20
38.729544
  0
VERTEX
  8
estabelecimento_escolar_publico
 10
-9.447331
 20
38.729534
  0
VERTEX
  8
estabelecimento_escolar_publico
 10
-9.447476
 20
38.729524
  0
VERTEX
  8
estabelecimento_escolar_publico
 10
-9.447528
 20
38.729521
  0
VERTEX
  8
estabelecimento_escolar_publico
 10
-9.447563
 20
38.729517
  0
VERTEX
  8
estabelecimento_escolar_publico
 10
-9.447581
 20
38.729587
  0
VERTEX
  8
estabelecimento_escolar_publico
 10
-9.447601
 20
38.729663
  0
VERTEX
  8
estabelecimento_escolar_publico
 10
-9.447637
 20
38.729808
  0
VERTEX
  8
estabelecimento_escolar_publico
 10
-9.447652
 20
38.729862
  0
SEQEND
  0
POLYLINE
  8
estabelecimento_escolar_publico
  6
BYLAYER
 66
1
 70
1
 40
0.000000
 41
0.000000
  0
VERTEX
  8
estabelecimento_escolar_publico
 10
-9.444723
 20
38.703143
  0
VERTEX
  8
estabelecimento_escolar_publico
 10
-9.444414
 20
38.703167
  0
VERTEX
  8
estabelecimento_escolar_publico
 10
-9.444411
 20
38.703168
  0
VERTEX
  8
estabelecimento_escolar_publico
 10
-9.444400
 20
38.703169
  0
VERTEX
  8
estabelecimento_escolar_publico
 10
-9.444389
 20
38.703171
  0
VERTEX
  8
estabelecimento_escolar_publico
 10
-9.444378
 20
38.703174
  0
VERTEX
  8
estabelecimento_escolar_publico
 10
-9.444367
 20
38.703178
  0
VERTEX
  8
estabelecimento_escolar_publico
 10
-9.444357
 20
38.703182
  0
VERTEX
  8
estabelecimento_escolar_publico
 10
-9.444348
 20
38.703187
  0
VERTEX
  8
estabelecimento_escolar_publico
 10
-9.444339
 20
38.703192
  0
VERTEX
  8
estabelecimento_escolar_publico
 10
-9.444330
 20
38.703198
  0
VERTEX
  8
estabelecimento_escolar_publico
 10
-9.444323
 20
38.703205
  0
VERTEX
  8
estabelecimento_escolar_publico
 10
-9.444316
 20
38.703212
  0
VERTEX
  8
estabelecimento_escolar_publico
 10
-9.444309
 20
38.703219
  0
VERTEX
  8
estabelecimento_escolar_publico
 10
-9.444304
 20
38.703227
  0
VERTEX
  8
estabelecimento_escolar_publico
 10
-9.444299
 20
38.703235
  0
VERTEX
  8
estabelecimento_escolar_publico
 10
-9.444296
 20
38.703244
  0
VERTEX
  8
estabelecimento_escolar_publico
 10
-9.444293
 20
38.703252
  0
VERTEX
  8
estabelecimento_escolar_publico
 10
-9.444291
 20
38.703261
  0
VERTEX
  8
estabelecimento_escolar_publico
 10
-9.444290
 20
38.703270
  0
VERTEX
  8
estabelecimento_escolar_publico
 10
-9.444290
 20
38.703279
  0
VERTEX
  8
estabelecimento_escolar_publico
 10
-9.444291
 20
38.703288
  0
VERTEX
  8
estabelecimento_escolar_publico
 10
-9.444302
 20
38.703357
  0
VERTEX
  8
estabelecimento_escolar_publico
 10
-9.444301
 20
38.703357
  0
VERTEX
  8
estabelecimento_escolar_publico
 10
-9.444301
 20
38.703357
  0
VERTEX
  8
estabelecimento_escolar_publico
 10
-9.443920
 20
38.703410
  0
VERTEX
  8
estabelecimento_escolar_publico
 10
-9.443905
 20
38.703193
  0
VERTEX
  8
estabelecimento_escolar_publico
 10
-9.443873
 20
38.702688
  0
VERTEX
  8
estabelecimento_escolar_publico
 10
-9.443863
 20
38.702528
  0
VERTEX
  8
estabelecimento_escolar_publico
 10
-9.444184
 20
38.702539
  0
VERTEX
  8
estabelecimento_escolar_publico
 10
-9.444633
 20
38.702559
  0
VERTEX
  8
estabelecimento_escolar_publico
 10
-9.444724
 20
38.703141
  0
VERTEX
  8
estabelecimento_escolar_publico
 10
-9.444725
 20
38.703143
  0
VERTEX
  8
estabelecimento_escolar_publico
 10
-9.444723
 20
38.703143
  0
SEQEND
  0
POLYLINE
  8
estabelecimento_escolar_publico
  6
BYLAYER
 66
1
 70
1
 40
0.000000
 41
0.000000
  0
VERTEX
  8
estabelecimento_escolar_publico
 10
-9.378794
 20
38.699305
  0
VERTEX
  8
estabelecimento_escolar_publico
 10
-9.379206
 20
38.699526
  0
VERTEX
  8
estabelecimento_escolar_publico
 10
-9.379206
 20
38.699526
  0
VERTEX
  8
estabelecimento_escolar_publico
 10
-9.379234
 20
38.699542
  0
VERTEX
  8
estabelecimento_escolar_publico
 10
-9.379258
 20
38.699563
  0
VERTEX
  8
estabelecimento_escolar_publico
 10
-9.379275
 20
38.699587
  0
VERTEX
  8
estabelecimento_escolar_publico
 10
-9.379285
 20
38.699613
  0
VERTEX
  8
estabelecimento_escolar_publico
 10
-9.379287
 20
38.699641
  0
VERTEX
  8
estabelecimento_escolar_publico
 10
-9.379282
 20
38.699668
  0
VERTEX
  8
estabelecimento_escolar_publico
 10
-9.379271
 20
38.699700
  0
VERTEX
  8
estabelecimento_escolar_publico
 10
-9.379257
 20
38.699731
  0
VERTEX
  8
estabelecimento_escolar_publico
 10
-9.379240
 20
38.699762
  0
VERTEX
  8
estabelecimento_escolar_publico
 10
-9.379221
 20
38.699792
  0
VERTEX
  8
estabelecimento_escolar_publico
 10
-9.379214
 20
38.699805
  0
VERTEX
  8
estabelecimento_escolar_publico
 10
-9.379202
 20
38.699826
  0
VERTEX
  8
estabelecimento_escolar_publico
 10
-9.379198
 20
38.699834
  0
VERTEX
  8
estabelecimento_escolar_publico
 10
-9.379173
 20
38.699876
  0
VERTEX
  8
estabelecimento_escolar_publico
 10
-9.379147
 20
38.699917
  0
VERTEX
  8
estabelecimento_escolar_publico
 10
-9.379119
 20
38.699957
  0
VERTEX
  8
estabelecimento_escolar_publico
 10
-9.379092
 20
38.699992
  0
VERTEX
  8
estabelecimento_escolar_publico
 10
-9.379062
 20
38.700026
  0
VERTEX
  8
estabelecimento_escolar_publico
 10
-9.379032
 20
38.700059
  0
VERTEX
  8
estabelecimento_escolar_publico
 10
-9.379000
 20
38.700092
  0
VERTEX
  8
estabelecimento_escolar_publico
 10
-9.378975
 20
38.700106
  0
VERTEX
  8
estabelecimento_escolar_publico
 10
-9.378949
 20
38.700116
  0
VERTEX
  8
estabelecimento_escolar_publico
 10
-9.378940
 20
38.700117
  0
VERTEX
  8
estabelecimento_escolar_publico
 10
-9.378920
 20
38.700122
  0
VERTEX
  8
estabelecimento_escolar_publico
 10
-9.378890
 20
38.700124
  0
VERTEX
  8
estabelecimento_escolar_publico
 10
-9.378861
 20
38.700122
  0
VERTEX
  8
estabelecimento_escolar_publico
 10
-9.378832
 20
38.700116
  0
VERTEX
  8
estabelecimento_escolar_publico
 10
-9.378804
 20
38.700106
  0
VERTEX
  8
estabelecimento_escolar_publico
 10
-9.378780
 20
38.700093
  0
VERTEX
  8
estabelecimento_escolar_publico
 10
-9.378740
 20
38.700112
  0
VERTEX
  8
estabelecimento_escolar_publico
 10
-9.378682
 20
38.700141
  0
VERTEX
  8
estabelecimento_escolar_publico
 10
-9.378417
 20
38.699743
  0
VERTEX
  8
estabelecimento_escolar_publico
 10
-9.378412
 20
38.699738
  0
VERTEX
  8
estabelecimento_escolar_publico
 10
-9.378439
 20
38.699707
  0
VERTEX
  8
estabelecimento_escolar_publico
 10
-9.378493
 20
38.699646
  0
VERTEX
  8
estabelecimento_escolar_publico
 10
-9.378593
 20
38.699533
  0
VERTEX
  8
estabelecimento_escolar_publico
 10
-9.378794
 20
38.699305
  0
SEQEND
  0
POLYLINE
  8
estabelecimento_escolar_publico
  6
BYLAYER
 66
1
 70
1
 40
0.000000
 41
0.000000
  0
VERTEX
  8
estabelecimento_escolar_publico
 10
-9.405747
 20
38.734822
  0
VERTEX
  8
estabelecimento_escolar_publico
 10
-9.405701
 20
38.734851
  0
VERTEX
  8
estabelecimento_escolar_publico
 10
-9.405708
 20
38.734872
  0
VERTEX
  8
estabelecimento_escolar_publico
 10
-9.405713
 20
38.734893
  0
VERTEX
  8
estabelecimento_escolar_publico
 10
-9.405715
 20
38.734915
  0
VERTEX
  8
estabelecimento_escolar_publico
 10
-9.405715
 20
38.734926
  0
VERTEX
  8
estabelecimento_escolar_publico
 10
-9.405689
 20
38.734951
  0
VERTEX
  8
estabelecimento_escolar_publico
 10
-9.405684
 20
38.734963
  0
VERTEX
  8
estabelecimento_escolar_publico
 10
-9.405674
 20
38.734985
  0
VERTEX
  8
estabelecimento_escolar_publico
 10
-9.405670
 20
38.734991
  0
VERTEX
  8
estabelecimento_escolar_publico
 10
-9.405653
 20
38.735031
  0
VERTEX
  8
estabelecimento_escolar_publico
 10
-9.405655
 20
38.735058
  0
VERTEX
  8
estabelecimento_escolar_publico
 10
-9.405637
 20
38.735074
  0
VERTEX
  8
estabelecimento_escolar_publico
 10
-9.405616
 20
38.735089
  0
VERTEX
  8
estabelecimento_escolar_publico
 10
-9.405595
 20
38.735103
  0
VERTEX
  8
estabelecimento_escolar_publico
 10
-9.405572
 20
38.735114
  0
VERTEX
  8
estabelecimento_escolar_publico
 10
-9.405548
 20
38.735125
  0
VERTEX
  8
estabelecimento_escolar_publico
 10
-9.405522
 20
38.735134
  0
VERTEX
  8
estabelecimento_escolar_publico
 10
-9.405496
 20
38.735141
  0
VERTEX
  8
estabelecimento_escolar_publico
 10
-9.405500
 20
38.735168
  0
VERTEX
  8
estabelecimento_escolar_publico
 10
-9.405501
 20
38.735168
  0
VERTEX
  8
estabelecimento_escolar_publico
 10
-9.405514
 20
38.735242
  0
VERTEX
  8
estabelecimento_escolar_publico
 10
-9.405516
 20
38.735268
  0
VERTEX
  8
estabelecimento_escolar_publico
 10
-9.405492
 20
38.735291
  0
VERTEX
  8
estabelecimento_escolar_publico
 10
-9.405463
 20
38.735308
  0
VERTEX
  8
estabelecimento_escolar_publico
 10
-9.405093
 20
38.735342
  0
VERTEX
  8
estabelecimento_escolar_publico
 10
-9.404884
 20
38.735362
  0
VERTEX
  8
estabelecimento_escolar_publico
 10
-9.404240
 20
38.735391
  0
VERTEX
  8
estabelecimento_escolar_publico
 10
-9.404070
 20
38.735396
  0
VERTEX
  8
estabelecimento_escolar_publico
 10
-9.403878
 20
38.735193
  0
VERTEX
  8
estabelecimento_escolar_publico
 10
-9.403862
 20
38.734903
  0
VERTEX
  8
estabelecimento_escolar_publico
 10
-9.403823
 20
38.734277
  0
VERTEX
  8
estabelecimento_escolar_publico
 10
-9.403787
 20
38.733746
  0
VERTEX
  8
estabelecimento_escolar_publico
 10
-9.403902
 20
38.733740
  0
VERTEX
  8
estabelecimento_escolar_publico
 10
-9.404069
 20
38.733727
  0
VERTEX
  8
estabelecimento_escolar_publico
 10
-9.404122
 20
38.733724
  0
VERTEX
  8
estabelecimento_escolar_publico
 10
-9.404536
 20
38.733698
  0
VERTEX
  8
estabelecimento_escolar_publico
 10
-9.404533
 20
38.733616
  0
VERTEX
  8
estabelecimento_escolar_publico
 10
-9.404530
 20
38.733568
  0
VERTEX
  8
estabelecimento_escolar_publico
 10
-9.404524
 20
38.733458
  0
VERTEX
  8
estabelecimento_escolar_publico
 10
-9.404515
 20
38.733307
  0
VERTEX
  8
estabelecimento_escolar_publico
 10
-9.404814
 20
38.733278
  0
VERTEX
  8
estabelecimento_escolar_publico
 10
-9.404864
 20
38.733273
  0
VERTEX
  8
estabelecimento_escolar_publico
 10
-9.405149
 20
38.733363
  0
VERTEX
  8
estabelecimento_escolar_publico
 10
-9.405151
 20
38.733376
  0
VERTEX
  8
estabelecimento_escolar_publico
 10
-9.405180
 20
38.733544
  0
VERTEX
  8
estabelecimento_escolar_publico
 10
-9.405183
 20
38.733561
  0
VERTEX
  8
estabelecimento_escolar_publico
 10
-9.405238
 20
38.733876
  0
VERTEX
  8
estabelecimento_escolar_publico
 10
-9.405299
 20
38.734250
  0
VERTEX
  8
estabelecimento_escolar_publico
 10
-9.405335
 20
38.734464
  0
VERTEX
  8
estabelecimento_escolar_publico
 10
-9.405557
 20
38.734656
  0
VERTEX
  8
estabelecimento_escolar_publico
 10
-9.405747
 20
38.734822
  0
SEQEND
  0
POLYLINE
  8
estabelecimento_escolar_publico
  6
BYLAYER
 66
1
 70
1
 40
0.000000
 41
0.000000
  0
VERTEX
  8
estabelecimento_escolar_publico
 10
-9.385270
 20
38.728766
  0
VERTEX
  8
estabelecimento_escolar_publico
 10
-9.385262
 20
38.728766
  0
VERTEX
  8
estabelecimento_escolar_publico
 10
-9.385265
 20
38.728800
  0
VERTEX
  8
estabelecimento_escolar_publico
 10
-9.385216
 20
38.728803
  0
VERTEX
  8
estabelecimento_escolar_publico
 10
-9.385218
 20
38.728828
  0
VERTEX
  8
estabelecimento_escolar_publico
 10
-9.385105
 20
38.728834
  0
VERTEX
  8
estabelecimento_escolar_publico
 10
-9.385101
 20
38.728800
  0
VERTEX
  8
estabelecimento_escolar_publico
 10
-9.385138
 20
38.728798
  0
VERTEX
  8
estabelecimento_escolar_publico
 10
-9.385136
 20
38.728775
  0
VERTEX
  8
estabelecimento_escolar_publico
 10
-9.385098
 20
38.728777
  0
VERTEX
  8
estabelecimento_escolar_publico
 10
-9.385090
 20
38.728687
  0
VERTEX
  8
estabelecimento_escolar_publico
 10
-9.385171
 20
38.728683
  0
VERTEX
  8
estabelecimento_escolar_publico
 10
-9.385172
 20
38.728702
  0
VERTEX
  8
estabelecimento_escolar_publico
 10
-9.385264
 20
38.728698
  0
VERTEX
  8
estabelecimento_escolar_publico
 10
-9.385270
 20
38.728766
  0
SEQEND
  0
POLYLINE
  8
estabelecimento_escolar_publico
  6
BYLAYER
 66
1
 70
1
 40
0.000000
 41
0.000000
  0
VERTEX
  8
estabelecimento_escolar_publico
 10
-9.385736
 20
38.707025
  0
VERTEX
  8
estabelecimento_escolar_publico
 10
-9.385754
 20
38.706992
  0
VERTEX
  8
estabelecimento_escolar_publico
 10
-9.385769
 20
38.706978
  0
VERTEX
  8
estabelecimento_escolar_publico
 10
-9.385786
 20
38.706971
  0
VERTEX
  8
estabelecimento_escolar_publico
 10
-9.385804
 20
38.706969
  0
VERTEX
  8
estabelecimento_escolar_publico
 10
-9.385822
 20
38.706972
  0
VERTEX
  8
estabelecimento_escolar_publico
 10
-9.386032
 20
38.707043
  0
VERTEX
  8
estabelecimento_escolar_publico
 10
-9.386044
 20
38.707052
  0
VERTEX
  8
estabelecimento_escolar_publico
 10
-9.386047
 20
38.707059
  0
VERTEX
  8
estabelecimento_escolar_publico
 10
-9.386047
 20
38.707071
  0
VERTEX
  8
estabelecimento_escolar_publico
 10
-9.385793
 20
38.707542
  0
VERTEX
  8
estabelecimento_escolar_publico
 10
-9.385327
 20
38.707392
  0
VERTEX
  8
estabelecimento_escolar_publico
 10
-9.385249
 20
38.707367
  0
VERTEX
  8
estabelecimento_escolar_publico
 10
-9.385130
 20
38.707329
  0
VERTEX
  8
estabelecimento_escolar_publico
 10
-9.384735
 20
38.707203
  0
VERTEX
  8
estabelecimento_escolar_publico
 10
-9.384682
 20
38.707185
  0
VERTEX
  8
estabelecimento_escolar_publico
 10
-9.384648
 20
38.707173
  0
VERTEX
  8
estabelecimento_escolar_publico
 10
-9.384551
 20
38.707139
  0
VERTEX
  8
estabelecimento_escolar_publico
 10
-9.384503
 20
38.707122
  0
VERTEX
  8
estabelecimento_escolar_publico
 10
-9.384340
 20
38.707065
  0
VERTEX
  8
estabelecimento_escolar_publico
 10
-9.384285
 20
38.707045
  0
VERTEX
  8
estabelecimento_escolar_publico
 10
-9.384435
 20
38.706763
  0
VERTEX
  8
estabelecimento_escolar_publico
 10
-9.384524
 20
38.706595
  0
VERTEX
  8
estabelecimento_escolar_publico
 10
-9.384535
 20
38.706578
  0
VERTEX
  8
estabelecimento_escolar_publico
 10
-9.384548
 20
38.706569
  0
VERTEX
  8
estabelecimento_escolar_publico
 10
-9.384556
 20
38.706567
  0
VERTEX
  8
estabelecimento_escolar_publico
 10
-9.384567
 20
38.706567
  0
VERTEX
  8
estabelecimento_escolar_publico
 10
-9.384583
 20
38.706570
  0
VERTEX
  8
estabelecimento_escolar_publico
 10
-9.385153
 20
38.706755
  0
VERTEX
  8
estabelecimento_escolar_publico
 10
-9.385268
 20
38.706792
  0
VERTEX
  8
estabelecimento_escolar_publico
 10
-9.385658
 20
38.706920
  0
VERTEX
  8
estabelecimento_escolar_publico
 10
-9.385671
 20
38.706929
  0
VERTEX
  8
estabelecimento_escolar_publico
 10
-9.385678
 20
38.706939
  0
VERTEX
  8
estabelecimento_escolar_publico
 10
-9.385682
 20
38.706952
  0
VERTEX
  8
estabelecimento_escolar_publico
 10
-9.385673
 20
38.706977
  0
VERTEX
  8
estabelecimento_escolar_publico
 10
-9.385662
 20
38.706997
  0
VERTEX
  8
estabelecimento_escolar_publico
 10
-9.385660
 20
38.707000
  0
VERTEX
  8
estabelecimento_escolar_publico
 10
-9.385719
 20
38.707020
  0
VERTEX
  8
estabelecimento_escolar_publico
 10
-9.385736
 20
38.707025
  0
SEQEND
  0
POLYLINE
  8
estabelecimento_escolar_publico
  6
BYLAYER
 66
1
 70
1
 40
0.000000
 41
0.000000
  0
VERTEX
  8
estabelecimento_escolar_publico
 10
-9.373906
 20
38.697185
  0
VERTEX
  8
estabelecimento_escolar_publico
 10
-9.373856
 20
38.697236
  0
VERTEX
  8
estabelecimento_escolar_publico
 10
-9.373819
 20
38.697269
  0
VERTEX
  8
estabelecimento_escolar_publico
 10
-9.373781
 20
38.697300
  0
VERTEX
  8
estabelecimento_escolar_publico
 10
-9.373748
 20
38.697325
  0
VERTEX
  8
estabelecimento_escolar_publico
 10
-9.373719
 20
38.697353
  0
VERTEX
  8
estabelecimento_escolar_publico
 10
-9.373660
 20
38.697395
  0
VERTEX
  8
estabelecimento_escolar_publico
 10
-9.373369
 20
38.697225
  0
VERTEX
  8
estabelecimento_escolar_publico
 10
-9.373209
 20
38.697134
  0
VERTEX
  8
estabelecimento_escolar_publico
 10
-9.373019
 20
38.697019
  0
VERTEX
  8
estabelecimento_escolar_publico
 10
-9.372841
 20
38.696918
  0
VERTEX
  8
estabelecimento_escolar_publico
 10
-9.372913
 20
38.696869
  0
VERTEX
  8
estabelecimento_escolar_publico
 10
-9.373049
 20
38.696761
  0
VERTEX
  8
estabelecimento_escolar_publico
 10
-9.373121
 20
38.696794
  0
VERTEX
  8
estabelecimento_escolar_publico
 10
-9.373906
 20
38.697185
  0
SEQEND
  0
POLYLINE
  8
estabelecimento_escolar_publico
  6
BYLAYER
 66
1
 70
1
 40
0.000000
 41
0.000000
  0
VERTEX
  8
estabelecimento_escolar_publico
 10
-9.341077
 20
38.727091
  0
VERTEX
  8
estabelecimento_escolar_publico
 10
-9.340854
 20
38.727093
  0
VERTEX
  8
estabelecimento_escolar_publico
 10
-9.340867
 20
38.727496
  0
VERTEX
  8
estabelecimento_escolar_publico
 10
-9.340386
 20
38.727493
  0
VERTEX
  8
estabelecimento_escolar_publico
 10
-9.340371
 20
38.727462
  0
VERTEX
  8
estabelecimento_escolar_publico
 10
-9.340228
 20
38.727216
  0
VERTEX
  8
estabelecimento_escolar_publico
 10
-9.340054
 20
38.727254
  0
VERTEX
  8
estabelecimento_escolar_publico
 10
-9.339958
 20
38.727066
  0
VERTEX
  8
estabelecimento_escolar_publico
 10
-9.340373
 20
38.726953
  0
VERTEX
  8
estabelecimento_escolar_publico
 10
-9.340364
 20
38.726946
  0
VERTEX
  8
estabelecimento_escolar_publico
 10
-9.341071
 20
38.726756
  0
VERTEX
  8
estabelecimento_escolar_publico
 10
-9.341077
 20
38.727091
  0
SEQEND
  0
POLYLINE
  8
estabelecimento_escolar_publico
  6
BYLAYER
 66
1
 70
1
 40
0.000000
 41
0.000000
  0
VERTEX
  8
estabelecimento_escolar_publico
 10
-9.351978
 20
38.722911
  0
VERTEX
  8
estabelecimento_escolar_publico
 10
-9.351986
 20
38.722922
  0
VERTEX
  8
estabelecimento_escolar_publico
 10
-9.351990
 20
38.722931
  0
VERTEX
  8
estabelecimento_escolar_publico
 10
-9.351993
 20
38.722942
  0
VERTEX
  8
estabelecimento_escolar_publico
 10
-9.351993
 20
38.722953
  0
VERTEX
  8
estabelecimento_escolar_publico
 10
-9.351991
 20
38.722962
  0
VERTEX
  8
estabelecimento_escolar_publico
 10
-9.351988
 20
38.722971
  0
VERTEX
  8
estabelecimento_escolar_publico
 10
-9.351983
 20
38.722979
  0
VERTEX
  8
estabelecimento_escolar_publico
 10
-9.351977
 20
38.722986
  0
VERTEX
  8
estabelecimento_escolar_publico
 10
-9.351969
 20
38.722993
  0
VERTEX
  8
estabelecimento_escolar_publico
 10
-9.351958
 20
38.723001
  0
VERTEX
  8
estabelecimento_escolar_publico
 10
-9.351624
 20
38.723192
  0
VERTEX
  8
estabelecimento_escolar_publico
 10
-9.351609
 20
38.723198
  0
VERTEX
  8
estabelecimento_escolar_publico
 10
-9.351598
 20
38.723201
  0
VERTEX
  8
estabelecimento_escolar_publico
 10
-9.351586
 20
38.723205
  0
VERTEX
  8
estabelecimento_escolar_publico
 10
-9.351576
 20
38.723207
  0
VERTEX
  8
estabelecimento_escolar_publico
 10
-9.351565
 20
38.723210
  0
VERTEX
  8
estabelecimento_escolar_publico
 10
-9.351553
 20
38.723212
  0
VERTEX
  8
estabelecimento_escolar_publico
 10
-9.351541
 20
38.723213
  0
VERTEX
  8
estabelecimento_escolar_publico
 10
-9.351528
 20
38.723214
  0
VERTEX
  8
estabelecimento_escolar_publico
 10
-9.351518
 20
38.723214
  0
VERTEX
  8
estabelecimento_escolar_publico
 10
-9.351509
 20
38.723214
  0
VERTEX
  8
estabelecimento_escolar_publico
 10
-9.351499
 20
38.723214
  0
VERTEX
  8
estabelecimento_escolar_publico
 10
-9.351488
 20
38.723213
  0
VERTEX
  8
estabelecimento_escolar_publico
 10
-9.351477
 20
38.723212
  0
VERTEX
  8
estabelecimento_escolar_publico
 10
-9.351468
 20
38.723211
  0
VERTEX
  8
estabelecimento_escolar_publico
 10
-9.351454
 20
38.723208
  0
VERTEX
  8
estabelecimento_escolar_publico
 10
-9.351440
 20
38.723204
  0
VERTEX
  8
estabelecimento_escolar_publico
 10
-9.351422
 20
38.723197
  0
VERTEX
  8
estabelecimento_escolar_publico
 10
-9.351412
 20
38.723191
  0
VERTEX
  8
estabelecimento_escolar_publico
 10
-9.351400
 20
38.723183
  0
VERTEX
  8
estabelecimento_escolar_publico
 10
-9.351394
 20
38.723177
  0
VERTEX
  8
estabelecimento_escolar_publico
 10
-9.351386
 20
38.723169
  0
VERTEX
  8
estabelecimento_escolar_publico
 10
-9.351384
 20
38.723167
  0
VERTEX
  8
estabelecimento_escolar_publico
 10
-9.350792
 20
38.722518
  0
VERTEX
  8
estabelecimento_escolar_publico
 10
-9.351074
 20
38.722364
  0
VERTEX
  8
estabelecimento_escolar_publico
 10
-9.351292
 20
38.722597
  0
VERTEX
  8
estabelecimento_escolar_publico
 10
-9.351556
 20
38.722448
  0
VERTEX
  8
estabelecimento_escolar_publico
 10
-9.351978
 20
38.722911
  0
SEQEND
  0
POLYLINE
  8
estabelecimento_escolar_publico
  6
BYLAYER
 66
1
 70
1
 40
0.000000
 41
0.000000
  0
VERTEX
  8
estabelecimento_escolar_publico
 10
-9.419519
 20
38.710644
  0
VERTEX
  8
estabelecimento_escolar_publico
 10
-9.419779
 20
38.711075
  0
VERTEX
  8
estabelecimento_escolar_publico
 10
-9.419672
 20
38.711112
  0
VERTEX
  8
estabelecimento_escolar_publico
 10
-9.419796
 20
38.711310
  0
VERTEX
  8
estabelecimento_escolar_publico
 10
-9.419599
 20
38.711374
  0
VERTEX
  8
estabelecimento_escolar_publico
 10
-9.419405
 20
38.711422
  0
VERTEX
  8
estabelecimento_escolar_publico
 10
-9.419312
 20
38.711246
  0
VERTEX
  8
estabelecimento_escolar_publico
 10
-9.419247
 20
38.711263
  0
VERTEX
  8
estabelecimento_escolar_publico
 10
-9.419193
 20
38.711097
  0
VERTEX
  8
estabelecimento_escolar_publico
 10
-9.419166
 20
38.711017
  0
VERTEX
  8
estabelecimento_escolar_publico
 10
-9.419088
 20
38.710778
  0
VERTEX
  8
estabelecimento_escolar_publico
 10
-9.419266
 20
38.710721
  0
VERTEX
  8
estabelecimento_escolar_publico
 10
-9.419343
 20
38.710696
  0
VERTEX
  8
estabelecimento_escolar_publico
 10
-9.419394
 20
38.710684
  0
VERTEX
  8
estabelecimento_escolar_publico
 10
-9.419504
 20
38.710650
  0
VERTEX
  8
estabelecimento_escolar_publico
 10
-9.419519
 20
38.710644
  0
SEQEND
  0
POLYLINE
  8
estabelecimento_escolar_publico
  6
BYLAYER
 66
1
 70
1
 40
0.000000
 41
0.000000
  0
VERTEX
  8
estabelecimento_escolar_publico
 10
-9.418517
 20
38.709149
  0
VERTEX
  8
estabelecimento_escolar_publico
 10
-9.419243
 20
38.709005
  0
VERTEX
  8
estabelecimento_escolar_publico
 10
-9.419256
 20
38.709008
  0
VERTEX
  8
estabelecimento_escolar_publico
 10
-9.419254
 20
38.709035
  0
VERTEX
  8
estabelecimento_escolar_publico
 10
-9.419248
 20
38.709067
  0
VERTEX
  8
estabelecimento_escolar_publico
 10
-9.419241
 20
38.709092
  0
VERTEX
  8
estabelecimento_escolar_publico
 10
-9.419232
 20
38.709116
  0
VERTEX
  8
estabelecimento_escolar_publico
 10
-9.419217
 20
38.709145
  0
VERTEX
  8
estabelecimento_escolar_publico
 10
-9.419201
 20
38.709168
  0
VERTEX
  8
estabelecimento_escolar_publico
 10
-9.419173
 20
38.709199
  0
VERTEX
  8
estabelecimento_escolar_publico
 10
-9.419138
 20
38.709231
  0
VERTEX
  8
estabelecimento_escolar_publico
 10
-9.419103
 20
38.709254
  0
VERTEX
  8
estabelecimento_escolar_publico
 10
-9.419059
 20
38.709278
  0
VERTEX
  8
estabelecimento_escolar_publico
 10
-9.418999
 20
38.709303
  0
VERTEX
  8
estabelecimento_escolar_publico
 10
-9.418942
 20
38.709321
  0
VERTEX
  8
estabelecimento_escolar_publico
 10
-9.418902
 20
38.709332
  0
VERTEX
  8
estabelecimento_escolar_publico
 10
-9.418859
 20
38.709341
  0
VERTEX
  8
estabelecimento_escolar_publico
 10
-9.418809
 20
38.709348
  0
VERTEX
  8
estabelecimento_escolar_publico
 10
-9.418605
 20
38.709377
  0
VERTEX
  8
estabelecimento_escolar_publico
 10
-9.418552
 20
38.709351
  0
VERTEX
  8
estabelecimento_escolar_publico
 10
-9.418517
 20
38.709149
  0
SEQEND
  0
POLYLINE
  8
estabelecimento_escolar_publico
  6
BYLAYER
 66
1
 70
1
 40
0.000000
 41
0.000000
  0
VERTEX
  8
estabelecimento_escolar_publico
 10
-9.396129
 20
38.709246
  0
VERTEX
  8
estabelecimento_escolar_publico
 10
-9.396147
 20
38.709246
  0
VERTEX
  8
estabelecimento_escolar_publico
 10
-9.396202
 20
38.709246
  0
VERTEX
  8
estabelecimento_escolar_publico
 10
-9.396195
 20
38.709431
  0
VERTEX
  8
estabelecimento_escolar_publico
 10
-9.396233
 20
38.709431
  0
VERTEX
  8
estabelecimento_escolar_publico
 10
-9.396269
 20
38.709431
  0
VERTEX
  8
estabelecimento_escolar_publico
 10
-9.396310
 20
38.709431
  0
VERTEX
  8
estabelecimento_escolar_publico
 10
-9.396304
 20
38.709610
  0
VERTEX
  8
estabelecimento_escolar_publico
 10
-9.395882
 20
38.709639
  0
VERTEX
  8
estabelecimento_escolar_publico
 10
-9.395881
 20
38.709621
  0
VERTEX
  8
estabelecimento_escolar_publico
 10
-9.395878
 20
38.709598
  0
VERTEX
  8
estabelecimento_escolar_publico
 10
-9.395851
 20
38.709293
  0
VERTEX
  8
estabelecimento_escolar_publico
 10
-9.395849
 20
38.709270
  0
VERTEX
  8
estabelecimento_escolar_publico
 10
-9.395847
 20
38.709243
  0
VERTEX
  8
estabelecimento_escolar_publico
 10
-9.396129
 20
38.709246
  0
SEQEND
  0
POLYLINE
  8
estabelecimento_escolar_publico
  6
BYLAYER
 66
1
 70
1
 40
0.000000
 41
0.000000
  0
VERTEX
  8
estabelecimento_escolar_publico
 10
-9.339735
 20
38.696001
  0
VERTEX
  8
estabelecimento_escolar_publico
 10
-9.340206
 20
38.695895
  0
VERTEX
  8
estabelecimento_escolar_publico
 10
-9.340113
 20
38.696382
  0
VERTEX
  8
estabelecimento_escolar_publico
 10
-9.339822
 20
38.696374
  0
VERTEX
  8
estabelecimento_escolar_publico
 10
-9.339705
 20
38.696037
  0
VERTEX
  8
estabelecimento_escolar_publico
 10
-9.339704
 20
38.696034
  0
VERTEX
  8
estabelecimento_escolar_publico
 10
-9.339705
 20
38.696023
  0
VERTEX
  8
estabelecimento_escolar_publico
 10
-9.339710
 20
38.696013
  0
VERTEX
  8
estabelecimento_escolar_publico
 10
-9.339716
 20
38.696007
  0
VERTEX
  8
estabelecimento_escolar_publico
 10
-9.339723
 20
38.696003
  0
VERTEX
  8
estabelecimento_escolar_publico
 10
-9.339735
 20
38.696001
  0
SEQEND
  0
POLYLINE
  8
estabelecimento_escolar_publico
  6
BYLAYER
 66
1
 70
1
 40
0.000000
 41
0.000000
  0
VERTEX
  8
estabelecimento_escolar_publico
 10
-9.353326
 20
38.692099
  0
VERTEX
  8
estabelecimento_escolar_publico
 10
-9.353327
 20
38.692114
  0
VERTEX
  8
estabelecimento_escolar_publico
 10
-9.353325
 20
38.692133
  0
VERTEX
  8
estabelecimento_escolar_publico
 10
-9.353321
 20
38.692152
  0
VERTEX
  8
estabelecimento_escolar_publico
 10
-9.353315
 20
38.692170
  0
VERTEX
  8
estabelecimento_escolar_publico
 10
-9.353307
 20
38.692188
  0
VERTEX
  8
estabelecimento_escolar_publico
 10
-9.353302
 20
38.692196
  0
VERTEX
  8
estabelecimento_escolar_publico
 10
-9.353291
 20
38.692214
  0
VERTEX
  8
estabelecimento_escolar_publico
 10
-9.353278
 20
38.692232
  0
VERTEX
  8
estabelecimento_escolar_publico
 10
-9.353263
 20
38.692249
  0
VERTEX
  8
estabelecimento_escolar_publico
 10
-9.353257
 20
38.692255
  0
VERTEX
  8
estabelecimento_escolar_publico
 10
-9.353247
 20
38.692264
  0
VERTEX
  8
estabelecimento_escolar_publico
 10
-9.353227
 20
38.692279
  0
VERTEX
  8
estabelecimento_escolar_publico
 10
-9.353221
 20
38.692284
  0
VERTEX
  8
estabelecimento_escolar_publico
 10
-9.353130
 20
38.692361
  0
VERTEX
  8
estabelecimento_escolar_publico
 10
-9.353111
 20
38.692357
  0
VERTEX
  8
estabelecimento_escolar_publico
 10
-9.353109
 20
38.692358
  0
VERTEX
  8
estabelecimento_escolar_publico
 10
-9.353089
 20
38.692375
  0
VERTEX
  8
estabelecimento_escolar_publico
 10
-9.353086
 20
38.692377
  0
VERTEX
  8
estabelecimento_escolar_publico
 10
-9.353093
 20
38.692390
  0
VERTEX
  8
estabelecimento_escolar_publico
 10
-9.352784
 20
38.692645
  0
VERTEX
  8
estabelecimento_escolar_publico
 10
-9.352763
 20
38.692663
  0
VERTEX
  8
estabelecimento_escolar_publico
 10
-9.352758
 20
38.692667
  0
VERTEX
  8
estabelecimento_escolar_publico
 10
-9.352741
 20
38.692679
  0
VERTEX
  8
estabelecimento_escolar_publico
 10
-9.352717
 20
38.692693
  0
VERTEX
  8
estabelecimento_escolar_publico
 10
-9.352691
 20
38.692706
  0
VERTEX
  8
estabelecimento_escolar_publico
 10
-9.352664
 20
38.692717
  0
VERTEX
  8
estabelecimento_escolar_publico
 10
-9.352642
 20
38.692724
  0
VERTEX
  8
estabelecimento_escolar_publico
 10
-9.352615
 20
38.692729
  0
VERTEX
  8
estabelecimento_escolar_publico
 10
-9.352587
 20
38.692732
  0
VERTEX
  8
estabelecimento_escolar_publico
 10
-9.352559
 20
38.692734
  0
VERTEX
  8
estabelecimento_escolar_publico
 10
-9.352531
 20
38.692733
  0
VERTEX
  8
estabelecimento_escolar_publico
 10
-9.352503
 20
38.692731
  0
VERTEX
  8
estabelecimento_escolar_publico
 10
-9.352474
 20
38.692727
  0
VERTEX
  8
estabelecimento_escolar_publico
 10
-9.352445
 20
38.692721
  0
VERTEX
  8
estabelecimento_escolar_publico
 10
-9.352418
 20
38.692714
  0
VERTEX
  8
estabelecimento_escolar_publico
 10
-9.352411
 20
38.692711
  0
VERTEX
  8
estabelecimento_escolar_publico
 10
-9.352339
 20
38.692662
  0
VERTEX
  8
estabelecimento_escolar_publico
 10
-9.352335
 20
38.692659
  0
VERTEX
  8
estabelecimento_escolar_publico
 10
-9.352331
 20
38.692656
  0
VERTEX
  8
estabelecimento_escolar_publico
 10
-9.352328
 20
38.692652
  0
VERTEX
  8
estabelecimento_escolar_publico
 10
-9.352325
 20
38.692649
  0
VERTEX
  8
estabelecimento_escolar_publico
 10
-9.352322
 20
38.692645
  0
VERTEX
  8
estabelecimento_escolar_publico
 10
-9.352320
 20
38.692640
  0
VERTEX
  8
estabelecimento_escolar_publico
 10
-9.352318
 20
38.692636
  0
VERTEX
  8
estabelecimento_escolar_publico
 10
-9.352317
 20
38.692634
  0
VERTEX
  8
estabelecimento_escolar_publico
 10
-9.352180
 20
38.692462
  0
VERTEX
  8
estabelecimento_escolar_publico
 10
-9.352332
 20
38.692304
  0
VERTEX
  8
estabelecimento_escolar_publico
 10
-9.352477
 20
38.692250
  0
VERTEX
  8
estabelecimento_escolar_publico
 10
-9.352496
 20
38.692243
  0
VERTEX
  8
estabelecimento_escolar_publico
 10
-9.352574
 20
38.692214
  0
VERTEX
  8
estabelecimento_escolar_publico
 10
-9.353017
 20
38.692034
  0
VERTEX
  8
estabelecimento_escolar_publico
 10
-9.353043
 20
38.692024
  0
VERTEX
  8
estabelecimento_escolar_publico
 10
-9.353046
 20
38.692023
  0
VERTEX
  8
estabelecimento_escolar_publico
 10
-9.353103
 20
38.691998
  0
VERTEX
  8
estabelecimento_escolar_publico
 10
-9.353113
 20
38.691994
  0
VERTEX
  8
estabelecimento_escolar_publico
 10
-9.353124
 20
38.691991
  0
VERTEX
  8
estabelecimento_escolar_publico
 10
-9.353135
 20
38.691988
  0
VERTEX
  8
estabelecimento_escolar_publico
 10
-9.353146
 20
38.691987
  0
VERTEX
  8
estabelecimento_escolar_publico
 10
-9.353158
 20
38.691985
  0
VERTEX
  8
estabelecimento_escolar_publico
 10
-9.353169
 20
38.691985
  0
VERTEX
  8
estabelecimento_escolar_publico
 10
-9.353181
 20
38.691986
  0
VERTEX
  8
estabelecimento_escolar_publico
 10
-9.353192
 20
38.691987
  0
VERTEX
  8
estabelecimento_escolar_publico
 10
-9.353210
 20
38.691988
  0
VERTEX
  8
estabelecimento_escolar_publico
 10
-9.353228
 20
38.691990
  0
VERTEX
  8
estabelecimento_escolar_publico
 10
-9.353245
 20
38.691993
  0
VERTEX
  8
estabelecimento_escolar_publico
 10
-9.353262
 20
38.691998
  0
VERTEX
  8
estabelecimento_escolar_publico
 10
-9.353276
 20
38.692002
  0
VERTEX
  8
estabelecimento_escolar_publico
 10
-9.353282
 20
38.692006
  0
VERTEX
  8
estabelecimento_escolar_publico
 10
-9.353289
 20
38.692010
  0
VERTEX
  8
estabelecimento_escolar_publico
 10
-9.353295
 20
38.692014
  0
VERTEX
  8
estabelecimento_escolar_publico
 10
-9.353300
 20
38.692019
  0
VERTEX
  8
estabelecimento_escolar_publico
 10
-9.353305
 20
38.692024
  0
VERTEX
  8
estabelecimento_escolar_publico
 10
-9.353309
 20
38.692029
  0
VERTEX
  8
estabelecimento_escolar_publico
 10
-9.353313
 20
38.692036
  0
VERTEX
  8
estabelecimento_escolar_publico
 10
-9.353320
 20
38.692056
  0
VERTEX
  8
estabelecimento_escolar_publico
 10
-9.353324
 20
38.692076
  0
VERTEX
  8
estabelecimento_escolar_publico
 10
-9.353326
 20
38.692095
  0
VERTEX
  8
estabelecimento_escolar_publico
 10
-9.353326
 20
38.692099
  0
SEQEND
  0
POLYLINE
  8
estabelecimento_escolar_publico
  6
BYLAYER
 66
1
 70
1
 40
0.000000
 41
0.000000
  0
VERTEX
  8
estabelecimento_escolar_publico
 10
-9.351085
 20
38.705305
  0
VERTEX
  8
estabelecimento_escolar_publico
 10
-9.351204
 20
38.705249
  0
VERTEX
  8
estabelecimento_escolar_publico
 10
-9.351527
 20
38.705104
  0
VERTEX
  8
estabelecimento_escolar_publico
 10
-9.351705
 20
38.705319
  0
VERTEX
  8
estabelecimento_escolar_publico
 10
-9.351951
 20
38.705547
  0
VERTEX
  8
estabelecimento_escolar_publico
 10
-9.352148
 20
38.705697
  0
VERTEX
  8
estabelecimento_escolar_publico
 10
-9.352484
 20
38.705911
  0
VERTEX
  8
estabelecimento_escolar_publico
 10
-9.352316
 20
38.706128
  0
VERTEX
  8
estabelecimento_escolar_publico
 10
-9.352198
 20
38.706282
  0
VERTEX
  8
estabelecimento_escolar_publico
 10
-9.351993
 20
38.706545
  0
VERTEX
  8
estabelecimento_escolar_publico
 10
-9.351880
 20
38.706691
  0
VERTEX
  8
estabelecimento_escolar_publico
 10
-9.351763
 20
38.706844
  0
VERTEX
  8
estabelecimento_escolar_publico
 10
-9.351425
 20
38.706813
  0
VERTEX
  8
estabelecimento_escolar_publico
 10
-9.350961
 20
38.706769
  0
VERTEX
  8
estabelecimento_escolar_publico
 10
-9.350933
 20
38.706713
  0
VERTEX
  8
estabelecimento_escolar_publico
 10
-9.350875
 20
38.706707
  0
VERTEX
  8
estabelecimento_escolar_publico
 10
-9.350856
 20
38.706705
  0
VERTEX
  8
estabelecimento_escolar_publico
 10
-9.350827
 20
38.706702
  0
VERTEX
  8
estabelecimento_escolar_publico
 10
-9.350799
 20
38.706735
  0
VERTEX
  8
estabelecimento_escolar_publico
 10
-9.350780
 20
38.706759
  0
VERTEX
  8
estabelecimento_escolar_publico
 10
-9.350726
 20
38.706754
  0
VERTEX
  8
estabelecimento_escolar_publico
 10
-9.350696
 20
38.706751
  0
VERTEX
  8
estabelecimento_escolar_publico
 10
-9.350613
 20
38.706744
  0
VERTEX
  8
estabelecimento_escolar_publico
 10
-9.350611
 20
38.706743
  0
VERTEX
  8
estabelecimento_escolar_publico
 10
-9.350466
 20
38.706444
  0
VERTEX
  8
estabelecimento_escolar_publico
 10
-9.350198
 20
38.705889
  0
VERTEX
  8
estabelecimento_escolar_publico
 10
-9.350128
 20
38.705742
  0
VERTEX
  8
estabelecimento_escolar_publico
 10
-9.350203
 20
38.705711
  0
VERTEX
  8
estabelecimento_escolar_publico
 10
-9.350204
 20
38.705710
  0
VERTEX
  8
estabelecimento_escolar_publico
 10
-9.350384
 20
38.705623
  0
VERTEX
  8
estabelecimento_escolar_publico
 10
-9.350483
 20
38.705579
  0
VERTEX
  8
estabelecimento_escolar_publico
 10
-9.350486
 20
38.705577
  0
VERTEX
  8
estabelecimento_escolar_publico
 10
-9.350565
 20
38.705542
  0
VERTEX
  8
estabelecimento_escolar_publico
 10
-9.350572
 20
38.705538
  0
VERTEX
  8
estabelecimento_escolar_publico
 10
-9.350776
 20
38.705446
  0
VERTEX
  8
estabelecimento_escolar_publico
 10
-9.350779
 20
38.705445
  0
VERTEX
  8
estabelecimento_escolar_publico
 10
-9.350852
 20
38.705412
  0
VERTEX
  8
estabelecimento_escolar_publico
 10
-9.350927
 20
38.705377
  0
VERTEX
  8
estabelecimento_escolar_publico
 10
-9.351010
 20
38.705339
  0
VERTEX
  8
estabelecimento_escolar_publico
 10
-9.351080
 20
38.705307
  0
VERTEX
  8
estabelecimento_escolar_publico
 10
-9.351085
 20
38.705305
  0
SEQEND
  0
POLYLINE
  8
estabelecimento_escolar_publico
  6
BYLAYER
 66
1
 70
1
 40
0.000000
 41
0.000000
  0
VERTEX
  8
estabelecimento_escolar_publico
 10
-9.383358
 20
38.728862
  0
VERTEX
  8
estabelecimento_escolar_publico
 10
-9.383413
 20
38.728908
  0
VERTEX
  8
estabelecimento_escolar_publico
 10
-9.383442
 20
38.728938
  0
VERTEX
  8
estabelecimento_escolar_publico
 10
-9.383468
 20
38.728970
  0
VERTEX
  8
estabelecimento_escolar_publico
 10
-9.383484
 20
38.728992
  0
VERTEX
  8
estabelecimento_escolar_publico
 10
-9.383547
 20
38.729079
  0
VERTEX
  8
estabelecimento_escolar_publico
 10
-9.383196
 20
38.729222
  0
VERTEX
  8
estabelecimento_escolar_publico
 10
-9.383153
 20
38.729207
  0
VERTEX
  8
estabelecimento_escolar_publico
 10
-9.382940
 20
38.728902
  0
VERTEX
  8
estabelecimento_escolar_publico
 10
-9.382938
 20
38.728900
  0
VERTEX
  8
estabelecimento_escolar_publico
 10
-9.382915
 20
38.728873
  0
VERTEX
  8
estabelecimento_escolar_publico
 10
-9.383004
 20
38.728848
  0
VERTEX
  8
estabelecimento_escolar_publico
 10
-9.383047
 20
38.728836
  0
VERTEX
  8
estabelecimento_escolar_publico
 10
-9.383135
 20
38.728812
  0
VERTEX
  8
estabelecimento_escolar_publico
 10
-9.383204
 20
38.728790
  0
VERTEX
  8
estabelecimento_escolar_publico
 10
-9.383202
 20
38.728787
  0
VERTEX
  8
estabelecimento_escolar_publico
 10
-9.383251
 20
38.728775
  0
VERTEX
  8
estabelecimento_escolar_publico
 10
-9.383286
 20
38.728802
  0
VERTEX
  8
estabelecimento_escolar_publico
 10
-9.383344
 20
38.728850
  0
VERTEX
  8
estabelecimento_escolar_publico
 10
-9.383358
 20
38.728862
  0
SEQEND
  0
POLYLINE
  8
estabelecimento_escolar_publico
  6
BYLAYER
 66
1
 70
1
 40
0.000000
 41
0.000000
  0
VERTEX
  8
estabelecimento_escolar_publico
 10
-9.358155
 20
38.690776
  0
VERTEX
  8
estabelecimento_escolar_publico
 10
-9.358023
 20
38.690741
  0
VERTEX
  8
estabelecimento_escolar_publico
 10
-9.358013
 20
38.690737
  0
VERTEX
  8
estabelecimento_escolar_publico
 10
-9.358004
 20
38.690730
  0
VERTEX
  8
estabelecimento_escolar_publico
 10
-9.358000
 20
38.690722
  0
VERTEX
  8
estabelecimento_escolar_publico
 10
-9.357997
 20
38.690710
  0
VERTEX
  8
estabelecimento_escolar_publico
 10
-9.357900
 20
38.690711
  0
VERTEX
  8
estabelecimento_escolar_publico
 10
-9.357896
 20
38.690376
  0
VERTEX
  8
estabelecimento_escolar_publico
 10
-9.357978
 20
38.690374
  0
VERTEX
  8
estabelecimento_escolar_publico
 10
-9.358174
 20
38.690424
  0
VERTEX
  8
estabelecimento_escolar_publico
 10
-9.358155
 20
38.690776
  0
SEQEND
  0
POLYLINE
  8
estabelecimento_escolar_publico
  6
BYLAYER
 66
1
 70
1
 40
0.000000
 41
0.000000
  0
VERTEX
  8
estabelecimento_escolar_publico
 10
-9.344554
 20
38.713233
  0
VERTEX
  8
estabelecimento_escolar_publico
 10
-9.344581
 20
38.713231
  0
VERTEX
  8
estabelecimento_escolar_publico
 10
-9.344755
 20
38.713216
  0
VERTEX
  8
estabelecimento_escolar_publico
 10
-9.344801
 20
38.713212
  0
VERTEX
  8
estabelecimento_escolar_publico
 10
-9.344844
 20
38.713207
  0
VERTEX
  8
estabelecimento_escolar_publico
 10
-9.344896
 20
38.713202
  0
VERTEX
  8
estabelecimento_escolar_publico
 10
-9.345015
 20
38.713189
  0
VERTEX
  8
estabelecimento_escolar_publico
 10
-9.345134
 20
38.713176
  0
VERTEX
  8
estabelecimento_escolar_publico
 10
-9.345152
 20
38.713177
  0
VERTEX
  8
estabelecimento_escolar_publico
 10
-9.345208
 20
38.713181
  0
VERTEX
  8
estabelecimento_escolar_publico
 10
-9.345216
 20
38.713181
  0
VERTEX
  8
estabelecimento_escolar_publico
 10
-9.345287
 20
38.713183
  0
VERTEX
  8
estabelecimento_escolar_publico
 10
-9.345325
 20
38.713184
  0
VERTEX
  8
estabelecimento_escolar_publico
 10
-9.345448
 20
38.713185
  0
VERTEX
  8
estabelecimento_escolar_publico
 10
-9.345566
 20
38.713188
  0
VERTEX
  8
estabelecimento_escolar_publico
 10
-9.345596
 20
38.713195
  0
VERTEX
  8
estabelecimento_escolar_publico
 10
-9.345663
 20
38.713211
  0
VERTEX
  8
estabelecimento_escolar_publico
 10
-9.345663
 20
38.713266
  0
VERTEX
  8
estabelecimento_escolar_publico
 10
-9.345663
 20
38.713329
  0
VERTEX
  8
estabelecimento_escolar_publico
 10
-9.345664
 20
38.713335
  0
VERTEX
  8
estabelecimento_escolar_publico
 10
-9.345677
 20
38.713427
  0
VERTEX
  8
estabelecimento_escolar_publico
 10
-9.345659
 20
38.713457
  0
VERTEX
  8
estabelecimento_escolar_publico
 10
-9.345635
 20
38.713496
  0
VERTEX
  8
estabelecimento_escolar_publico
 10
-9.345589
 20
38.713571
  0
VERTEX
  8
estabelecimento_escolar_publico
 10
-9.345600
 20
38.713589
  0
VERTEX
  8
estabelecimento_escolar_publico
 10
-9.345594
 20
38.713613
  0
VERTEX
  8
estabelecimento_escolar_publico
 10
-9.345451
 20
38.713642
  0
VERTEX
  8
estabelecimento_escolar_publico
 10
-9.345406
 20
38.713648
  0
VERTEX
  8
estabelecimento_escolar_publico
 10
-9.345345
 20
38.713658
  0
VERTEX
  8
estabelecimento_escolar_publico
 10
-9.345305
 20
38.713663
  0
VERTEX
  8
estabelecimento_escolar_publico
 10
-9.345252
 20
38.713670
  0
VERTEX
  8
estabelecimento_escolar_publico
 10
-9.345178
 20
38.713680
  0
VERTEX
  8
estabelecimento_escolar_publico
 10
-9.345161
 20
38.713682
  0
VERTEX
  8
estabelecimento_escolar_publico
 10
-9.345067
 20
38.713692
  0
VERTEX
  8
estabelecimento_escolar_publico
 10
-9.345043
 20
38.713694
  0
VERTEX
  8
estabelecimento_escolar_publico
 10
-9.344937
 20
38.713698
  0
VERTEX
  8
estabelecimento_escolar_publico
 10
-9.344699
 20
38.713702
  0
VERTEX
  8
estabelecimento_escolar_publico
 10
-9.344645
 20
38.713703
  0
VERTEX
  8
estabelecimento_escolar_publico
 10
-9.344603
 20
38.713500
  0
VERTEX
  8
estabelecimento_escolar_publico
 10
-9.344601
 20
38.713487
  0
VERTEX
  8
estabelecimento_escolar_publico
 10
-9.344554
 20
38.713233
  0
SEQEND
  0
POLYLINE
  8
estabelecimento_escolar_publico
  6
BYLAYER
 66
1
 70
1
 40
0.000000
 41
0.000000
  0
VERTEX
  8
estabelecimento_escolar_publico
 10
-9.328561
 20
38.717128
  0
VERTEX
  8
estabelecimento_escolar_publico
 10
-9.327707
 20
38.717029
  0
VERTEX
  8
estabelecimento_escolar_publico
 10
-9.327267
 20
38.717056
  0
VERTEX
  8
estabelecimento_escolar_publico
 10
-9.327236
 20
38.716831
  0
VERTEX
  8
estabelecimento_escolar_publico
 10
-9.327758
 20
38.716755
  0
VERTEX
  8
estabelecimento_escolar_publico
 10
-9.328098
 20
38.716734
  0
VERTEX
  8
estabelecimento_escolar_publico
 10
-9.328531
 20
38.716733
  0
VERTEX
  8
estabelecimento_escolar_publico
 10
-9.328529
 20
38.717084
  0
VERTEX
  8
estabelecimento_escolar_publico
 10
-9.328573
 20
38.717082
  0
VERTEX
  8
estabelecimento_escolar_publico
 10
-9.328563
 20
38.717129
  0
VERTEX
  8
estabelecimento_escolar_publico
 10
-9.328561
 20
38.717128
  0
SEQEND
  0
POLYLINE
  8
estabelecimento_escolar_publico
  6
BYLAYER
 66
1
 70
1
 40
0.000000
 41
0.000000
  0
VERTEX
  8
estabelecimento_escolar_publico
 10
-9.354863
 20
38.700413
  0
VERTEX
  8
estabelecimento_escolar_publico
 10
-9.354842
 20
38.700431
  0
VERTEX
  8
estabelecimento_escolar_publico
 10
-9.354903
 20
38.700496
  0
VERTEX
  8
estabelecimento_escolar_publico
 10
-9.354095
 20
38.700700
  0
VERTEX
  8
estabelecimento_escolar_publico
 10
-9.353911
 20
38.700315
  0
VERTEX
  8
estabelecimento_escolar_publico
 10
-9.353916
 20
38.700293
  0
VERTEX
  8
estabelecimento_escolar_publico
 10
-9.353921
 20
38.700284
  0
VERTEX
  8
estabelecimento_escolar_publico
 10
-9.353929
 20
38.700277
  0
VERTEX
  8
estabelecimento_escolar_publico
 10
-9.354455
 20
38.699985
  0
VERTEX
  8
estabelecimento_escolar_publico
 10
-9.354492
 20
38.699971
  0
VERTEX
  8
estabelecimento_escolar_publico
 10
-9.354610
 20
38.699942
  0
VERTEX
  8
estabelecimento_escolar_publico
 10
-9.354643
 20
38.699951
  0
VERTEX
  8
estabelecimento_escolar_publico
 10
-9.354863
 20
38.700413
  0
SEQEND
  0
POLYLINE
  8
estabelecimento_escolar_publico
  6
BYLAYER
 66
1
 70
1
 40
0.000000
 41
0.000000
  0
VERTEX
  8
estabelecimento_escolar_publico
 10
-9.332857
 20
38.690337
  0
VERTEX
  8
estabelecimento_escolar_publico
 10
-9.332857
 20
38.690342
  0
VERTEX
  8
estabelecimento_escolar_publico
 10
-9.332847
 20
38.690383
  0
VERTEX
  8
estabelecimento_escolar_publico
 10
-9.332832
 20
38.690418
  0
VERTEX
  8
estabelecimento_escolar_publico
 10
-9.332813
 20
38.690452
  0
VERTEX
  8
estabelecimento_escolar_publico
 10
-9.332791
 20
38.690481
  0
VERTEX
  8
estabelecimento_escolar_publico
 10
-9.332766
 20
38.690508
  0
VERTEX
  8
estabelecimento_escolar_publico
 10
-9.332734
 20
38.690535
  0
VERTEX
  8
estabelecimento_escolar_publico
 10
-9.332698
 20
38.690560
  0
VERTEX
  8
estabelecimento_escolar_publico
 10
-9.332663
 20
38.690578
  0
VERTEX
  8
estabelecimento_escolar_publico
 10
-9.332612
 20
38.690600
  0
VERTEX
  8
estabelecimento_escolar_publico
 10
-9.332279
 20
38.690687
  0
VERTEX
  8
estabelecimento_escolar_publico
 10
-9.332110
 20
38.690729
  0
VERTEX
  8
estabelecimento_escolar_publico
 10
-9.332087
 20
38.690732
  0
VERTEX
  8
estabelecimento_escolar_publico
 10
-9.332071
 20
38.690731
  0
VERTEX
  8
estabelecimento_escolar_publico
 10
-9.332049
 20
38.690726
  0
VERTEX
  8
estabelecimento_escolar_publico
 10
-9.332035
 20
38.690719
  0
VERTEX
  8
estabelecimento_escolar_publico
 10
-9.332020
 20
38.690706
  0
VERTEX
  8
estabelecimento_escolar_publico
 10
-9.332009
 20
38.690690
  0
VERTEX
  8
estabelecimento_escolar_publico
 10
-9.331951
 20
38.690508
  0
VERTEX
  8
estabelecimento_escolar_publico
 10
-9.331947
 20
38.690483
  0
VERTEX
  8
estabelecimento_escolar_publico
 10
-9.331950
 20
38.690448
  0
VERTEX
  8
estabelecimento_escolar_publico
 10
-9.331955
 20
38.690427
  0
VERTEX
  8
estabelecimento_escolar_publico
 10
-9.331963
 20
38.690407
  0
VERTEX
  8
estabelecimento_escolar_publico
 10
-9.332038
 20
38.690244
  0
VERTEX
  8
estabelecimento_escolar_publico
 10
-9.332057
 20
38.690201
  0
VERTEX
  8
estabelecimento_escolar_publico
 10
-9.332064
 20
38.690203
  0
VERTEX
  8
estabelecimento_escolar_publico
 10
-9.332103
 20
38.690215
  0
VERTEX
  8
estabelecimento_escolar_publico
 10
-9.332141
 20
38.690227
  0
VERTEX
  8
estabelecimento_escolar_publico
 10
-9.332183
 20
38.690240
  0
VERTEX
  8
estabelecimento_escolar_publico
 10
-9.332288
 20
38.690013
  0
VERTEX
  8
estabelecimento_escolar_publico
 10
-9.332338
 20
38.690023
  0
VERTEX
  8
estabelecimento_escolar_publico
 10
-9.332442
 20
38.690055
  0
VERTEX
  8
estabelecimento_escolar_publico
 10
-9.332759
 20
38.690151
  0
VERTEX
  8
estabelecimento_escolar_publico
 10
-9.332775
 20
38.690162
  0
VERTEX
  8
estabelecimento_escolar_publico
 10
-9.332779
 20
38.690165
  0
VERTEX
  8
estabelecimento_escolar_publico
 10
-9.332783
 20
38.690168
  0
VERTEX
  8
estabelecimento_escolar_publico
 10
-9.332787
 20
38.690171
  0
VERTEX
  8
estabelecimento_escolar_publico
 10
-9.332790
 20
38.690174
  0
VERTEX
  8
estabelecimento_escolar_publico
 10
-9.332794
 20
38.690177
  0
VERTEX
  8
estabelecimento_escolar_publico
 10
-9.332797
 20
38.690180
  0
VERTEX
  8
estabelecimento_escolar_publico
 10
-9.332801
 20
38.690184
  0
VERTEX
  8
estabelecimento_escolar_publico
 10
-9.332804
 20
38.690187
  0
VERTEX
  8
estabelecimento_escolar_publico
 10
-9.332825
 20
38.690212
  0
VERTEX
  8
estabelecimento_escolar_publico
 10
-9.332842
 20
38.690238
  0
VERTEX
  8
estabelecimento_escolar_publico
 10
-9.332852
 20
38.690262
  0
VERTEX
  8
estabelecimento_escolar_publico
 10
-9.332857
 20
38.690287
  0
VERTEX
  8
estabelecimento_escolar_publico
 10
-9.332859
 20
38.690317
  0
VERTEX
  8
estabelecimento_escolar_publico
 10
-9.332857
 20
38.690337
  0
SEQEND
  0
POLYLINE
  8
estabelecimento_escolar_publico
  6
BYLAYER
 66
1
 70
1
 40
0.000000
 41
0.000000
  0
VERTEX
  8
estabelecimento_escolar_publico
 10
-9.434221
 20
38.695499
  0
VERTEX
  8
estabelecimento_escolar_publico
 10
-9.434295
 20
38.695567
  0
VERTEX
  8
estabelecimento_escolar_publico
 10
-9.434600
 20
38.695846
  0
VERTEX
  8
estabelecimento_escolar_publico
 10
-9.434680
 20
38.695921
  0
VERTEX
  8
estabelecimento_escolar_publico
 10
-9.434740
 20
38.695977
  0
VERTEX
  8
estabelecimento_escolar_publico
 10
-9.434800
 20
38.696034
  0
VERTEX
  8
estabelecimento_escolar_publico
 10
-9.434873
 20
38.696105
  0
VERTEX
  8
estabelecimento_escolar_publico
 10
-9.434897
 20
38.696129
  0
VERTEX
  8
estabelecimento_escolar_publico
 10
-9.434916
 20
38.696149
  0
VERTEX
  8
estabelecimento_escolar_publico
 10
-9.434939
 20
38.696173
  0
VERTEX
  8
estabelecimento_escolar_publico
 10
-9.434962
 20
38.696199
  0
VERTEX
  8
estabelecimento_escolar_publico
 10
-9.434991
 20
38.696233
  0
VERTEX
  8
estabelecimento_escolar_publico
 10
-9.435027
 20
38.696275
  0
VERTEX
  8
estabelecimento_escolar_publico
 10
-9.435059
 20
38.696315
  0
VERTEX
  8
estabelecimento_escolar_publico
 10
-9.435101
 20
38.696366
  0
VERTEX
  8
estabelecimento_escolar_publico
 10
-9.435130
 20
38.696402
  0
VERTEX
  8
estabelecimento_escolar_publico
 10
-9.435182
 20
38.696469
  0
VERTEX
  8
estabelecimento_escolar_publico
 10
-9.435200
 20
38.696494
  0
VERTEX
  8
estabelecimento_escolar_publico
 10
-9.435214
 20
38.696514
  0
VERTEX
  8
estabelecimento_escolar_publico
 10
-9.435224
 20
38.696528
  0
VERTEX
  8
estabelecimento_escolar_publico
 10
-9.435227
 20
38.696534
  0
VERTEX
  8
estabelecimento_escolar_publico
 10
-9.435229
 20
38.696537
  0
VERTEX
  8
estabelecimento_escolar_publico
 10
-9.435231
 20
38.696543
  0
VERTEX
  8
estabelecimento_escolar_publico
 10
-9.435232
 20
38.696548
  0
VERTEX
  8
estabelecimento_escolar_publico
 10
-9.435234
 20
38.696561
  0
VERTEX
  8
estabelecimento_escolar_publico
 10
-9.435235
 20
38.696569
  0
VERTEX
  8
estabelecimento_escolar_publico
 10
-9.435235
 20
38.696578
  0
VERTEX
  8
estabelecimento_escolar_publico
 10
-9.435234
 20
38.696594
  0
VERTEX
  8
estabelecimento_escolar_publico
 10
-9.435233
 20
38.696600
  0
VERTEX
  8
estabelecimento_escolar_publico
 10
-9.435231
 20
38.696610
  0
VERTEX
  8
estabelecimento_escolar_publico
 10
-9.435227
 20
38.696623
  0
VERTEX
  8
estabelecimento_escolar_publico
 10
-9.435225
 20
38.696628
  0
VERTEX
  8
estabelecimento_escolar_publico
 10
-9.435220
 20
38.696640
  0
VERTEX
  8
estabelecimento_escolar_publico
 10
-9.435216
 20
38.696647
  0
VERTEX
  8
estabelecimento_escolar_publico
 10
-9.435207
 20
38.696661
  0
VERTEX
  8
estabelecimento_escolar_publico
 10
-9.435203
 20
38.696666
  0
VERTEX
  8
estabelecimento_escolar_publico
 10
-9.435196
 20
38.696675
  0
VERTEX
  8
estabelecimento_escolar_publico
 10
-9.435188
 20
38.696683
  0
VERTEX
  8
estabelecimento_escolar_publico
 10
-9.435181
 20
38.696691
  0
VERTEX
  8
estabelecimento_escolar_publico
 10
-9.435173
 20
38.696699
  0
VERTEX
  8
estabelecimento_escolar_publico
 10
-9.435164
 20
38.696706
  0
VERTEX
  8
estabelecimento_escolar_publico
 10
-9.435159
 20
38.696710
  0
VERTEX
  8
estabelecimento_escolar_publico
 10
-9.435151
 20
38.696715
  0
VERTEX
  8
estabelecimento_escolar_publico
 10
-9.435146
 20
38.696718
  0
VERTEX
  8
estabelecimento_escolar_publico
 10
-9.435131
 20
38.696725
  0
VERTEX
  8
estabelecimento_escolar_publico
 10
-9.435122
 20
38.696729
  0
VERTEX
  8
estabelecimento_escolar_publico
 10
-9.435030
 20
38.696768
  0
VERTEX
  8
estabelecimento_escolar_publico
 10
-9.434737
 20
38.696899
  0
VERTEX
  8
estabelecimento_escolar_publico
 10
-9.434480
 20
38.697013
  0
VERTEX
  8
estabelecimento_escolar_publico
 10
-9.434468
 20
38.697018
  0
VERTEX
  8
estabelecimento_escolar_publico
 10
-9.434420
 20
38.697032
  0
VERTEX
  8
estabelecimento_escolar_publico
 10
-9.434399
 20
38.697035
  0
VERTEX
  8
estabelecimento_escolar_publico
 10
-9.434386
 20
38.697036
  0
VERTEX
  8
estabelecimento_escolar_publico
 10
-9.434372
 20
38.697036
  0
VERTEX
  8
estabelecimento_escolar_publico
 10
-9.434368
 20
38.697036
  0
VERTEX
  8
estabelecimento_escolar_publico
 10
-9.434025
 20
38.697023
  0
VERTEX
  8
estabelecimento_escolar_publico
 10
-9.433932
 20
38.697019
  0
VERTEX
  8
estabelecimento_escolar_publico
 10
-9.433902
 20
38.697017
  0
VERTEX
  8
estabelecimento_escolar_publico
 10
-9.433891
 20
38.697017
  0
VERTEX
  8
estabelecimento_escolar_publico
 10
-9.433847
 20
38.697015
  0
VERTEX
  8
estabelecimento_escolar_publico
 10
-9.433804
 20
38.697009
  0
VERTEX
  8
estabelecimento_escolar_publico
 10
-9.433797
 20
38.697008
  0
VERTEX
  8
estabelecimento_escolar_publico
 10
-9.433790
 20
38.697006
  0
VERTEX
  8
estabelecimento_escolar_publico
 10
-9.433733
 20
38.696967
  0
VERTEX
  8
estabelecimento_escolar_publico
 10
-9.433656
 20
38.697008
  0
VERTEX
  8
estabelecimento_escolar_publico
 10
-9.433576
 20
38.696968
  0
VERTEX
  8
estabelecimento_escolar_publico
 10
-9.433317
 20
38.696836
  0
VERTEX
  8
estabelecimento_escolar_publico
 10
-9.433085
 20
38.696721
  0
VERTEX
  8
estabelecimento_escolar_publico
 10
-9.433087
 20
38.696717
  0
VERTEX
  8
estabelecimento_escolar_publico
 10
-9.433044
 20
38.696696
  0
VERTEX
  8
estabelecimento_escolar_publico
 10
-9.433023
 20
38.696670
  0
VERTEX
  8
estabelecimento_escolar_publico
 10
-9.432703
 20
38.696292
  0
VERTEX
  8
estabelecimento_escolar_publico
 10
-9.432814
 20
38.696236
  0
VERTEX
  8
estabelecimento_escolar_publico
 10
-9.433642
 20
38.695804
  0
VERTEX
  8
estabelecimento_escolar_publico
 10
-9.434221
 20
38.695499
  0
SEQEND
  0
POLYLINE
  8
estabelecimento_escolar_publico
  6
BYLAYER
 66
1
 70
1
 40
0.000000
 41
0.000000
  0
VERTEX
  8
estabelecimento_escolar_publico
 10
-9.338086
 20
38.698242
  0
VERTEX
  8
estabelecimento_escolar_publico
 10
-9.337960
 20
38.698516
  0
VERTEX
  8
estabelecimento_escolar_publico
 10
-9.337838
 20
38.698784
  0
VERTEX
  8
estabelecimento_escolar_publico
 10
-9.337759
 20
38.698789
  0
VERTEX
  8
estabelecimento_escolar_publico
 10
-9.337534
 20
38.698802
  0
VERTEX
  8
estabelecimento_escolar_publico
 10
-9.337439
 20
38.698813
  0
VERTEX
  8
estabelecimento_escolar_publico
 10
-9.337270
 20
38.698831
  0
VERTEX
  8
estabelecimento_escolar_publico
 10
-9.337272
 20
38.698891
  0
VERTEX
  8
estabelecimento_escolar_publico
 10
-9.337295
 20
38.699022
  0
VERTEX
  8
estabelecimento_escolar_publico
 10
-9.337302
 20
38.699060
  0
VERTEX
  8
estabelecimento_escolar_publico
 10
-9.337207
 20
38.699044
  0
VERTEX
  8
estabelecimento_escolar_publico
 10
-9.337175
 20
38.699019
  0
VERTEX
  8
estabelecimento_escolar_publico
 10
-9.337128
 20
38.699012
  0
VERTEX
  8
estabelecimento_escolar_publico
 10
-9.337083
 20
38.699022
  0
VERTEX
  8
estabelecimento_escolar_publico
 10
-9.336664
 20
38.698959
  0
VERTEX
  8
estabelecimento_escolar_publico
 10
-9.336643
 20
38.698946
  0
VERTEX
  8
estabelecimento_escolar_publico
 10
-9.336626
 20
38.698935
  0
VERTEX
  8
estabelecimento_escolar_publico
 10
-9.336524
 20
38.698919
  0
VERTEX
  8
estabelecimento_escolar_publico
 10
-9.336506
 20
38.698916
  0
VERTEX
  8
estabelecimento_escolar_publico
 10
-9.336462
 20
38.698908
  0
VERTEX
  8
estabelecimento_escolar_publico
 10
-9.336419
 20
38.698920
  0
VERTEX
  8
estabelecimento_escolar_publico
 10
-9.335898
 20
38.698841
  0
VERTEX
  8
estabelecimento_escolar_publico
 10
-9.336005
 20
38.698405
  0
VERTEX
  8
estabelecimento_escolar_publico
 10
-9.336040
 20
38.698263
  0
VERTEX
  8
estabelecimento_escolar_publico
 10
-9.336045
 20
38.698244
  0
VERTEX
  8
estabelecimento_escolar_publico
 10
-9.336213
 20
38.697559
  0
VERTEX
  8
estabelecimento_escolar_publico
 10
-9.336700
 20
38.697680
  0
VERTEX
  8
estabelecimento_escolar_publico
 10
-9.337161
 20
38.697794
  0
VERTEX
  8
estabelecimento_escolar_publico
 10
-9.337527
 20
38.697884
  0
VERTEX
  8
estabelecimento_escolar_publico
 10
-9.337745
 20
38.697940
  0
VERTEX
  8
estabelecimento_escolar_publico
 10
-9.337925
 20
38.697985
  0
VERTEX
  8
estabelecimento_escolar_publico
 10
-9.338176
 20
38.698047
  0
VERTEX
  8
estabelecimento_escolar_publico
 10
-9.338086
 20
38.698242
  0
SEQEND
  0
POLYLINE
  8
estabelecimento_escolar_publico
  6
BYLAYER
 66
1
 70
1
 40
0.000000
 41
0.000000
  0
VERTEX
  8
estabelecimento_escolar_publico
 10
-9.429936
 20
38.701762
  0
VERTEX
  8
estabelecimento_escolar_publico
 10
-9.430041
 20
38.701900
  0
VERTEX
  8
estabelecimento_escolar_publico
 10
-9.430089
 20
38.702033
  0
VERTEX
  8
estabelecimento_escolar_publico
 10
-9.430161
 20
38.702136
  0
VERTEX
  8
estabelecimento_escolar_publico
 10
-9.429779
 20
38.702283
  0
VERTEX
  8
estabelecimento_escolar_publico
 10
-9.428742
 20
38.702681
  0
VERTEX
  8
estabelecimento_escolar_publico
 10
-9.428632
 20
38.702520
  0
VERTEX
  8
estabelecimento_escolar_publico
 10
-9.428523
 20
38.702359
  0
VERTEX
  8
estabelecimento_escolar_publico
 10
-9.428304
 20
38.702038
  0
VERTEX
  8
estabelecimento_escolar_publico
 10
-9.428239
 20
38.702063
  0
VERTEX
  8
estabelecimento_escolar_publico
 10
-9.428171
 20
38.702090
  0
VERTEX
  8
estabelecimento_escolar_publico
 10
-9.427618
 20
38.702302
  0
VERTEX
  8
estabelecimento_escolar_publico
 10
-9.427598
 20
38.702284
  0
VERTEX
  8
estabelecimento_escolar_publico
 10
-9.427578
 20
38.702266
  0
VERTEX
  8
estabelecimento_escolar_publico
 10
-9.427477
 20
38.702177
  0
VERTEX
  8
estabelecimento_escolar_publico
 10
-9.427472
 20
38.702172
  0
VERTEX
  8
estabelecimento_escolar_publico
 10
-9.427466
 20
38.702165
  0
VERTEX
  8
estabelecimento_escolar_publico
 10
-9.427461
 20
38.702158
  0
VERTEX
  8
estabelecimento_escolar_publico
 10
-9.427457
 20
38.702152
  0
VERTEX
  8
estabelecimento_escolar_publico
 10
-9.427450
 20
38.702138
  0
VERTEX
  8
estabelecimento_escolar_publico
 10
-9.427449
 20
38.702132
  0
VERTEX
  8
estabelecimento_escolar_publico
 10
-9.427449
 20
38.702126
  0
VERTEX
  8
estabelecimento_escolar_publico
 10
-9.427448
 20
38.702119
  0
VERTEX
  8
estabelecimento_escolar_publico
 10
-9.427449
 20
38.702112
  0
VERTEX
  8
estabelecimento_escolar_publico
 10
-9.427450
 20
38.702105
  0
VERTEX
  8
estabelecimento_escolar_publico
 10
-9.427452
 20
38.702098
  0
VERTEX
  8
estabelecimento_escolar_publico
 10
-9.427454
 20
38.702091
  0
VERTEX
  8
estabelecimento_escolar_publico
 10
-9.427456
 20
38.702085
  0
VERTEX
  8
estabelecimento_escolar_publico
 10
-9.427460
 20
38.702078
  0
VERTEX
  8
estabelecimento_escolar_publico
 10
-9.427464
 20
38.702072
  0
VERTEX
  8
estabelecimento_escolar_publico
 10
-9.427468
 20
38.702067
  0
VERTEX
  8
estabelecimento_escolar_publico
 10
-9.427473
 20
38.702061
  0
VERTEX
  8
estabelecimento_escolar_publico
 10
-9.427479
 20
38.702055
  0
VERTEX
  8
estabelecimento_escolar_publico
 10
-9.427485
 20
38.702050
  0
VERTEX
  8
estabelecimento_escolar_publico
 10
-9.427490
 20
38.702046
  0
VERTEX
  8
estabelecimento_escolar_publico
 10
-9.427499
 20
38.702040
  0
VERTEX
  8
estabelecimento_escolar_publico
 10
-9.427502
 20
38.702038
  0
VERTEX
  8
estabelecimento_escolar_publico
 10
-9.427921
 20
38.701817
  0
VERTEX
  8
estabelecimento_escolar_publico
 10
-9.428008
 20
38.701784
  0
VERTEX
  8
estabelecimento_escolar_publico
 10
-9.428949
 20
38.701424
  0
VERTEX
  8
estabelecimento_escolar_publico
 10
-9.429027
 20
38.701395
  0
VERTEX
  8
estabelecimento_escolar_publico
 10
-9.429064
 20
38.701319
  0
VERTEX
  8
estabelecimento_escolar_publico
 10
-9.429087
 20
38.701281
  0
VERTEX
  8
estabelecimento_escolar_publico
 10
-9.429132
 20
38.701298
  0
VERTEX
  8
estabelecimento_escolar_publico
 10
-9.429660
 20
38.701476
  0
VERTEX
  8
estabelecimento_escolar_publico
 10
-9.429743
 20
38.701523
  0
VERTEX
  8
estabelecimento_escolar_publico
 10
-9.429745
 20
38.701525
  0
VERTEX
  8
estabelecimento_escolar_publico
 10
-9.429752
 20
38.701530
  0
VERTEX
  8
estabelecimento_escolar_publico
 10
-9.429762
 20
38.701538
  0
VERTEX
  8
estabelecimento_escolar_publico
 10
-9.429766
 20
38.701541
  0
VERTEX
  8
estabelecimento_escolar_publico
 10
-9.429777
 20
38.701553
  0
VERTEX
  8
estabelecimento_escolar_publico
 10
-9.429936
 20
38.701762
  0
SEQEND
  0
POLYLINE
  8
estabelecimento_escolar_publico
  6
BYLAYER
 66
1
 70
1
 40
0.000000
 41
0.000000
  0
VERTEX
  8
estabelecimento_escolar_publico
 10
-9.404741
 20
38.731245
  0
VERTEX
  8
estabelecimento_escolar_publico
 10
-9.404690
 20
38.731340
  0
VERTEX
  8
estabelecimento_escolar_publico
 10
-9.404607
 20
38.731495
  0
VERTEX
  8
estabelecimento_escolar_publico
 10
-9.404585
 20
38.731544
  0
VERTEX
  8
estabelecimento_escolar_publico
 10
-9.404497
 20
38.731710
  0
VERTEX
  8
estabelecimento_escolar_publico
 10
-9.404454
 20
38.731792
  0
VERTEX
  8
estabelecimento_escolar_publico
 10
-9.404410
 20
38.731874
  0
VERTEX
  8
estabelecimento_escolar_publico
 10
-9.404311
 20
38.732061
  0
VERTEX
  8
estabelecimento_escolar_publico
 10
-9.404248
 20
38.732179
  0
VERTEX
  8
estabelecimento_escolar_publico
 10
-9.404185
 20
38.732300
  0
VERTEX
  8
estabelecimento_escolar_publico
 10
-9.404146
 20
38.732372
  0
VERTEX
  8
estabelecimento_escolar_publico
 10
-9.404134
 20
38.732396
  0
VERTEX
  8
estabelecimento_escolar_publico
 10
-9.404097
 20
38.732468
  0
VERTEX
  8
estabelecimento_escolar_publico
 10
-9.404057
 20
38.732540
  0
VERTEX
  8
estabelecimento_escolar_publico
 10
-9.404049
 20
38.732554
  0
VERTEX
  8
estabelecimento_escolar_publico
 10
-9.404006
 20
38.732636
  0
VERTEX
  8
estabelecimento_escolar_publico
 10
-9.403968
 20
38.732706
  0
VERTEX
  8
estabelecimento_escolar_publico
 10
-9.403805
 20
38.732643
  0
VERTEX
  8
estabelecimento_escolar_publico
 10
-9.403653
 20
38.732584
  0
VERTEX
  8
estabelecimento_escolar_publico
 10
-9.403504
 20
38.732526
  0
VERTEX
  8
estabelecimento_escolar_publico
 10
-9.403364
 20
38.732472
  0
VERTEX
  8
estabelecimento_escolar_publico
 10
-9.403195
 20
38.732405
  0
VERTEX
  8
estabelecimento_escolar_publico
 10
-9.403004
 20
38.732331
  0
VERTEX
  8
estabelecimento_escolar_publico
 10
-9.402812
 20
38.732255
  0
VERTEX
  8
estabelecimento_escolar_publico
 10
-9.402721
 20
38.732220
  0
VERTEX
  8
estabelecimento_escolar_publico
 10
-9.402648
 20
38.732191
  0
VERTEX
  8
estabelecimento_escolar_publico
 10
-9.402542
 20
38.732152
  0
VERTEX
  8
estabelecimento_escolar_publico
 10
-9.402718
 20
38.732038
  0
VERTEX
  8
estabelecimento_escolar_publico
 10
-9.403411
 20
38.731588
  0
VERTEX
  8
estabelecimento_escolar_publico
 10
-9.403460
 20
38.731555
  0
VERTEX
  8
estabelecimento_escolar_publico
 10
-9.403198
 20
38.731461
  0
VERTEX
  8
estabelecimento_escolar_publico
 10
-9.403130
 20
38.731434
  0
VERTEX
  8
estabelecimento_escolar_publico
 10
-9.403075
 20
38.731417
  0
VERTEX
  8
estabelecimento_escolar_publico
 10
-9.403164
 20
38.731374
  0
VERTEX
  8
estabelecimento_escolar_publico
 10
-9.403254
 20
38.731407
  0
VERTEX
  8
estabelecimento_escolar_publico
 10
-9.403281
 20
38.731421
  0
VERTEX
  8
estabelecimento_escolar_publico
 10
-9.403397
 20
38.731340
  0
VERTEX
  8
estabelecimento_escolar_publico
 10
-9.403524
 20
38.731256
  0
VERTEX
  8
estabelecimento_escolar_publico
 10
-9.403483
 20
38.731218
  0
VERTEX
  8
estabelecimento_escolar_publico
 10
-9.403616
 20
38.731127
  0
VERTEX
  8
estabelecimento_escolar_publico
 10
-9.403630
 20
38.731117
  0
VERTEX
  8
estabelecimento_escolar_publico
 10
-9.403649
 20
38.731104
  0
VERTEX
  8
estabelecimento_escolar_publico
 10
-9.403657
 20
38.731099
  0
VERTEX
  8
estabelecimento_escolar_publico
 10
-9.403666
 20
38.731092
  0
VERTEX
  8
estabelecimento_escolar_publico
 10
-9.403707
 20
38.731064
  0
VERTEX
  8
estabelecimento_escolar_publico
 10
-9.403935
 20
38.730911
  0
VERTEX
  8
estabelecimento_escolar_publico
 10
-9.403985
 20
38.730883
  0
VERTEX
  8
estabelecimento_escolar_publico
 10
-9.404012
 20
38.730871
  0
VERTEX
  8
estabelecimento_escolar_publico
 10
-9.404039
 20
38.730861
  0
VERTEX
  8
estabelecimento_escolar_publico
 10
-9.404045
 20
38.730859
  0
VERTEX
  8
estabelecimento_escolar_publico
 10
-9.404051
 20
38.730857
  0
VERTEX
  8
estabelecimento_escolar_publico
 10
-9.404057
 20
38.730855
  0
VERTEX
  8
estabelecimento_escolar_publico
 10
-9.404063
 20
38.730854
  0
VERTEX
  8
estabelecimento_escolar_publico
 10
-9.404069
 20
38.730854
  0
VERTEX
  8
estabelecimento_escolar_publico
 10
-9.404076
 20
38.730854
  0
VERTEX
  8
estabelecimento_escolar_publico
 10
-9.404082
 20
38.730854
  0
VERTEX
  8
estabelecimento_escolar_publico
 10
-9.404085
 20
38.730854
  0
VERTEX
  8
estabelecimento_escolar_publico
 10
-9.404148
 20
38.730856
  0
VERTEX
  8
estabelecimento_escolar_publico
 10
-9.404149
 20
38.730848
  0
VERTEX
  8
estabelecimento_escolar_publico
 10
-9.404152
 20
38.730824
  0
VERTEX
  8
estabelecimento_escolar_publico
 10
-9.404154
 20
38.730811
  0
VERTEX
  8
estabelecimento_escolar_publico
 10
-9.404299
 20
38.730816
  0
VERTEX
  8
estabelecimento_escolar_publico
 10
-9.404330
 20
38.730819
  0
VERTEX
  8
estabelecimento_escolar_publico
 10
-9.404361
 20
38.730824
  0
VERTEX
  8
estabelecimento_escolar_publico
 10
-9.404391
 20
38.730830
  0
VERTEX
  8
estabelecimento_escolar_publico
 10
-9.404395
 20
38.730832
  0
VERTEX
  8
estabelecimento_escolar_publico
 10
-9.404449
 20
38.730847
  0
VERTEX
  8
estabelecimento_escolar_publico
 10
-9.404504
 20
38.730864
  0
VERTEX
  8
estabelecimento_escolar_publico
 10
-9.404528
 20
38.730873
  0
VERTEX
  8
estabelecimento_escolar_publico
 10
-9.404550
 20
38.730883
  0
VERTEX
  8
estabelecimento_escolar_publico
 10
-9.404571
 20
38.730896
  0
VERTEX
  8
estabelecimento_escolar_publico
 10
-9.404588
 20
38.730907
  0
VERTEX
  8
estabelecimento_escolar_publico
 10
-9.404623
 20
38.730935
  0
VERTEX
  8
estabelecimento_escolar_publico
 10
-9.404656
 20
38.730966
  0
VERTEX
  8
estabelecimento_escolar_publico
 10
-9.404673
 20
38.730985
  0
VERTEX
  8
estabelecimento_escolar_publico
 10
-9.404708
 20
38.731028
  0
VERTEX
  8
estabelecimento_escolar_publico
 10
-9.404753
 20
38.731086
  0
VERTEX
  8
estabelecimento_escolar_publico
 10
-9.404773
 20
38.731115
  0
VERTEX
  8
estabelecimento_escolar_publico
 10
-9.404776
 20
38.731123
  0
VERTEX
  8
estabelecimento_escolar_publico
 10
-9.404779
 20
38.731130
  0
VERTEX
  8
estabelecimento_escolar_publico
 10
-9.404781
 20
38.731138
  0
VERTEX
  8
estabelecimento_escolar_publico
 10
-9.404782
 20
38.731146
  0
VERTEX
  8
estabelecimento_escolar_publico
 10
-9.404782
 20
38.731154
  0
VERTEX
  8
estabelecimento_escolar_publico
 10
-9.404782
 20
38.731162
  0
VERTEX
  8
estabelecimento_escolar_publico
 10
-9.404780
 20
38.731170
  0
VERTEX
  8
estabelecimento_escolar_publico
 10
-9.404778
 20
38.731178
  0
VERTEX
  8
estabelecimento_escolar_publico
 10
-9.404774
 20
38.731185
  0
VERTEX
  8
estabelecimento_escolar_publico
 10
-9.404773
 20
38.731187
  0
VERTEX
  8
estabelecimento_escolar_publico
 10
-9.404741
 20
38.731245
  0
SEQEND
  0
POLYLINE
  8
estabelecimento_escolar_publico
  6
BYLAYER
 66
1
 70
1
 40
0.000000
 41
0.000000
  0
VERTEX
  8
estabelecimento_escolar_publico
 10
-9.416608
 20
38.712012
  0
VERTEX
  8
estabelecimento_escolar_publico
 10
-9.416097
 20
38.711998
  0
VERTEX
  8
estabelecimento_escolar_publico
 10
-9.416198
 20
38.711366
  0
VERTEX
  8
estabelecimento_escolar_publico
 10
-9.416200
 20
38.711361
  0
VERTEX
  8
estabelecimento_escolar_publico
 10
-9.416202
 20
38.711357
  0
VERTEX
  8
estabelecimento_escolar_publico
 10
-9.416203
 20
38.711354
  0
VERTEX
  8
estabelecimento_escolar_publico
 10
-9.416205
 20
38.711351
  0
VERTEX
  8
estabelecimento_escolar_publico
 10
-9.416207
 20
38.711349
  0
VERTEX
  8
estabelecimento_escolar_publico
 10
-9.416210
 20
38.711346
  0
VERTEX
  8
estabelecimento_escolar_publico
 10
-9.416213
 20
38.711344
  0
VERTEX
  8
estabelecimento_escolar_publico
 10
-9.416216
 20
38.711341
  0
VERTEX
  8
estabelecimento_escolar_publico
 10
-9.416220
 20
38.711340
  0
VERTEX
  8
estabelecimento_escolar_publico
 10
-9.416224
 20
38.711338
  0
VERTEX
  8
estabelecimento_escolar_publico
 10
-9.416228
 20
38.711337
  0
VERTEX
  8
estabelecimento_escolar_publico
 10
-9.416232
 20
38.711336
  0
VERTEX
  8
estabelecimento_escolar_publico
 10
-9.416238
 20
38.711335
  0
VERTEX
  8
estabelecimento_escolar_publico
 10
-9.416243
 20
38.711334
  0
VERTEX
  8
estabelecimento_escolar_publico
 10
-9.416248
 20
38.711335
  0
VERTEX
  8
estabelecimento_escolar_publico
 10
-9.416677
 20
38.711417
  0
VERTEX
  8
estabelecimento_escolar_publico
 10
-9.416683
 20
38.711419
  0
VERTEX
  8
estabelecimento_escolar_publico
 10
-9.416688
 20
38.711422
  0
VERTEX
  8
estabelecimento_escolar_publico
 10
-9.416693
 20
38.711426
  0
VERTEX
  8
estabelecimento_escolar_publico
 10
-9.416696
 20
38.711429
  0
VERTEX
  8
estabelecimento_escolar_publico
 10
-9.416700
 20
38.711433
  0
VERTEX
  8
estabelecimento_escolar_publico
 10
-9.416702
 20
38.711437
  0
VERTEX
  8
estabelecimento_escolar_publico
 10
-9.416703
 20
38.711440
  0
VERTEX
  8
estabelecimento_escolar_publico
 10
-9.416704
 20
38.711443
  0
VERTEX
  8
estabelecimento_escolar_publico
 10
-9.416704
 20
38.711448
  0
VERTEX
  8
estabelecimento_escolar_publico
 10
-9.416704
 20
38.711453
  0
VERTEX
  8
estabelecimento_escolar_publico
 10
-9.416703
 20
38.711457
  0
VERTEX
  8
estabelecimento_escolar_publico
 10
-9.416608
 20
38.712012
  0
SEQEND
  0
POLYLINE
  8
estabelecimento_escolar_publico
  6
BYLAYER
 66
1
 70
1
 40
0.000000
 41
0.000000
  0
VERTEX
  8
estabelecimento_escolar_publico
 10
-9.368636
 20
38.703249
  0
VERTEX
  8
estabelecimento_escolar_publico
 10
-9.368279
 20
38.703266
  0
VERTEX
  8
estabelecimento_escolar_publico
 10
-9.368281
 20
38.703248
  0
VERTEX
  8
estabelecimento_escolar_publico
 10
-9.368028
 20
38.703345
  0
VERTEX
  8
estabelecimento_escolar_publico
 10
-9.368002
 20
38.703281
  0
VERTEX
  8
estabelecimento_escolar_publico
 10
-9.367782
 20
38.703291
  0
VERTEX
  8
estabelecimento_escolar_publico
 10
-9.367681
 20
38.703121
  0
VERTEX
  8
estabelecimento_escolar_publico
 10
-9.367896
 20
38.703043
  0
VERTEX
  8
estabelecimento_escolar_publico
 10
-9.367834
 20
38.702934
  0
VERTEX
  8
estabelecimento_escolar_publico
 10
-9.368109
 20
38.702840
  0
VERTEX
  8
estabelecimento_escolar_publico
 10
-9.368173
 20
38.702938
  0
VERTEX
  8
estabelecimento_escolar_publico
 10
-9.368320
 20
38.702882
  0
VERTEX
  8
estabelecimento_escolar_publico
 10
-9.368331
 20
38.702893
  0
VERTEX
  8
estabelecimento_escolar_publico
 10
-9.368355
 20
38.702886
  0
VERTEX
  8
estabelecimento_escolar_publico
 10
-9.368453
 20
38.702875
  0
VERTEX
  8
estabelecimento_escolar_publico
 10
-9.368604
 20
38.703129
  0
VERTEX
  8
estabelecimento_escolar_publico
 10
-9.368636
 20
38.703161
  0
VERTEX
  8
estabelecimento_escolar_publico
 10
-9.368636
 20
38.703248
  0
VERTEX
  8
estabelecimento_escolar_publico
 10
-9.368636
 20
38.703249
  0
SEQEND
  0
POLYLINE
  8
estabelecimento_escolar_publico
  6
BYLAYER
 66
1
 70
1
 40
0.000000
 41
0.000000
  0
VERTEX
  8
estabelecimento_escolar_publico
 10
-9.324809
 20
38.677153
  0
VERTEX
  8
estabelecimento_escolar_publico
 10
-9.326434
 20
38.677144
  0
VERTEX
  8
estabelecimento_escolar_publico
 10
-9.327083
 20
38.677181
  0
VERTEX
  8
estabelecimento_escolar_publico
 10
-9.327126
 20
38.677382
  0
VERTEX
  8
estabelecimento_escolar_publico
 10
-9.327212
 20
38.677751
  0
VERTEX
  8
estabelecimento_escolar_publico
 10
-9.327373
 20
38.678446
  0
VERTEX
  8
estabelecimento_escolar_publico
 10
-9.327469
 20
38.678877
  0
VERTEX
  8
estabelecimento_escolar_publico
 10
-9.327652
 20
38.679761
  0
VERTEX
  8
estabelecimento_escolar_publico
 10
-9.326557
 20
38.679753
  0
VERTEX
  8
estabelecimento_escolar_publico
 10
-9.326552
 20
38.679799
  0
VERTEX
  8
estabelecimento_escolar_publico
 10
-9.325334
 20
38.679740
  0
VERTEX
  8
estabelecimento_escolar_publico
 10
-9.325281
 20
38.680000
  0
VERTEX
  8
estabelecimento_escolar_publico
 10
-9.323827
 20
38.679719
  0
VERTEX
  8
estabelecimento_escolar_publico
 10
-9.324069
 20
38.679029
  0
VERTEX
  8
estabelecimento_escolar_publico
 10
-9.324396
 20
38.678267
  0
VERTEX
  8
estabelecimento_escolar_publico
 10
-9.324809
 20
38.677153
  0
SEQEND
  0
ENDSEC
  0
EOF
