  0
SECTION
  2
HEADER
  9
$LTSCALE
 40
1.000000
  9
$LUNITS
 70
2
  9
$LUPREC
 70
4
  9
$AUNITS
 70
1
  9
$AUPREC
 70
4
  9
$FILLMODE
 70
1
  0
ENDSEC
  0
SECTION
  2
TABLES
  0
TABLE
  2
VPORT
 70
0
  0
ENDTAB
  0
TABLE
  2
LTYPE
 70
1
  0
LTYPE
  2
CONTINUOUS
 70
64
  3
Solid line
 72
65
 73
0
 40
0.000000
  0
ENDTAB
  0
TABLE
  2
LAYER
 70
1
  0
LAYER
  2
0
 62
1
  6
CONTINUOUS
 70
64
  0
ENDTAB
  0
TABLE
  2
STYLE
 70
1
  0
STYLE
  2
STANDARD
 70
64
 40
0.000000
 41
1.000000
 50
0.000000
 71
0
 42
2.000000
  3
txt
  4

  0
ENDTAB
  0
TABLE
  2
VIEW
 70
0
  0
ENDTAB
  0
TABLE
  2
UCS
 70
0
  0
ENDTAB
  0
TABLE
  2
APPID
 70
0
  0
ENDTAB
  0
TABLE
  2
DIMSTYLE
 70
1
  0
DIMSTYLE
  2
STANDARD
 70
0
  3

  4

  5

  6

  7

 40
1.000000
 41
3.000000
 42
2.500000
 43
10.000000
 44
2.500000
 45
0.000000
 46
1.250000
 47
0.000000
 48
0.000000
140
3.000000
141
-3.000000
142
0.000000
143
0.039000
144
1.000000
145
1.500000
146
0.750000
147
1.500000
 71
0
 72
0
 73
0
 74
0
 75
0
 76
0
 77
0
 78
0
170
0
171
0
172
0
173
0
174
0
175
0
176
0
177
0
178
0
  0
ENDTAB
  0
ENDSEC
  0
SECTION
  2
ENTITIES
  0
POLYLINE
  8
cais_ou_pontao
  6
BYLAYER
 66
1
 70
0
 40
0.000000
 41
0.000000
  0
VERTEX
  8
cais_ou_pontao
 10
-9.418499
 20
38.697279
  0
VERTEX
  8
cais_ou_pontao
 10
-9.418109
 20
38.697077
  0
VERTEX
  8
cais_ou_pontao
 10
-9.417919
 20
38.697109
  0
VERTEX
  8
cais_ou_pontao
 10
-9.417853
 20
38.697075
  0
VERTEX
  8
cais_ou_pontao
 10
-9.418051
 20
38.696843
  0
VERTEX
  8
cais_ou_pontao
 10
-9.418114
 20
38.696874
  0
VERTEX
  8
cais_ou_pontao
 10
-9.418155
 20
38.697023
  0
VERTEX
  8
cais_ou_pontao
 10
-9.418217
 20
38.697056
  0
VERTEX
  8
cais_ou_pontao
 10
-9.418211
 20
38.697063
  0
VERTEX
  8
cais_ou_pontao
 10
-9.418254
 20
38.697086
  0
VERTEX
  8
cais_ou_pontao
 10
-9.418260
 20
38.697078
  0
VERTEX
  8
cais_ou_pontao
 10
-9.418554
 20
38.697233
  0
SEQEND
  0
POLYLINE
  8
cais_ou_pontao
  6
BYLAYER
 66
1
 70
0
 40
0.000000
 41
0.000000
  0
VERTEX
  8
cais_ou_pontao
 10
-9.415058
 20
38.693310
  0
VERTEX
  8
cais_ou_pontao
 10
-9.415136
 20
38.693368
  0
VERTEX
  8
cais_ou_pontao
 10
-9.415061
 20
38.693429
  0
SEQEND
  0
POLYLINE
  8
cais_ou_pontao
  6
BYLAYER
 66
1
 70
0
 40
0.000000
 41
0.000000
  0
VERTEX
  8
cais_ou_pontao
 10
-9.415061
 20
38.693429
  0
VERTEX
  8
cais_ou_pontao
 10
-9.414740
 20
38.693682
  0
VERTEX
  8
cais_ou_pontao
 10
-9.414564
 20
38.693819
  0
SEQEND
  0
POLYLINE
  8
cais_ou_pontao
  6
BYLAYER
 66
1
 70
0
 40
0.000000
 41
0.000000
  0
VERTEX
  8
cais_ou_pontao
 10
-9.414564
 20
38.693819
  0
VERTEX
  8
cais_ou_pontao
 10
-9.414558
 20
38.693825
  0
VERTEX
  8
cais_ou_pontao
 10
-9.414553
 20
38.693832
  0
VERTEX
  8
cais_ou_pontao
 10
-9.414550
 20
38.693840
  0
VERTEX
  8
cais_ou_pontao
 10
-9.414546
 20
38.693847
  0
VERTEX
  8
cais_ou_pontao
 10
-9.414544
 20
38.693855
  0
VERTEX
  8
cais_ou_pontao
 10
-9.414543
 20
38.693863
  0
VERTEX
  8
cais_ou_pontao
 10
-9.414543
 20
38.693871
  0
VERTEX
  8
cais_ou_pontao
 10
-9.414543
 20
38.693879
  0
VERTEX
  8
cais_ou_pontao
 10
-9.414545
 20
38.693887
  0
VERTEX
  8
cais_ou_pontao
 10
-9.414547
 20
38.693894
  0
VERTEX
  8
cais_ou_pontao
 10
-9.414550
 20
38.693902
  0
VERTEX
  8
cais_ou_pontao
 10
-9.414554
 20
38.693909
  0
VERTEX
  8
cais_ou_pontao
 10
-9.414559
 20
38.693916
  0
VERTEX
  8
cais_ou_pontao
 10
-9.414565
 20
38.693923
  0
VERTEX
  8
cais_ou_pontao
 10
-9.414571
 20
38.693929
  0
VERTEX
  8
cais_ou_pontao
 10
-9.414579
 20
38.693935
  0
VERTEX
  8
cais_ou_pontao
 10
-9.414586
 20
38.693940
  0
VERTEX
  8
cais_ou_pontao
 10
-9.414594
 20
38.693944
  0
VERTEX
  8
cais_ou_pontao
 10
-9.414603
 20
38.693948
  0
VERTEX
  8
cais_ou_pontao
 10
-9.414612
 20
38.693952
  0
VERTEX
  8
cais_ou_pontao
 10
-9.414622
 20
38.693954
  0
VERTEX
  8
cais_ou_pontao
 10
-9.414632
 20
38.693957
  0
VERTEX
  8
cais_ou_pontao
 10
-9.414642
 20
38.693958
  0
VERTEX
  8
cais_ou_pontao
 10
-9.414652
 20
38.693959
  0
VERTEX
  8
cais_ou_pontao
 10
-9.414662
 20
38.693958
  0
VERTEX
  8
cais_ou_pontao
 10
-9.414672
 20
38.693958
  0
VERTEX
  8
cais_ou_pontao
 10
-9.414682
 20
38.693956
  0
VERTEX
  8
cais_ou_pontao
 10
-9.414692
 20
38.693954
  0
VERTEX
  8
cais_ou_pontao
 10
-9.414701
 20
38.693951
  0
VERTEX
  8
cais_ou_pontao
 10
-9.414710
 20
38.693948
  0
VERTEX
  8
cais_ou_pontao
 10
-9.414719
 20
38.693944
  0
VERTEX
  8
cais_ou_pontao
 10
-9.414727
 20
38.693939
  0
VERTEX
  8
cais_ou_pontao
 10
-9.414735
 20
38.693934
  0
VERTEX
  8
cais_ou_pontao
 10
-9.414742
 20
38.693928
  0
VERTEX
  8
cais_ou_pontao
 10
-9.414748
 20
38.693922
  0
VERTEX
  8
cais_ou_pontao
 10
-9.414753
 20
38.693915
  0
VERTEX
  8
cais_ou_pontao
 10
-9.414758
 20
38.693908
  0
VERTEX
  8
cais_ou_pontao
 10
-9.414762
 20
38.693901
  0
SEQEND
  0
POLYLINE
  8
cais_ou_pontao
  6
BYLAYER
 66
1
 70
0
 40
0.000000
 41
0.000000
  0
VERTEX
  8
cais_ou_pontao
 10
-9.417740
 20
38.691055
  0
VERTEX
  8
cais_ou_pontao
 10
-9.417570
 20
38.690922
  0
VERTEX
  8
cais_ou_pontao
 10
-9.417248
 20
38.691179
  0
VERTEX
  8
cais_ou_pontao
 10
-9.417476
 20
38.691353
  0
SEQEND
  0
POLYLINE
  8
cais_ou_pontao
  6
BYLAYER
 66
1
 70
0
 40
0.000000
 41
0.000000
  0
VERTEX
  8
cais_ou_pontao
 10
-9.418747
 20
38.695176
  0
VERTEX
  8
cais_ou_pontao
 10
-9.418735
 20
38.695182
  0
VERTEX
  8
cais_ou_pontao
 10
-9.418819
 20
38.695325
  0
VERTEX
  8
cais_ou_pontao
 10
-9.419017
 20
38.695460
  0
VERTEX
  8
cais_ou_pontao
 10
-9.419245
 20
38.695617
  0
VERTEX
  8
cais_ou_pontao
 10
-9.419331
 20
38.695678
  0
VERTEX
  8
cais_ou_pontao
 10
-9.419483
 20
38.695835
  0
VERTEX
  8
cais_ou_pontao
 10
-9.419720
 20
38.696079
  0
VERTEX
  8
cais_ou_pontao
 10
-9.419969
 20
38.696342
  0
VERTEX
  8
cais_ou_pontao
 10
-9.420088
 20
38.696461
  0
SEQEND
  0
POLYLINE
  8
cais_ou_pontao
  6
BYLAYER
 66
1
 70
0
 40
0.000000
 41
0.000000
  0
VERTEX
  8
cais_ou_pontao
 10
-9.418517
 20
38.694759
  0
VERTEX
  8
cais_ou_pontao
 10
-9.418568
 20
38.694867
  0
VERTEX
  8
cais_ou_pontao
 10
-9.418653
 20
38.695046
  0
VERTEX
  8
cais_ou_pontao
 10
-9.418698
 20
38.695124
  0
VERTEX
  8
cais_ou_pontao
 10
-9.418710
 20
38.695120
  0
VERTEX
  8
cais_ou_pontao
 10
-9.418747
 20
38.695176
  0
SEQEND
  0
POLYLINE
  8
cais_ou_pontao
  6
BYLAYER
 66
1
 70
0
 40
0.000000
 41
0.000000
  0
VERTEX
  8
cais_ou_pontao
 10
-9.418272
 20
38.694112
  0
VERTEX
  8
cais_ou_pontao
 10
-9.418730
 20
38.694850
  0
SEQEND
  0
POLYLINE
  8
cais_ou_pontao
  6
BYLAYER
 66
1
 70
0
 40
0.000000
 41
0.000000
  0
VERTEX
  8
cais_ou_pontao
 10
-9.416488
 20
38.694320
  0
VERTEX
  8
cais_ou_pontao
 10
-9.416589
 20
38.694400
  0
VERTEX
  8
cais_ou_pontao
 10
-9.416756
 20
38.694270
  0
VERTEX
  8
cais_ou_pontao
 10
-9.416867
 20
38.694356
  0
VERTEX
  8
cais_ou_pontao
 10
-9.416652
 20
38.694529
  0
VERTEX
  8
cais_ou_pontao
 10
-9.416666
 20
38.694539
  0
VERTEX
  8
cais_ou_pontao
 10
-9.416629
 20
38.694566
  0
VERTEX
  8
cais_ou_pontao
 10
-9.416615
 20
38.694556
  0
VERTEX
  8
cais_ou_pontao
 10
-9.416534
 20
38.694622
  0
VERTEX
  8
cais_ou_pontao
 10
-9.416593
 20
38.694665
  0
VERTEX
  8
cais_ou_pontao
 10
-9.416758
 20
38.694607
  0
VERTEX
  8
cais_ou_pontao
 10
-9.416937
 20
38.694469
  0
VERTEX
  8
cais_ou_pontao
 10
-9.416926
 20
38.694450
  0
VERTEX
  8
cais_ou_pontao
 10
-9.417008
 20
38.694421
  0
VERTEX
  8
cais_ou_pontao
 10
-9.417058
 20
38.694506
  0
VERTEX
  8
cais_ou_pontao
 10
-9.417449
 20
38.694366
  0
VERTEX
  8
cais_ou_pontao
 10
-9.417404
 20
38.694283
  0
SEQEND
  0
POLYLINE
  8
cais_ou_pontao
  6
BYLAYER
 66
1
 70
0
 40
0.000000
 41
0.000000
  0
VERTEX
  8
cais_ou_pontao
 10
-9.414762
 20
38.693901
  0
VERTEX
  8
cais_ou_pontao
 10
-9.414772
 20
38.693859
  0
VERTEX
  8
cais_ou_pontao
 10
-9.414779
 20
38.693820
  0
VERTEX
  8
cais_ou_pontao
 10
-9.414783
 20
38.693797
  0
VERTEX
  8
cais_ou_pontao
 10
-9.414788
 20
38.693784
  0
VERTEX
  8
cais_ou_pontao
 10
-9.414796
 20
38.693767
  0
VERTEX
  8
cais_ou_pontao
 10
-9.414811
 20
38.693749
  0
VERTEX
  8
cais_ou_pontao
 10
-9.414823
 20
38.693741
  0
VERTEX
  8
cais_ou_pontao
 10
-9.414841
 20
38.693734
  0
VERTEX
  8
cais_ou_pontao
 10
-9.414856
 20
38.693732
  0
VERTEX
  8
cais_ou_pontao
 10
-9.415257
 20
38.693678
  0
VERTEX
  8
cais_ou_pontao
 10
-9.415750
 20
38.693618
  0
VERTEX
  8
cais_ou_pontao
 10
-9.415749
 20
38.693606
  0
VERTEX
  8
cais_ou_pontao
 10
-9.415799
 20
38.693605
  0
VERTEX
  8
cais_ou_pontao
 10
-9.415847
 20
38.693604
  0
VERTEX
  8
cais_ou_pontao
 10
-9.415873
 20
38.693606
  0
VERTEX
  8
cais_ou_pontao
 10
-9.415896
 20
38.693610
  0
VERTEX
  8
cais_ou_pontao
 10
-9.415913
 20
38.693615
  0
VERTEX
  8
cais_ou_pontao
 10
-9.415928
 20
38.693624
  0
VERTEX
  8
cais_ou_pontao
 10
-9.415948
 20
38.693637
  0
VERTEX
  8
cais_ou_pontao
 10
-9.416012
 20
38.693682
  0
VERTEX
  8
cais_ou_pontao
 10
-9.415838
 20
38.693817
  0
VERTEX
  8
cais_ou_pontao
 10
-9.416120
 20
38.694034
  0
SEQEND
  0
POLYLINE
  8
cais_ou_pontao
  6
BYLAYER
 66
1
 70
1
 40
0.000000
 41
0.000000
  0
VERTEX
  8
cais_ou_pontao
 10
-9.408605
 20
38.701997
  0
VERTEX
  8
cais_ou_pontao
 10
-9.408606
 20
38.702044
  0
VERTEX
  8
cais_ou_pontao
 10
-9.408553
 20
38.702050
  0
VERTEX
  8
cais_ou_pontao
 10
-9.408552
 20
38.702027
  0
VERTEX
  8
cais_ou_pontao
 10
-9.408551
 20
38.701998
  0
VERTEX
  8
cais_ou_pontao
 10
-9.408535
 20
38.701248
  0
VERTEX
  8
cais_ou_pontao
 10
-9.408524
 20
38.701248
  0
VERTEX
  8
cais_ou_pontao
 10
-9.408524
 20
38.701230
  0
VERTEX
  8
cais_ou_pontao
 10
-9.408542
 20
38.701230
  0
VERTEX
  8
cais_ou_pontao
 10
-9.408541
 20
38.701175
  0
VERTEX
  8
cais_ou_pontao
 10
-9.408529
 20
38.701175
  0
VERTEX
  8
cais_ou_pontao
 10
-9.408529
 20
38.701157
  0
VERTEX
  8
cais_ou_pontao
 10
-9.408593
 20
38.701156
  0
VERTEX
  8
cais_ou_pontao
 10
-9.408605
 20
38.701997
  0
SEQEND
  0
POLYLINE
  8
cais_ou_pontao
  6
BYLAYER
 66
1
 70
0
 40
0.000000
 41
0.000000
  0
VERTEX
  8
cais_ou_pontao
 10
-9.398274
 20
38.701410
  0
VERTEX
  8
cais_ou_pontao
 10
-9.398279
 20
38.701410
  0
VERTEX
  8
cais_ou_pontao
 10
-9.398293
 20
38.701413
  0
VERTEX
  8
cais_ou_pontao
 10
-9.398298
 20
38.701416
  0
VERTEX
  8
cais_ou_pontao
 10
-9.398309
 20
38.701423
  0
VERTEX
  8
cais_ou_pontao
 10
-9.398403
 20
38.701503
  0
VERTEX
  8
cais_ou_pontao
 10
-9.398566
 20
38.701659
  0
VERTEX
  8
cais_ou_pontao
 10
-9.398650
 20
38.701607
  0
VERTEX
  8
cais_ou_pontao
 10
-9.398722
 20
38.701566
  0
VERTEX
  8
cais_ou_pontao
 10
-9.398763
 20
38.701543
  0
VERTEX
  8
cais_ou_pontao
 10
-9.398771
 20
38.701560
  0
VERTEX
  8
cais_ou_pontao
 10
-9.398806
 20
38.701539
  0
VERTEX
  8
cais_ou_pontao
 10
-9.398810
 20
38.701537
  0
VERTEX
  8
cais_ou_pontao
 10
-9.398798
 20
38.701522
  0
VERTEX
  8
cais_ou_pontao
 10
-9.398943
 20
38.701436
  0
VERTEX
  8
cais_ou_pontao
 10
-9.398852
 20
38.701244
  0
VERTEX
  8
cais_ou_pontao
 10
-9.398778
 20
38.701087
  0
VERTEX
  8
cais_ou_pontao
 10
-9.398814
 20
38.701075
  0
VERTEX
  8
cais_ou_pontao
 10
-9.398834
 20
38.701069
  0
VERTEX
  8
cais_ou_pontao
 10
-9.399037
 20
38.701500
  0
VERTEX
  8
cais_ou_pontao
 10
-9.399103
 20
38.701473
  0
VERTEX
  8
cais_ou_pontao
 10
-9.399110
 20
38.701471
  0
VERTEX
  8
cais_ou_pontao
 10
-9.399118
 20
38.701469
  0
VERTEX
  8
cais_ou_pontao
 10
-9.399126
 20
38.701470
  0
VERTEX
  8
cais_ou_pontao
 10
-9.399134
 20
38.701471
  0
VERTEX
  8
cais_ou_pontao
 10
-9.399141
 20
38.701474
  0
VERTEX
  8
cais_ou_pontao
 10
-9.399147
 20
38.701478
  0
VERTEX
  8
cais_ou_pontao
 10
-9.399152
 20
38.701483
  0
VERTEX
  8
cais_ou_pontao
 10
-9.399155
 20
38.701489
  0
VERTEX
  8
cais_ou_pontao
 10
-9.399157
 20
38.701495
  0
VERTEX
  8
cais_ou_pontao
 10
-9.399157
 20
38.701501
  0
VERTEX
  8
cais_ou_pontao
 10
-9.399155
 20
38.701507
  0
VERTEX
  8
cais_ou_pontao
 10
-9.399151
 20
38.701513
  0
VERTEX
  8
cais_ou_pontao
 10
-9.399146
 20
38.701518
  0
VERTEX
  8
cais_ou_pontao
 10
-9.399140
 20
38.701522
  0
VERTEX
  8
cais_ou_pontao
 10
-9.399040
 20
38.701561
  0
VERTEX
  8
cais_ou_pontao
 10
-9.398920
 20
38.701630
  0
VERTEX
  8
cais_ou_pontao
 10
-9.398798
 20
38.701700
  0
VERTEX
  8
cais_ou_pontao
 10
-9.398712
 20
38.701752
  0
VERTEX
  8
cais_ou_pontao
 10
-9.398612
 20
38.701818
  0
VERTEX
  8
cais_ou_pontao
 10
-9.398529
 20
38.701878
  0
VERTEX
  8
cais_ou_pontao
 10
-9.398465
 20
38.701928
  0
VERTEX
  8
cais_ou_pontao
 10
-9.398422
 20
38.701963
  0
VERTEX
  8
cais_ou_pontao
 10
-9.398401
 20
38.701981
  0
VERTEX
  8
cais_ou_pontao
 10
-9.398390
 20
38.701991
  0
SEQEND
  0
POLYLINE
  8
cais_ou_pontao
  6
BYLAYER
 66
1
 70
0
 40
0.000000
 41
0.000000
  0
VERTEX
  8
cais_ou_pontao
 10
-9.398264
 20
38.701410
  0
VERTEX
  8
cais_ou_pontao
 10
-9.398254
 20
38.701413
  0
VERTEX
  8
cais_ou_pontao
 10
-9.398250
 20
38.701415
  0
VERTEX
  8
cais_ou_pontao
 10
-9.398246
 20
38.701417
  0
VERTEX
  8
cais_ou_pontao
 10
-9.398243
 20
38.701420
  0
VERTEX
  8
cais_ou_pontao
 10
-9.398237
 20
38.701428
  0
VERTEX
  8
cais_ou_pontao
 10
-9.398236
 20
38.701438
  0
VERTEX
  8
cais_ou_pontao
 10
-9.398240
 20
38.701447
  0
VERTEX
  8
cais_ou_pontao
 10
-9.398261
 20
38.701469
  0
VERTEX
  8
cais_ou_pontao
 10
-9.398314
 20
38.701517
  0
VERTEX
  8
cais_ou_pontao
 10
-9.398382
 20
38.701582
  0
VERTEX
  8
cais_ou_pontao
 10
-9.398461
 20
38.701659
  0
VERTEX
  8
cais_ou_pontao
 10
-9.398493
 20
38.701687
  0
VERTEX
  8
cais_ou_pontao
 10
-9.398498
 20
38.701694
  0
VERTEX
  8
cais_ou_pontao
 10
-9.398502
 20
38.701701
  0
VERTEX
  8
cais_ou_pontao
 10
-9.398505
 20
38.701709
  0
VERTEX
  8
cais_ou_pontao
 10
-9.398506
 20
38.701717
  0
VERTEX
  8
cais_ou_pontao
 10
-9.398506
 20
38.701725
  0
VERTEX
  8
cais_ou_pontao
 10
-9.398505
 20
38.701734
  0
VERTEX
  8
cais_ou_pontao
 10
-9.398502
 20
38.701741
  0
VERTEX
  8
cais_ou_pontao
 10
-9.398498
 20
38.701749
  0
VERTEX
  8
cais_ou_pontao
 10
-9.398493
 20
38.701756
  0
VERTEX
  8
cais_ou_pontao
 10
-9.398486
 20
38.701762
  0
VERTEX
  8
cais_ou_pontao
 10
-9.398437
 20
38.701800
  0
VERTEX
  8
cais_ou_pontao
 10
-9.398372
 20
38.701854
  0
VERTEX
  8
cais_ou_pontao
 10
-9.398341
 20
38.701880
  0
SEQEND
  0
POLYLINE
  8
cais_ou_pontao
  6
BYLAYER
 66
1
 70
0
 40
0.000000
 41
0.000000
  0
VERTEX
  8
cais_ou_pontao
 10
-9.342100
 20
38.681827
  0
VERTEX
  8
cais_ou_pontao
 10
-9.342292
 20
38.681817
  0
VERTEX
  8
cais_ou_pontao
 10
-9.342521
 20
38.681791
  0
VERTEX
  8
cais_ou_pontao
 10
-9.342665
 20
38.681758
  0
VERTEX
  8
cais_ou_pontao
 10
-9.342763
 20
38.681344
  0
VERTEX
  8
cais_ou_pontao
 10
-9.342826
 20
38.681354
  0
VERTEX
  8
cais_ou_pontao
 10
-9.342763
 20
38.681630
  0
SEQEND
  0
ENDSEC
  0
EOF
