  0
SECTION
  2
HEADER
  9
$LTSCALE
 40
1.000000
  9
$LUNITS
 70
2
  9
$LUPREC
 70
4
  9
$AUNITS
 70
1
  9
$AUPREC
 70
4
  9
$FILLMODE
 70
1
  0
ENDSEC
  0
SECTION
  2
TABLES
  0
TABLE
  2
VPORT
 70
0
  0
ENDTAB
  0
TABLE
  2
LTYPE
 70
1
  0
LTYPE
  2
CONTINUOUS
 70
64
  3
Solid line
 72
65
 73
0
 40
0.000000
  0
ENDTAB
  0
TABLE
  2
LAYER
 70
1
  0
LAYER
  2
0
 62
1
  6
CONTINUOUS
 70
64
  0
ENDTAB
  0
TABLE
  2
STYLE
 70
1
  0
STYLE
  2
STANDARD
 70
64
 40
0.000000
 41
1.000000
 50
0.000000
 71
0
 42
2.000000
  3
txt
  4

  0
ENDTAB
  0
TABLE
  2
VIEW
 70
0
  0
ENDTAB
  0
TABLE
  2
UCS
 70
0
  0
ENDTAB
  0
TABLE
  2
APPID
 70
0
  0
ENDTAB
  0
TABLE
  2
DIMSTYLE
 70
1
  0
DIMSTYLE
  2
STANDARD
 70
0
  3

  4

  5

  6

  7

 40
1.000000
 41
3.000000
 42
2.500000
 43
10.000000
 44
2.500000
 45
0.000000
 46
1.250000
 47
0.000000
 48
0.000000
140
3.000000
141
-3.000000
142
0.000000
143
0.039000
144
1.000000
145
1.500000
146
0.750000
147
1.500000
 71
0
 72
0
 73
0
 74
0
 75
0
 76
0
 77
0
 78
0
170
0
171
0
172
0
173
0
174
0
175
0
176
0
177
0
178
0
  0
ENDTAB
  0
ENDSEC
  0
SECTION
  2
ENTITIES
  0
POLYLINE
  8
terras_cascais
  6
BYLAYER
 66
1
 70
1
 40
0.000000
 41
0.000000
  0
VERTEX
  8
terras_cascais
 10
-9.338676
 20
38.695835
  0
VERTEX
  8
terras_cascais
 10
-9.338676
 20
38.695835
  0
VERTEX
  8
terras_cascais
 10
-9.338678
 20
38.695839
  0
VERTEX
  8
terras_cascais
 10
-9.338783
 20
38.696208
  0
VERTEX
  8
terras_cascais
 10
-9.338811
 20
38.696314
  0
VERTEX
  8
terras_cascais
 10
-9.338857
 20
38.696456
  0
VERTEX
  8
terras_cascais
 10
-9.338886
 20
38.696548
  0
VERTEX
  8
terras_cascais
 10
-9.338675
 20
38.696582
  0
VERTEX
  8
terras_cascais
 10
-9.338672
 20
38.696576
  0
VERTEX
  8
terras_cascais
 10
-9.338669
 20
38.696569
  0
VERTEX
  8
terras_cascais
 10
-9.338663
 20
38.696557
  0
VERTEX
  8
terras_cascais
 10
-9.338662
 20
38.696552
  0
VERTEX
  8
terras_cascais
 10
-9.338632
 20
38.696422
  0
VERTEX
  8
terras_cascais
 10
-9.338583
 20
38.696206
  0
VERTEX
  8
terras_cascais
 10
-9.338511
 20
38.695872
  0
VERTEX
  8
terras_cascais
 10
-9.338511
 20
38.695866
  0
VERTEX
  8
terras_cascais
 10
-9.338676
 20
38.695835
  0
SEQEND
  0
POLYLINE
  8
terras_cascais
  6
BYLAYER
 66
1
 70
1
 40
0.000000
 41
0.000000
  0
VERTEX
  8
terras_cascais
 10
-9.327824
 20
38.683625
  0
VERTEX
  8
terras_cascais
 10
-9.327782
 20
38.683660
  0
VERTEX
  8
terras_cascais
 10
-9.327690
 20
38.683737
  0
VERTEX
  8
terras_cascais
 10
-9.327600
 20
38.683593
  0
VERTEX
  8
terras_cascais
 10
-9.327574
 20
38.683556
  0
VERTEX
  8
terras_cascais
 10
-9.327444
 20
38.683459
  0
VERTEX
  8
terras_cascais
 10
-9.327413
 20
38.683434
  0
VERTEX
  8
terras_cascais
 10
-9.327343
 20
38.683377
  0
VERTEX
  8
terras_cascais
 10
-9.327260
 20
38.683298
  0
VERTEX
  8
terras_cascais
 10
-9.327181
 20
38.683222
  0
VERTEX
  8
terras_cascais
 10
-9.327151
 20
38.683195
  0
VERTEX
  8
terras_cascais
 10
-9.327195
 20
38.683165
  0
VERTEX
  8
terras_cascais
 10
-9.327197
 20
38.683110
  0
VERTEX
  8
terras_cascais
 10
-9.327544
 20
38.683096
  0
VERTEX
  8
terras_cascais
 10
-9.327629
 20
38.683337
  0
VERTEX
  8
terras_cascais
 10
-9.327554
 20
38.683377
  0
VERTEX
  8
terras_cascais
 10
-9.327824
 20
38.683625
  0
SEQEND
  0
POLYLINE
  8
terras_cascais
  6
BYLAYER
 66
1
 70
1
 40
0.000000
 41
0.000000
  0
VERTEX
  8
terras_cascais
 10
-9.351087
 20
38.695805
  0
VERTEX
  8
terras_cascais
 10
-9.350665
 20
38.695935
  0
VERTEX
  8
terras_cascais
 10
-9.350866
 20
38.696375
  0
VERTEX
  8
terras_cascais
 10
-9.350812
 20
38.696389
  0
VERTEX
  8
terras_cascais
 10
-9.350576
 20
38.695901
  0
VERTEX
  8
terras_cascais
 10
-9.351062
 20
38.695755
  0
VERTEX
  8
terras_cascais
 10
-9.351087
 20
38.695805
  0
SEQEND
  0
POLYLINE
  8
terras_cascais
  6
BYLAYER
 66
1
 70
1
 40
0.000000
 41
0.000000
  0
VERTEX
  8
terras_cascais
 10
-9.358003
 20
38.698118
  0
VERTEX
  8
terras_cascais
 10
-9.357981
 20
38.698125
  0
VERTEX
  8
terras_cascais
 10
-9.357969
 20
38.698126
  0
VERTEX
  8
terras_cascais
 10
-9.357956
 20
38.698127
  0
VERTEX
  8
terras_cascais
 10
-9.357929
 20
38.698127
  0
VERTEX
  8
terras_cascais
 10
-9.357903
 20
38.698130
  0
VERTEX
  8
terras_cascais
 10
-9.357843
 20
38.698138
  0
VERTEX
  8
terras_cascais
 10
-9.357787
 20
38.698146
  0
VERTEX
  8
terras_cascais
 10
-9.357742
 20
38.698151
  0
VERTEX
  8
terras_cascais
 10
-9.357712
 20
38.698151
  0
VERTEX
  8
terras_cascais
 10
-9.357688
 20
38.698149
  0
VERTEX
  8
terras_cascais
 10
-9.357666
 20
38.698146
  0
VERTEX
  8
terras_cascais
 10
-9.357637
 20
38.698136
  0
VERTEX
  8
terras_cascais
 10
-9.357602
 20
38.698124
  0
VERTEX
  8
terras_cascais
 10
-9.357573
 20
38.698109
  0
VERTEX
  8
terras_cascais
 10
-9.357546
 20
38.698090
  0
VERTEX
  8
terras_cascais
 10
-9.357516
 20
38.698069
  0
VERTEX
  8
terras_cascais
 10
-9.357487
 20
38.698045
  0
VERTEX
  8
terras_cascais
 10
-9.357467
 20
38.698026
  0
VERTEX
  8
terras_cascais
 10
-9.357437
 20
38.698011
  0
VERTEX
  8
terras_cascais
 10
-9.357412
 20
38.698003
  0
VERTEX
  8
terras_cascais
 10
-9.357382
 20
38.698002
  0
VERTEX
  8
terras_cascais
 10
-9.357353
 20
38.698006
  0
VERTEX
  8
terras_cascais
 10
-9.357329
 20
38.698017
  0
VERTEX
  8
terras_cascais
 10
-9.357193
 20
38.697888
  0
VERTEX
  8
terras_cascais
 10
-9.357195
 20
38.697875
  0
VERTEX
  8
terras_cascais
 10
-9.357365
 20
38.697891
  0
VERTEX
  8
terras_cascais
 10
-9.357539
 20
38.697906
  0
VERTEX
  8
terras_cascais
 10
-9.357666
 20
38.697918
  0
VERTEX
  8
terras_cascais
 10
-9.357840
 20
38.697933
  0
VERTEX
  8
terras_cascais
 10
-9.357845
 20
38.697933
  0
VERTEX
  8
terras_cascais
 10
-9.357849
 20
38.697933
  0
VERTEX
  8
terras_cascais
 10
-9.357854
 20
38.697934
  0
VERTEX
  8
terras_cascais
 10
-9.357858
 20
38.697935
  0
VERTEX
  8
terras_cascais
 10
-9.357862
 20
38.697937
  0
VERTEX
  8
terras_cascais
 10
-9.357866
 20
38.697938
  0
VERTEX
  8
terras_cascais
 10
-9.357869
 20
38.697940
  0
VERTEX
  8
terras_cascais
 10
-9.357873
 20
38.697942
  0
VERTEX
  8
terras_cascais
 10
-9.357876
 20
38.697945
  0
VERTEX
  8
terras_cascais
 10
-9.357879
 20
38.697947
  0
VERTEX
  8
terras_cascais
 10
-9.357882
 20
38.697950
  0
VERTEX
  8
terras_cascais
 10
-9.357884
 20
38.697953
  0
VERTEX
  8
terras_cascais
 10
-9.357886
 20
38.697955
  0
VERTEX
  8
terras_cascais
 10
-9.357921
 20
38.698005
  0
VERTEX
  8
terras_cascais
 10
-9.357932
 20
38.698019
  0
VERTEX
  8
terras_cascais
 10
-9.357938
 20
38.698028
  0
VERTEX
  8
terras_cascais
 10
-9.358003
 20
38.698118
  0
SEQEND
  0
POLYLINE
  8
terras_cascais
  6
BYLAYER
 66
1
 70
1
 40
0.000000
 41
0.000000
  0
VERTEX
  8
terras_cascais
 10
-9.362595
 20
38.702950
  0
VERTEX
  8
terras_cascais
 10
-9.362944
 20
38.702956
  0
VERTEX
  8
terras_cascais
 10
-9.362930
 20
38.703291
  0
VERTEX
  8
terras_cascais
 10
-9.362925
 20
38.703382
  0
VERTEX
  8
terras_cascais
 10
-9.362917
 20
38.703558
  0
VERTEX
  8
terras_cascais
 10
-9.362875
 20
38.703559
  0
VERTEX
  8
terras_cascais
 10
-9.362866
 20
38.703580
  0
VERTEX
  8
terras_cascais
 10
-9.362851
 20
38.703578
  0
VERTEX
  8
terras_cascais
 10
-9.362815
 20
38.703572
  0
VERTEX
  8
terras_cascais
 10
-9.362826
 20
38.703545
  0
VERTEX
  8
terras_cascais
 10
-9.362781
 20
38.703532
  0
VERTEX
  8
terras_cascais
 10
-9.362729
 20
38.703534
  0
VERTEX
  8
terras_cascais
 10
-9.362723
 20
38.703499
  0
VERTEX
  8
terras_cascais
 10
-9.362671
 20
38.703499
  0
VERTEX
  8
terras_cascais
 10
-9.362667
 20
38.703283
  0
VERTEX
  8
terras_cascais
 10
-9.362599
 20
38.703281
  0
VERTEX
  8
terras_cascais
 10
-9.362595
 20
38.702950
  0
SEQEND
  0
POLYLINE
  8
terras_cascais
  6
BYLAYER
 66
1
 70
1
 40
0.000000
 41
0.000000
  0
VERTEX
  8
terras_cascais
 10
-9.373120
 20
38.706750
  0
VERTEX
  8
terras_cascais
 10
-9.373098
 20
38.706896
  0
VERTEX
  8
terras_cascais
 10
-9.373076
 20
38.707031
  0
VERTEX
  8
terras_cascais
 10
-9.372608
 20
38.706991
  0
VERTEX
  8
terras_cascais
 10
-9.372568
 20
38.706988
  0
VERTEX
  8
terras_cascais
 10
-9.372584
 20
38.706860
  0
VERTEX
  8
terras_cascais
 10
-9.372605
 20
38.706701
  0
VERTEX
  8
terras_cascais
 10
-9.372633
 20
38.706704
  0
VERTEX
  8
terras_cascais
 10
-9.372680
 20
38.706708
  0
VERTEX
  8
terras_cascais
 10
-9.373120
 20
38.706750
  0
SEQEND
  0
POLYLINE
  8
terras_cascais
  6
BYLAYER
 66
1
 70
1
 40
0.000000
 41
0.000000
  0
VERTEX
  8
terras_cascais
 10
-9.344623
 20
38.703023
  0
VERTEX
  8
terras_cascais
 10
-9.344599
 20
38.703282
  0
VERTEX
  8
terras_cascais
 10
-9.344320
 20
38.703266
  0
VERTEX
  8
terras_cascais
 10
-9.344344
 20
38.703005
  0
VERTEX
  8
terras_cascais
 10
-9.344623
 20
38.703023
  0
SEQEND
  0
POLYLINE
  8
terras_cascais
  6
BYLAYER
 66
1
 70
1
 40
0.000000
 41
0.000000
  0
VERTEX
  8
terras_cascais
 10
-9.338569
 20
38.703110
  0
VERTEX
  8
terras_cascais
 10
-9.338539
 20
38.703112
  0
VERTEX
  8
terras_cascais
 10
-9.338447
 20
38.703118
  0
VERTEX
  8
terras_cascais
 10
-9.338406
 20
38.702803
  0
VERTEX
  8
terras_cascais
 10
-9.338526
 20
38.702792
  0
VERTEX
  8
terras_cascais
 10
-9.338569
 20
38.703110
  0
SEQEND
  0
POLYLINE
  8
terras_cascais
  6
BYLAYER
 66
1
 70
1
 40
0.000000
 41
0.000000
  0
VERTEX
  8
terras_cascais
 10
-9.336229
 20
38.703432
  0
VERTEX
  8
terras_cascais
 10
-9.336175
 20
38.703436
  0
VERTEX
  8
terras_cascais
 10
-9.336103
 20
38.703392
  0
VERTEX
  8
terras_cascais
 10
-9.336083
 20
38.703330
  0
VERTEX
  8
terras_cascais
 10
-9.335963
 20
38.702946
  0
VERTEX
  8
terras_cascais
 10
-9.336079
 20
38.702930
  0
VERTEX
  8
terras_cascais
 10
-9.336229
 20
38.703432
  0
SEQEND
  0
POLYLINE
  8
terras_cascais
  6
BYLAYER
 66
1
 70
1
 40
0.000000
 41
0.000000
  0
VERTEX
  8
terras_cascais
 10
-9.321213
 20
38.699916
  0
VERTEX
  8
terras_cascais
 10
-9.320945
 20
38.699983
  0
VERTEX
  8
terras_cascais
 10
-9.320892
 20
38.699865
  0
VERTEX
  8
terras_cascais
 10
-9.320571
 20
38.699945
  0
VERTEX
  8
terras_cascais
 10
-9.320526
 20
38.699823
  0
VERTEX
  8
terras_cascais
 10
-9.321117
 20
38.699674
  0
VERTEX
  8
terras_cascais
 10
-9.321213
 20
38.699916
  0
SEQEND
  0
POLYLINE
  8
terras_cascais
  6
BYLAYER
 66
1
 70
1
 40
0.000000
 41
0.000000
  0
VERTEX
  8
terras_cascais
 10
-9.321338
 20
38.699886
  0
VERTEX
  8
terras_cascais
 10
-9.321213
 20
38.699916
  0
VERTEX
  8
terras_cascais
 10
-9.321117
 20
38.699674
  0
VERTEX
  8
terras_cascais
 10
-9.321238
 20
38.699648
  0
VERTEX
  8
terras_cascais
 10
-9.321338
 20
38.699886
  0
SEQEND
  0
POLYLINE
  8
terras_cascais
  6
BYLAYER
 66
1
 70
1
 40
0.000000
 41
0.000000
  0
VERTEX
  8
terras_cascais
 10
-9.361015
 20
38.707371
  0
VERTEX
  8
terras_cascais
 10
-9.360938
 20
38.707600
  0
VERTEX
  8
terras_cascais
 10
-9.360339
 20
38.707477
  0
VERTEX
  8
terras_cascais
 10
-9.360435
 20
38.707254
  0
VERTEX
  8
terras_cascais
 10
-9.361015
 20
38.707371
  0
SEQEND
  0
POLYLINE
  8
terras_cascais
  6
BYLAYER
 66
1
 70
1
 40
0.000000
 41
0.000000
  0
VERTEX
  8
terras_cascais
 10
-9.358809
 20
38.708531
  0
VERTEX
  8
terras_cascais
 10
-9.358725
 20
38.708786
  0
VERTEX
  8
terras_cascais
 10
-9.358289
 20
38.708693
  0
VERTEX
  8
terras_cascais
 10
-9.358345
 20
38.708524
  0
VERTEX
  8
terras_cascais
 10
-9.358592
 20
38.708580
  0
VERTEX
  8
terras_cascais
 10
-9.358624
 20
38.708488
  0
VERTEX
  8
terras_cascais
 10
-9.358809
 20
38.708531
  0
SEQEND
  0
POLYLINE
  8
terras_cascais
  6
BYLAYER
 66
1
 70
1
 40
0.000000
 41
0.000000
  0
VERTEX
  8
terras_cascais
 10
-9.354254
 20
38.726710
  0
VERTEX
  8
terras_cascais
 10
-9.353760
 20
38.727049
  0
VERTEX
  8
terras_cascais
 10
-9.353576
 20
38.726885
  0
VERTEX
  8
terras_cascais
 10
-9.354067
 20
38.726532
  0
VERTEX
  8
terras_cascais
 10
-9.354254
 20
38.726710
  0
SEQEND
  0
POLYLINE
  8
terras_cascais
  6
BYLAYER
 66
1
 70
1
 40
0.000000
 41
0.000000
  0
VERTEX
  8
terras_cascais
 10
-9.378559
 20
38.746487
  0
VERTEX
  8
terras_cascais
 10
-9.378292
 20
38.746673
  0
VERTEX
  8
terras_cascais
 10
-9.378015
 20
38.746440
  0
VERTEX
  8
terras_cascais
 10
-9.378375
 20
38.746163
  0
VERTEX
  8
terras_cascais
 10
-9.378486
 20
38.746268
  0
VERTEX
  8
terras_cascais
 10
-9.378559
 20
38.746487
  0
SEQEND
  0
POLYLINE
  8
terras_cascais
  6
BYLAYER
 66
1
 70
1
 40
0.000000
 41
0.000000
  0
VERTEX
  8
terras_cascais
 10
-9.378400
 20
38.746056
  0
VERTEX
  8
terras_cascais
 10
-9.377740
 20
38.746578
  0
VERTEX
  8
terras_cascais
 10
-9.377701
 20
38.746608
  0
VERTEX
  8
terras_cascais
 10
-9.378057
 20
38.746858
  0
VERTEX
  8
terras_cascais
 10
-9.378073
 20
38.746872
  0
VERTEX
  8
terras_cascais
 10
-9.378301
 20
38.746722
  0
VERTEX
  8
terras_cascais
 10
-9.378437
 20
38.746613
  0
VERTEX
  8
terras_cascais
 10
-9.378642
 20
38.746564
  0
VERTEX
  8
terras_cascais
 10
-9.378686
 20
38.746653
  0
VERTEX
  8
terras_cascais
 10
-9.378737
 20
38.746757
  0
VERTEX
  8
terras_cascais
 10
-9.378849
 20
38.746985
  0
VERTEX
  8
terras_cascais
 10
-9.378929
 20
38.747084
  0
VERTEX
  8
terras_cascais
 10
-9.378239
 20
38.747296
  0
VERTEX
  8
terras_cascais
 10
-9.378188
 20
38.747038
  0
VERTEX
  8
terras_cascais
 10
-9.378016
 20
38.746878
  0
VERTEX
  8
terras_cascais
 10
-9.377429
 20
38.746603
  0
VERTEX
  8
terras_cascais
 10
-9.378024
 20
38.746287
  0
VERTEX
  8
terras_cascais
 10
-9.378367
 20
38.745995
  0
VERTEX
  8
terras_cascais
 10
-9.378400
 20
38.746056
  0
SEQEND
  0
POLYLINE
  8
terras_cascais
  6
BYLAYER
 66
1
 70
1
 40
0.000000
 41
0.000000
  0
VERTEX
  8
terras_cascais
 10
-9.448184
 20
38.726854
  0
VERTEX
  8
terras_cascais
 10
-9.448218
 20
38.727048
  0
VERTEX
  8
terras_cascais
 10
-9.448038
 20
38.727063
  0
VERTEX
  8
terras_cascais
 10
-9.447999
 20
38.726868
  0
VERTEX
  8
terras_cascais
 10
-9.448184
 20
38.726854
  0
SEQEND
  0
POLYLINE
  8
terras_cascais
  6
BYLAYER
 66
1
 70
1
 40
0.000000
 41
0.000000
  0
VERTEX
  8
terras_cascais
 10
-9.448038
 20
38.727063
  0
VERTEX
  8
terras_cascais
 10
-9.447779
 20
38.727081
  0
VERTEX
  8
terras_cascais
 10
-9.447624
 20
38.726892
  0
VERTEX
  8
terras_cascais
 10
-9.447999
 20
38.726868
  0
VERTEX
  8
terras_cascais
 10
-9.448038
 20
38.727063
  0
SEQEND
  0
POLYLINE
  8
terras_cascais
  6
BYLAYER
 66
1
 70
1
 40
0.000000
 41
0.000000
  0
VERTEX
  8
terras_cascais
 10
-9.421694
 20
38.717470
  0
VERTEX
  8
terras_cascais
 10
-9.421683
 20
38.717753
  0
VERTEX
  8
terras_cascais
 10
-9.421636
 20
38.717751
  0
VERTEX
  8
terras_cascais
 10
-9.421434
 20
38.717558
  0
VERTEX
  8
terras_cascais
 10
-9.421433
 20
38.717466
  0
VERTEX
  8
terras_cascais
 10
-9.421694
 20
38.717470
  0
SEQEND
  0
POLYLINE
  8
terras_cascais
  6
BYLAYER
 66
1
 70
1
 40
0.000000
 41
0.000000
  0
VERTEX
  8
terras_cascais
 10
-9.409978
 20
38.712701
  0
VERTEX
  8
terras_cascais
 10
-9.409984
 20
38.712716
  0
VERTEX
  8
terras_cascais
 10
-9.410035
 20
38.712838
  0
VERTEX
  8
terras_cascais
 10
-9.410029
 20
38.712849
  0
VERTEX
  8
terras_cascais
 10
-9.409960
 20
38.712994
  0
VERTEX
  8
terras_cascais
 10
-9.409952
 20
38.713000
  0
VERTEX
  8
terras_cascais
 10
-9.409856
 20
38.712989
  0
VERTEX
  8
terras_cascais
 10
-9.409784
 20
38.712986
  0
VERTEX
  8
terras_cascais
 10
-9.409724
 20
38.712993
  0
VERTEX
  8
terras_cascais
 10
-9.409611
 20
38.713017
  0
VERTEX
  8
terras_cascais
 10
-9.409566
 20
38.713007
  0
VERTEX
  8
terras_cascais
 10
-9.409512
 20
38.712994
  0
VERTEX
  8
terras_cascais
 10
-9.409469
 20
38.712981
  0
VERTEX
  8
terras_cascais
 10
-9.409388
 20
38.712924
  0
VERTEX
  8
terras_cascais
 10
-9.409382
 20
38.712920
  0
VERTEX
  8
terras_cascais
 10
-9.409978
 20
38.712701
  0
SEQEND
  0
POLYLINE
  8
terras_cascais
  6
BYLAYER
 66
1
 70
1
 40
0.000000
 41
0.000000
  0
VERTEX
  8
terras_cascais
 10
-9.385161
 20
38.715168
  0
VERTEX
  8
terras_cascais
 10
-9.385092
 20
38.715187
  0
VERTEX
  8
terras_cascais
 10
-9.384997
 20
38.715043
  0
VERTEX
  8
terras_cascais
 10
-9.384993
 20
38.715037
  0
VERTEX
  8
terras_cascais
 10
-9.384989
 20
38.715031
  0
VERTEX
  8
terras_cascais
 10
-9.384838
 20
38.715086
  0
VERTEX
  8
terras_cascais
 10
-9.384825
 20
38.715090
  0
VERTEX
  8
terras_cascais
 10
-9.384823
 20
38.715091
  0
VERTEX
  8
terras_cascais
 10
-9.384698
 20
38.715120
  0
VERTEX
  8
terras_cascais
 10
-9.384632
 20
38.715012
  0
VERTEX
  8
terras_cascais
 10
-9.384724
 20
38.714976
  0
VERTEX
  8
terras_cascais
 10
-9.384731
 20
38.714973
  0
VERTEX
  8
terras_cascais
 10
-9.384754
 20
38.715001
  0
VERTEX
  8
terras_cascais
 10
-9.384932
 20
38.714941
  0
VERTEX
  8
terras_cascais
 10
-9.384906
 20
38.714901
  0
VERTEX
  8
terras_cascais
 10
-9.384839
 20
38.714840
  0
VERTEX
  8
terras_cascais
 10
-9.384851
 20
38.714833
  0
VERTEX
  8
terras_cascais
 10
-9.384883
 20
38.714815
  0
VERTEX
  8
terras_cascais
 10
-9.384890
 20
38.714819
  0
VERTEX
  8
terras_cascais
 10
-9.384945
 20
38.714853
  0
VERTEX
  8
terras_cascais
 10
-9.384946
 20
38.714854
  0
VERTEX
  8
terras_cascais
 10
-9.384968
 20
38.714868
  0
VERTEX
  8
terras_cascais
 10
-9.384943
 20
38.714882
  0
VERTEX
  8
terras_cascais
 10
-9.384957
 20
38.714898
  0
VERTEX
  8
terras_cascais
 10
-9.384985
 20
38.714885
  0
VERTEX
  8
terras_cascais
 10
-9.384989
 20
38.714888
  0
VERTEX
  8
terras_cascais
 10
-9.385001
 20
38.714902
  0
VERTEX
  8
terras_cascais
 10
-9.385012
 20
38.714915
  0
VERTEX
  8
terras_cascais
 10
-9.385034
 20
38.714944
  0
VERTEX
  8
terras_cascais
 10
-9.385058
 20
38.714983
  0
VERTEX
  8
terras_cascais
 10
-9.385089
 20
38.715036
  0
VERTEX
  8
terras_cascais
 10
-9.385098
 20
38.715051
  0
VERTEX
  8
terras_cascais
 10
-9.385106
 20
38.715066
  0
VERTEX
  8
terras_cascais
 10
-9.385115
 20
38.715082
  0
VERTEX
  8
terras_cascais
 10
-9.385122
 20
38.715093
  0
VERTEX
  8
terras_cascais
 10
-9.385129
 20
38.715105
  0
VERTEX
  8
terras_cascais
 10
-9.385136
 20
38.715117
  0
VERTEX
  8
terras_cascais
 10
-9.385140
 20
38.715124
  0
VERTEX
  8
terras_cascais
 10
-9.385152
 20
38.715148
  0
VERTEX
  8
terras_cascais
 10
-9.385159
 20
38.715163
  0
VERTEX
  8
terras_cascais
 10
-9.385161
 20
38.715168
  0
SEQEND
  0
POLYLINE
  8
terras_cascais
  6
BYLAYER
 66
1
 70
1
 40
0.000000
 41
0.000000
  0
VERTEX
  8
terras_cascais
 10
-9.342565
 20
38.707091
  0
VERTEX
  8
terras_cascais
 10
-9.342570
 20
38.707092
  0
VERTEX
  8
terras_cascais
 10
-9.342562
 20
38.707208
  0
VERTEX
  8
terras_cascais
 10
-9.342450
 20
38.707202
  0
VERTEX
  8
terras_cascais
 10
-9.342291
 20
38.707195
  0
VERTEX
  8
terras_cascais
 10
-9.342126
 20
38.707187
  0
VERTEX
  8
terras_cascais
 10
-9.341956
 20
38.707179
  0
VERTEX
  8
terras_cascais
 10
-9.341793
 20
38.707172
  0
VERTEX
  8
terras_cascais
 10
-9.341796
 20
38.707144
  0
VERTEX
  8
terras_cascais
 10
-9.341700
 20
38.707141
  0
VERTEX
  8
terras_cascais
 10
-9.341663
 20
38.707140
  0
VERTEX
  8
terras_cascais
 10
-9.341637
 20
38.707139
  0
VERTEX
  8
terras_cascais
 10
-9.341533
 20
38.707135
  0
VERTEX
  8
terras_cascais
 10
-9.341448
 20
38.707130
  0
VERTEX
  8
terras_cascais
 10
-9.341384
 20
38.707128
  0
VERTEX
  8
terras_cascais
 10
-9.341337
 20
38.707126
  0
VERTEX
  8
terras_cascais
 10
-9.341304
 20
38.707125
  0
VERTEX
  8
terras_cascais
 10
-9.341305
 20
38.707040
  0
VERTEX
  8
terras_cascais
 10
-9.341373
 20
38.707041
  0
VERTEX
  8
terras_cascais
 10
-9.341453
 20
38.707041
  0
VERTEX
  8
terras_cascais
 10
-9.341457
 20
38.707041
  0
VERTEX
  8
terras_cascais
 10
-9.341460
 20
38.707041
  0
VERTEX
  8
terras_cascais
 10
-9.341475
 20
38.707042
  0
VERTEX
  8
terras_cascais
 10
-9.341493
 20
38.707043
  0
VERTEX
  8
terras_cascais
 10
-9.341521
 20
38.707044
  0
VERTEX
  8
terras_cascais
 10
-9.341742
 20
38.707052
  0
VERTEX
  8
terras_cascais
 10
-9.341985
 20
38.707063
  0
VERTEX
  8
terras_cascais
 10
-9.342075
 20
38.707067
  0
VERTEX
  8
terras_cascais
 10
-9.342077
 20
38.707039
  0
VERTEX
  8
terras_cascais
 10
-9.342100
 20
38.707040
  0
VERTEX
  8
terras_cascais
 10
-9.342098
 20
38.707069
  0
VERTEX
  8
terras_cascais
 10
-9.342344
 20
38.707080
  0
VERTEX
  8
terras_cascais
 10
-9.342369
 20
38.707081
  0
VERTEX
  8
terras_cascais
 10
-9.342407
 20
38.707083
  0
VERTEX
  8
terras_cascais
 10
-9.342432
 20
38.707084
  0
VERTEX
  8
terras_cascais
 10
-9.342433
 20
38.707084
  0
VERTEX
  8
terras_cascais
 10
-9.342437
 20
38.707084
  0
VERTEX
  8
terras_cascais
 10
-9.342565
 20
38.707091
  0
SEQEND
  0
POLYLINE
  8
terras_cascais
  6
BYLAYER
 66
1
 70
1
 40
0.000000
 41
0.000000
  0
VERTEX
  8
terras_cascais
 10
-9.334703
 20
38.704746
  0
VERTEX
  8
terras_cascais
 10
-9.334540
 20
38.704803
  0
VERTEX
  8
terras_cascais
 10
-9.334303
 20
38.704330
  0
VERTEX
  8
terras_cascais
 10
-9.334366
 20
38.704308
  0
VERTEX
  8
terras_cascais
 10
-9.334703
 20
38.704746
  0
SEQEND
  0
POLYLINE
  8
terras_cascais
  6
BYLAYER
 66
1
 70
1
 40
0.000000
 41
0.000000
  0
VERTEX
  8
terras_cascais
 10
-9.323927
 20
38.713510
  0
VERTEX
  8
terras_cascais
 10
-9.324267
 20
38.713851
  0
VERTEX
  8
terras_cascais
 10
-9.324261
 20
38.713854
  0
VERTEX
  8
terras_cascais
 10
-9.324251
 20
38.713861
  0
VERTEX
  8
terras_cascais
 10
-9.324143
 20
38.713927
  0
VERTEX
  8
terras_cascais
 10
-9.324133
 20
38.713917
  0
VERTEX
  8
terras_cascais
 10
-9.324121
 20
38.713906
  0
VERTEX
  8
terras_cascais
 10
-9.324075
 20
38.713860
  0
VERTEX
  8
terras_cascais
 10
-9.323891
 20
38.713677
  0
VERTEX
  8
terras_cascais
 10
-9.323745
 20
38.713532
  0
VERTEX
  8
terras_cascais
 10
-9.323765
 20
38.713519
  0
VERTEX
  8
terras_cascais
 10
-9.323927
 20
38.713510
  0
SEQEND
  0
POLYLINE
  8
terras_cascais
  6
BYLAYER
 66
1
 70
1
 40
0.000000
 41
0.000000
  0
VERTEX
  8
terras_cascais
 10
-9.422925
 20
38.709528
  0
VERTEX
  8
terras_cascais
 10
-9.423156
 20
38.709452
  0
VERTEX
  8
terras_cascais
 10
-9.423261
 20
38.709659
  0
VERTEX
  8
terras_cascais
 10
-9.422869
 20
38.709784
  0
VERTEX
  8
terras_cascais
 10
-9.422661
 20
38.709350
  0
VERTEX
  8
terras_cascais
 10
-9.422727
 20
38.709326
  0
VERTEX
  8
terras_cascais
 10
-9.422752
 20
38.709362
  0
VERTEX
  8
terras_cascais
 10
-9.422809
 20
38.709341
  0
VERTEX
  8
terras_cascais
 10
-9.422925
 20
38.709528
  0
SEQEND
  0
POLYLINE
  8
terras_cascais
  6
BYLAYER
 66
1
 70
1
 40
0.000000
 41
0.000000
  0
VERTEX
  8
terras_cascais
 10
-9.336721
 20
38.703533
  0
VERTEX
  8
terras_cascais
 10
-9.336393
 20
38.703516
  0
VERTEX
  8
terras_cascais
 10
-9.336370
 20
38.703394
  0
VERTEX
  8
terras_cascais
 10
-9.336737
 20
38.703378
  0
VERTEX
  8
terras_cascais
 10
-9.336772
 20
38.703535
  0
VERTEX
  8
terras_cascais
 10
-9.336721
 20
38.703533
  0
SEQEND
  0
POLYLINE
  8
terras_cascais
  6
BYLAYER
 66
1
 70
1
 40
0.000000
 41
0.000000
  0
VERTEX
  8
terras_cascais
 10
-9.408061
 20
38.711470
  0
VERTEX
  8
terras_cascais
 10
-9.408128
 20
38.711471
  0
VERTEX
  8
terras_cascais
 10
-9.408119
 20
38.711513
  0
VERTEX
  8
terras_cascais
 10
-9.408106
 20
38.711562
  0
VERTEX
  8
terras_cascais
 10
-9.408082
 20
38.711614
  0
VERTEX
  8
terras_cascais
 10
-9.408036
 20
38.711657
  0
VERTEX
  8
terras_cascais
 10
-9.407993
 20
38.711685
  0
VERTEX
  8
terras_cascais
 10
-9.408007
 20
38.711701
  0
VERTEX
  8
terras_cascais
 10
-9.407980
 20
38.711716
  0
VERTEX
  8
terras_cascais
 10
-9.408034
 20
38.711773
  0
VERTEX
  8
terras_cascais
 10
-9.408028
 20
38.711797
  0
VERTEX
  8
terras_cascais
 10
-9.407864
 20
38.711871
  0
VERTEX
  8
terras_cascais
 10
-9.407736
 20
38.711739
  0
VERTEX
  8
terras_cascais
 10
-9.407952
 20
38.711639
  0
VERTEX
  8
terras_cascais
 10
-9.408000
 20
38.711610
  0
VERTEX
  8
terras_cascais
 10
-9.408027
 20
38.711589
  0
VERTEX
  8
terras_cascais
 10
-9.408040
 20
38.711553
  0
VERTEX
  8
terras_cascais
 10
-9.408053
 20
38.711505
  0
VERTEX
  8
terras_cascais
 10
-9.408061
 20
38.711470
  0
SEQEND
  0
POLYLINE
  8
terras_cascais
  6
BYLAYER
 66
1
 70
1
 40
0.000000
 41
0.000000
  0
VERTEX
  8
terras_cascais
 10
-9.408284
 20
38.710890
  0
VERTEX
  8
terras_cascais
 10
-9.408293
 20
38.710877
  0
VERTEX
  8
terras_cascais
 10
-9.408313
 20
38.710848
  0
VERTEX
  8
terras_cascais
 10
-9.408348
 20
38.710862
  0
VERTEX
  8
terras_cascais
 10
-9.408363
 20
38.710862
  0
VERTEX
  8
terras_cascais
 10
-9.408386
 20
38.710873
  0
VERTEX
  8
terras_cascais
 10
-9.408410
 20
38.710911
  0
VERTEX
  8
terras_cascais
 10
-9.408439
 20
38.710958
  0
VERTEX
  8
terras_cascais
 10
-9.408450
 20
38.711023
  0
VERTEX
  8
terras_cascais
 10
-9.408438
 20
38.711113
  0
VERTEX
  8
terras_cascais
 10
-9.408426
 20
38.711133
  0
VERTEX
  8
terras_cascais
 10
-9.408421
 20
38.711143
  0
VERTEX
  8
terras_cascais
 10
-9.408413
 20
38.711139
  0
VERTEX
  8
terras_cascais
 10
-9.408408
 20
38.711145
  0
VERTEX
  8
terras_cascais
 10
-9.408405
 20
38.711154
  0
VERTEX
  8
terras_cascais
 10
-9.408400
 20
38.711155
  0
VERTEX
  8
terras_cascais
 10
-9.408387
 20
38.711176
  0
VERTEX
  8
terras_cascais
 10
-9.408375
 20
38.711178
  0
VERTEX
  8
terras_cascais
 10
-9.408330
 20
38.711258
  0
VERTEX
  8
terras_cascais
 10
-9.408338
 20
38.711265
  0
VERTEX
  8
terras_cascais
 10
-9.408322
 20
38.711277
  0
VERTEX
  8
terras_cascais
 10
-9.408309
 20
38.711270
  0
VERTEX
  8
terras_cascais
 10
-9.408187
 20
38.711362
  0
VERTEX
  8
terras_cascais
 10
-9.408161
 20
38.711357
  0
VERTEX
  8
terras_cascais
 10
-9.408337
 20
38.710972
  0
VERTEX
  8
terras_cascais
 10
-9.408381
 20
38.710981
  0
VERTEX
  8
terras_cascais
 10
-9.408349
 20
38.710933
  0
VERTEX
  8
terras_cascais
 10
-9.408346
 20
38.710931
  0
VERTEX
  8
terras_cascais
 10
-9.408313
 20
38.710904
  0
VERTEX
  8
terras_cascais
 10
-9.408284
 20
38.710890
  0
SEQEND
  0
POLYLINE
  8
terras_cascais
  6
BYLAYER
 66
1
 70
1
 40
0.000000
 41
0.000000
  0
VERTEX
  8
terras_cascais
 10
-9.405502
 20
38.712870
  0
VERTEX
  8
terras_cascais
 10
-9.405528
 20
38.713172
  0
VERTEX
  8
terras_cascais
 10
-9.405485
 20
38.713175
  0
VERTEX
  8
terras_cascais
 10
-9.405458
 20
38.712873
  0
VERTEX
  8
terras_cascais
 10
-9.405502
 20
38.712870
  0
SEQEND
  0
POLYLINE
  8
terras_cascais
  6
BYLAYER
 66
1
 70
1
 40
0.000000
 41
0.000000
  0
VERTEX
  8
terras_cascais
 10
-9.405550
 20
38.712616
  0
VERTEX
  8
terras_cascais
 10
-9.405569
 20
38.712815
  0
VERTEX
  8
terras_cascais
 10
-9.405569
 20
38.712828
  0
VERTEX
  8
terras_cascais
 10
-9.405523
 20
38.712830
  0
VERTEX
  8
terras_cascais
 10
-9.405502
 20
38.712619
  0
VERTEX
  8
terras_cascais
 10
-9.405550
 20
38.712616
  0
SEQEND
  0
POLYLINE
  8
terras_cascais
  6
BYLAYER
 66
1
 70
1
 40
0.000000
 41
0.000000
  0
VERTEX
  8
terras_cascais
 10
-9.313381
 20
38.739525
  0
VERTEX
  8
terras_cascais
 10
-9.313199
 20
38.739575
  0
VERTEX
  8
terras_cascais
 10
-9.313067
 20
38.739294
  0
VERTEX
  8
terras_cascais
 10
-9.313106
 20
38.739283
  0
VERTEX
  8
terras_cascais
 10
-9.313067
 20
38.739197
  0
VERTEX
  8
terras_cascais
 10
-9.313026
 20
38.739208
  0
VERTEX
  8
terras_cascais
 10
-9.312972
 20
38.739094
  0
VERTEX
  8
terras_cascais
 10
-9.313023
 20
38.739080
  0
VERTEX
  8
terras_cascais
 10
-9.313011
 20
38.739054
  0
VERTEX
  8
terras_cascais
 10
-9.313085
 20
38.739034
  0
VERTEX
  8
terras_cascais
 10
-9.313097
 20
38.739059
  0
VERTEX
  8
terras_cascais
 10
-9.313152
 20
38.739044
  0
VERTEX
  8
terras_cascais
 10
-9.313381
 20
38.739525
  0
SEQEND
  0
POLYLINE
  8
terras_cascais
  6
BYLAYER
 66
1
 70
1
 40
0.000000
 41
0.000000
  0
VERTEX
  8
terras_cascais
 10
-9.336560
 20
38.725692
  0
VERTEX
  8
terras_cascais
 10
-9.336817
 20
38.725690
  0
VERTEX
  8
terras_cascais
 10
-9.336820
 20
38.725859
  0
VERTEX
  8
terras_cascais
 10
-9.336878
 20
38.725858
  0
VERTEX
  8
terras_cascais
 10
-9.336881
 20
38.726075
  0
VERTEX
  8
terras_cascais
 10
-9.336517
 20
38.726050
  0
VERTEX
  8
terras_cascais
 10
-9.336514
 20
38.725862
  0
VERTEX
  8
terras_cascais
 10
-9.336562
 20
38.725862
  0
VERTEX
  8
terras_cascais
 10
-9.336560
 20
38.725692
  0
SEQEND
  0
POLYLINE
  8
terras_cascais
  6
BYLAYER
 66
1
 70
1
 40
0.000000
 41
0.000000
  0
VERTEX
  8
terras_cascais
 10
-9.408246
 20
38.722219
  0
VERTEX
  8
terras_cascais
 10
-9.408192
 20
38.722255
  0
VERTEX
  8
terras_cascais
 10
-9.407941
 20
38.722259
  0
VERTEX
  8
terras_cascais
 10
-9.407937
 20
38.722032
  0
VERTEX
  8
terras_cascais
 10
-9.407982
 20
38.722031
  0
VERTEX
  8
terras_cascais
 10
-9.407981
 20
38.721932
  0
VERTEX
  8
terras_cascais
 10
-9.408172
 20
38.721930
  0
VERTEX
  8
terras_cascais
 10
-9.408173
 20
38.721976
  0
VERTEX
  8
terras_cascais
 10
-9.408242
 20
38.721976
  0
VERTEX
  8
terras_cascais
 10
-9.408246
 20
38.722219
  0
SEQEND
  0
POLYLINE
  8
terras_cascais
  6
BYLAYER
 66
1
 70
1
 40
0.000000
 41
0.000000
  0
VERTEX
  8
terras_cascais
 10
-9.313521
 20
38.739819
  0
VERTEX
  8
terras_cascais
 10
-9.313355
 20
38.739861
  0
VERTEX
  8
terras_cascais
 10
-9.313218
 20
38.739570
  0
VERTEX
  8
terras_cascais
 10
-9.313381
 20
38.739525
  0
VERTEX
  8
terras_cascais
 10
-9.313521
 20
38.739819
  0
SEQEND
  0
POLYLINE
  8
terras_cascais
  6
BYLAYER
 66
1
 70
1
 40
0.000000
 41
0.000000
  0
VERTEX
  8
terras_cascais
 10
-9.353527
 20
38.695048
  0
VERTEX
  8
terras_cascais
 10
-9.353684
 20
38.695023
  0
VERTEX
  8
terras_cascais
 10
-9.353754
 20
38.695078
  0
VERTEX
  8
terras_cascais
 10
-9.353784
 20
38.695126
  0
VERTEX
  8
terras_cascais
 10
-9.353847
 20
38.695353
  0
VERTEX
  8
terras_cascais
 10
-9.353829
 20
38.695427
  0
VERTEX
  8
terras_cascais
 10
-9.353718
 20
38.695403
  0
VERTEX
  8
terras_cascais
 10
-9.353714
 20
38.695387
  0
VERTEX
  8
terras_cascais
 10
-9.353707
 20
38.695377
  0
VERTEX
  8
terras_cascais
 10
-9.353701
 20
38.695371
  0
VERTEX
  8
terras_cascais
 10
-9.353691
 20
38.695363
  0
VERTEX
  8
terras_cascais
 10
-9.353672
 20
38.695354
  0
VERTEX
  8
terras_cascais
 10
-9.353668
 20
38.695353
  0
VERTEX
  8
terras_cascais
 10
-9.353649
 20
38.695329
  0
VERTEX
  8
terras_cascais
 10
-9.353649
 20
38.695323
  0
VERTEX
  8
terras_cascais
 10
-9.353613
 20
38.695158
  0
VERTEX
  8
terras_cascais
 10
-9.353555
 20
38.695168
  0
VERTEX
  8
terras_cascais
 10
-9.353527
 20
38.695048
  0
SEQEND
  0
POLYLINE
  8
terras_cascais
  6
BYLAYER
 66
1
 70
1
 40
0.000000
 41
0.000000
  0
VERTEX
  8
terras_cascais
 10
-9.362595
 20
38.702950
  0
VERTEX
  8
terras_cascais
 10
-9.362600
 20
38.703281
  0
VERTEX
  8
terras_cascais
 10
-9.362666
 20
38.703283
  0
VERTEX
  8
terras_cascais
 10
-9.362674
 20
38.703499
  0
VERTEX
  8
terras_cascais
 10
-9.362723
 20
38.703500
  0
VERTEX
  8
terras_cascais
 10
-9.362732
 20
38.703534
  0
VERTEX
  8
terras_cascais
 10
-9.362666
 20
38.703528
  0
VERTEX
  8
terras_cascais
 10
-9.362618
 20
38.703518
  0
VERTEX
  8
terras_cascais
 10
-9.362356
 20
38.702947
  0
VERTEX
  8
terras_cascais
 10
-9.362595
 20
38.702950
  0
SEQEND
  0
POLYLINE
  8
terras_cascais
  6
BYLAYER
 66
1
 70
1
 40
0.000000
 41
0.000000
  0
VERTEX
  8
terras_cascais
 10
-9.387811
 20
38.709668
  0
VERTEX
  8
terras_cascais
 10
-9.387574
 20
38.709601
  0
VERTEX
  8
terras_cascais
 10
-9.387691
 20
38.709349
  0
VERTEX
  8
terras_cascais
 10
-9.387649
 20
38.709331
  0
VERTEX
  8
terras_cascais
 10
-9.387688
 20
38.709241
  0
VERTEX
  8
terras_cascais
 10
-9.387705
 20
38.709246
  0
VERTEX
  8
terras_cascais
 10
-9.387772
 20
38.709090
  0
VERTEX
  8
terras_cascais
 10
-9.387710
 20
38.709068
  0
VERTEX
  8
terras_cascais
 10
-9.387799
 20
38.708880
  0
VERTEX
  8
terras_cascais
 10
-9.387773
 20
38.708869
  0
VERTEX
  8
terras_cascais
 10
-9.387847
 20
38.708721
  0
VERTEX
  8
terras_cascais
 10
-9.387711
 20
38.708686
  0
VERTEX
  8
terras_cascais
 10
-9.387883
 20
38.708305
  0
VERTEX
  8
terras_cascais
 10
-9.387864
 20
38.708287
  0
VERTEX
  8
terras_cascais
 10
-9.388016
 20
38.707974
  0
VERTEX
  8
terras_cascais
 10
-9.388038
 20
38.707973
  0
VERTEX
  8
terras_cascais
 10
-9.388042
 20
38.708006
  0
VERTEX
  8
terras_cascais
 10
-9.387989
 20
38.708266
  0
VERTEX
  8
terras_cascais
 10
-9.387923
 20
38.708685
  0
VERTEX
  8
terras_cascais
 10
-9.387893
 20
38.708902
  0
VERTEX
  8
terras_cascais
 10
-9.387880
 20
38.709061
  0
VERTEX
  8
terras_cascais
 10
-9.387865
 20
38.709262
  0
VERTEX
  8
terras_cascais
 10
-9.387836
 20
38.709463
  0
VERTEX
  8
terras_cascais
 10
-9.387811
 20
38.709668
  0
SEQEND
  0
POLYLINE
  8
terras_cascais
  6
BYLAYER
 66
1
 70
1
 40
0.000000
 41
0.000000
  0
VERTEX
  8
terras_cascais
 10
-9.340826
 20
38.735714
  0
VERTEX
  8
terras_cascais
 10
-9.340844
 20
38.735755
  0
VERTEX
  8
terras_cascais
 10
-9.340775
 20
38.735783
  0
VERTEX
  8
terras_cascais
 10
-9.340807
 20
38.735847
  0
VERTEX
  8
terras_cascais
 10
-9.340728
 20
38.735869
  0
VERTEX
  8
terras_cascais
 10
-9.340735
 20
38.735886
  0
VERTEX
  8
terras_cascais
 10
-9.340697
 20
38.735905
  0
VERTEX
  8
terras_cascais
 10
-9.340474
 20
38.735911
  0
VERTEX
  8
terras_cascais
 10
-9.340472
 20
38.735609
  0
VERTEX
  8
terras_cascais
 10
-9.340783
 20
38.735609
  0
VERTEX
  8
terras_cascais
 10
-9.340826
 20
38.735714
  0
SEQEND
  0
POLYLINE
  8
terras_cascais
  6
BYLAYER
 66
1
 70
1
 40
0.000000
 41
0.000000
  0
VERTEX
  8
terras_cascais
 10
-9.389114
 20
38.743308
  0
VERTEX
  8
terras_cascais
 10
-9.389310
 20
38.743345
  0
VERTEX
  8
terras_cascais
 10
-9.389275
 20
38.743456
  0
VERTEX
  8
terras_cascais
 10
-9.389750
 20
38.743477
  0
VERTEX
  8
terras_cascais
 10
-9.389743
 20
38.743577
  0
VERTEX
  8
terras_cascais
 10
-9.389586
 20
38.743573
  0
VERTEX
  8
terras_cascais
 10
-9.389492
 20
38.743618
  0
VERTEX
  8
terras_cascais
 10
-9.389460
 20
38.743724
  0
VERTEX
  8
terras_cascais
 10
-9.389001
 20
38.743638
  0
VERTEX
  8
terras_cascais
 10
-9.389114
 20
38.743308
  0
SEQEND
  0
ENDSEC
  0
EOF
