  0
SECTION
  2
HEADER
  9
$LTSCALE
 40
1.000000
  9
$LUNITS
 70
2
  9
$LUPREC
 70
4
  9
$AUNITS
 70
1
  9
$AUPREC
 70
4
  9
$FILLMODE
 70
1
  0
ENDSEC
  0
SECTION
  2
TABLES
  0
TABLE
  2
VPORT
 70
0
  0
ENDTAB
  0
TABLE
  2
LTYPE
 70
1
  0
LTYPE
  2
CONTINUOUS
 70
64
  3
Solid line
 72
65
 73
0
 40
0.000000
  0
ENDTAB
  0
TABLE
  2
LAYER
 70
1
  0
LAYER
  2
0
 62
1
  6
CONTINUOUS
 70
64
  0
ENDTAB
  0
TABLE
  2
STYLE
 70
1
  0
STYLE
  2
STANDARD
 70
64
 40
0.000000
 41
1.000000
 50
0.000000
 71
0
 42
2.000000
  3
txt
  4

  0
ENDTAB
  0
TABLE
  2
VIEW
 70
0
  0
ENDTAB
  0
TABLE
  2
UCS
 70
0
  0
ENDTAB
  0
TABLE
  2
APPID
 70
0
  0
ENDTAB
  0
TABLE
  2
DIMSTYLE
 70
1
  0
DIMSTYLE
  2
STANDARD
 70
0
  3

  4

  5

  6

  7

 40
1.000000
 41
3.000000
 42
2.500000
 43
10.000000
 44
2.500000
 45
0.000000
 46
1.250000
 47
0.000000
 48
0.000000
140
3.000000
141
-3.000000
142
0.000000
143
0.039000
144
1.000000
145
1.500000
146
0.750000
147
1.500000
 71
0
 72
0
 73
0
 74
0
 75
0
 76
0
 77
0
 78
0
170
0
171
0
172
0
173
0
174
0
175
0
176
0
177
0
178
0
  0
ENDTAB
  0
ENDSEC
  0
SECTION
  2
ENTITIES
  0
POLYLINE
  8
caminho-de-ferro
  6
BYLAYER
 66
1
 70
0
 40
0.000000
 41
0.000000
  0
VERTEX
  8
caminho-de-ferro
 10
-9.324142
 20
38.688306
  0
VERTEX
  8
caminho-de-ferro
 10
-9.324464
 20
38.688291
  0
VERTEX
  8
caminho-de-ferro
 10
-9.325436
 20
38.688247
  0
VERTEX
  8
caminho-de-ferro
 10
-9.325999
 20
38.688222
  0
VERTEX
  8
caminho-de-ferro
 10
-9.326455
 20
38.688199
  0
VERTEX
  8
caminho-de-ferro
 10
-9.326461
 20
38.688199
  0
VERTEX
  8
caminho-de-ferro
 10
-9.326820
 20
38.688184
  0
VERTEX
  8
caminho-de-ferro
 10
-9.327173
 20
38.688169
  0
VERTEX
  8
caminho-de-ferro
 10
-9.327535
 20
38.688153
  0
VERTEX
  8
caminho-de-ferro
 10
-9.328386
 20
38.688123
  0
SEQEND
  0
POLYLINE
  8
caminho-de-ferro
  6
BYLAYER
 66
1
 70
0
 40
0.000000
 41
0.000000
  0
VERTEX
  8
caminho-de-ferro
 10
-9.324151
 20
38.688339
  0
VERTEX
  8
caminho-de-ferro
 10
-9.324469
 20
38.688324
  0
VERTEX
  8
caminho-de-ferro
 10
-9.325440
 20
38.688280
  0
VERTEX
  8
caminho-de-ferro
 10
-9.326003
 20
38.688255
  0
VERTEX
  8
caminho-de-ferro
 10
-9.326466
 20
38.688232
  0
VERTEX
  8
caminho-de-ferro
 10
-9.326824
 20
38.688217
  0
VERTEX
  8
caminho-de-ferro
 10
-9.327177
 20
38.688202
  0
VERTEX
  8
caminho-de-ferro
 10
-9.327553
 20
38.688186
  0
VERTEX
  8
caminho-de-ferro
 10
-9.328387
 20
38.688156
  0
SEQEND
  0
POLYLINE
  8
caminho-de-ferro
  6
BYLAYER
 66
1
 70
0
 40
0.000000
 41
0.000000
  0
VERTEX
  8
caminho-de-ferro
 10
-9.382808
 20
38.699160
  0
VERTEX
  8
caminho-de-ferro
 10
-9.383109
 20
38.699541
  0
VERTEX
  8
caminho-de-ferro
 10
-9.383202
 20
38.699656
  0
VERTEX
  8
caminho-de-ferro
 10
-9.383299
 20
38.699769
  0
VERTEX
  8
caminho-de-ferro
 10
-9.383403
 20
38.699879
  0
VERTEX
  8
caminho-de-ferro
 10
-9.383511
 20
38.699986
  0
VERTEX
  8
caminho-de-ferro
 10
-9.383623
 20
38.700089
  0
VERTEX
  8
caminho-de-ferro
 10
-9.383741
 20
38.700190
  0
VERTEX
  8
caminho-de-ferro
 10
-9.383762
 20
38.700206
  0
SEQEND
  0
POLYLINE
  8
caminho-de-ferro
  6
BYLAYER
 66
1
 70
0
 40
0.000000
 41
0.000000
  0
VERTEX
  8
caminho-de-ferro
 10
-9.382845
 20
38.699142
  0
VERTEX
  8
caminho-de-ferro
 10
-9.383164
 20
38.699542
  0
VERTEX
  8
caminho-de-ferro
 10
-9.383247
 20
38.699644
  0
VERTEX
  8
caminho-de-ferro
 10
-9.383333
 20
38.699744
  0
VERTEX
  8
caminho-de-ferro
 10
-9.383423
 20
38.699841
  0
VERTEX
  8
caminho-de-ferro
 10
-9.383517
 20
38.699937
  0
VERTEX
  8
caminho-de-ferro
 10
-9.383615
 20
38.700030
  0
VERTEX
  8
caminho-de-ferro
 10
-9.383717
 20
38.700121
  0
VERTEX
  8
caminho-de-ferro
 10
-9.383762
 20
38.700157
  0
SEQEND
  0
POLYLINE
  8
caminho-de-ferro
  6
BYLAYER
 66
1
 70
0
 40
0.000000
 41
0.000000
  0
VERTEX
  8
caminho-de-ferro
 10
-9.381483
 20
38.697787
  0
VERTEX
  8
caminho-de-ferro
 10
-9.381563
 20
38.697843
  0
VERTEX
  8
caminho-de-ferro
 10
-9.381688
 20
38.697936
  0
VERTEX
  8
caminho-de-ferro
 10
-9.381821
 20
38.698045
  0
VERTEX
  8
caminho-de-ferro
 10
-9.381857
 20
38.698077
  0
VERTEX
  8
caminho-de-ferro
 10
-9.381949
 20
38.698159
  0
VERTEX
  8
caminho-de-ferro
 10
-9.382070
 20
38.698277
  0
VERTEX
  8
caminho-de-ferro
 10
-9.382185
 20
38.698398
  0
VERTEX
  8
caminho-de-ferro
 10
-9.382269
 20
38.698495
  0
VERTEX
  8
caminho-de-ferro
 10
-9.382353
 20
38.698593
  0
VERTEX
  8
caminho-de-ferro
 10
-9.382435
 20
38.698692
  0
VERTEX
  8
caminho-de-ferro
 10
-9.382517
 20
38.698791
  0
VERTEX
  8
caminho-de-ferro
 10
-9.382808
 20
38.699160
  0
SEQEND
  0
POLYLINE
  8
caminho-de-ferro
  6
BYLAYER
 66
1
 70
0
 40
0.000000
 41
0.000000
  0
VERTEX
  8
caminho-de-ferro
 10
-9.381547
 20
38.697786
  0
VERTEX
  8
caminho-de-ferro
 10
-9.381662
 20
38.697868
  0
VERTEX
  8
caminho-de-ferro
 10
-9.381796
 20
38.697973
  0
VERTEX
  8
caminho-de-ferro
 10
-9.381882
 20
38.698047
  0
VERTEX
  8
caminho-de-ferro
 10
-9.381925
 20
38.698083
  0
VERTEX
  8
caminho-de-ferro
 10
-9.382046
 20
38.698197
  0
VERTEX
  8
caminho-de-ferro
 10
-9.382171
 20
38.698326
  0
VERTEX
  8
caminho-de-ferro
 10
-9.382290
 20
38.698457
  0
VERTEX
  8
caminho-de-ferro
 10
-9.382406
 20
38.698591
  0
VERTEX
  8
caminho-de-ferro
 10
-9.382516
 20
38.698727
  0
VERTEX
  8
caminho-de-ferro
 10
-9.382840
 20
38.699135
  0
VERTEX
  8
caminho-de-ferro
 10
-9.382845
 20
38.699142
  0
SEQEND
  0
POLYLINE
  8
caminho-de-ferro
  6
BYLAYER
 66
1
 70
0
 40
0.000000
 41
0.000000
  0
VERTEX
  8
caminho-de-ferro
 10
-9.347713
 20
38.687440
  0
VERTEX
  8
caminho-de-ferro
 10
-9.347900
 20
38.687433
  0
VERTEX
  8
caminho-de-ferro
 10
-9.348244
 20
38.687423
  0
VERTEX
  8
caminho-de-ferro
 10
-9.348621
 20
38.687418
  0
VERTEX
  8
caminho-de-ferro
 10
-9.348947
 20
38.687422
  0
VERTEX
  8
caminho-de-ferro
 10
-9.349159
 20
38.687433
  0
VERTEX
  8
caminho-de-ferro
 10
-9.349452
 20
38.687453
  0
VERTEX
  8
caminho-de-ferro
 10
-9.349641
 20
38.687470
  0
VERTEX
  8
caminho-de-ferro
 10
-9.349934
 20
38.687509
  0
VERTEX
  8
caminho-de-ferro
 10
-9.350225
 20
38.687557
  0
VERTEX
  8
caminho-de-ferro
 10
-9.350513
 20
38.687617
  0
VERTEX
  8
caminho-de-ferro
 10
-9.350817
 20
38.687691
  0
VERTEX
  8
caminho-de-ferro
 10
-9.351106
 20
38.687775
  0
VERTEX
  8
caminho-de-ferro
 10
-9.351713
 20
38.687980
  0
VERTEX
  8
caminho-de-ferro
 10
-9.352022
 20
38.688094
  0
VERTEX
  8
caminho-de-ferro
 10
-9.352103
 20
38.688124
  0
VERTEX
  8
caminho-de-ferro
 10
-9.352787
 20
38.688376
  0
VERTEX
  8
caminho-de-ferro
 10
-9.353093
 20
38.688493
  0
VERTEX
  8
caminho-de-ferro
 10
-9.353671
 20
38.688702
  0
VERTEX
  8
caminho-de-ferro
 10
-9.353936
 20
38.688801
  0
VERTEX
  8
caminho-de-ferro
 10
-9.354151
 20
38.688880
  0
VERTEX
  8
caminho-de-ferro
 10
-9.354372
 20
38.688964
  0
VERTEX
  8
caminho-de-ferro
 10
-9.354639
 20
38.689063
  0
SEQEND
  0
POLYLINE
  8
caminho-de-ferro
  6
BYLAYER
 66
1
 70
0
 40
0.000000
 41
0.000000
  0
VERTEX
  8
caminho-de-ferro
 10
-9.347727
 20
38.687474
  0
VERTEX
  8
caminho-de-ferro
 10
-9.347728
 20
38.687474
  0
VERTEX
  8
caminho-de-ferro
 10
-9.348050
 20
38.687463
  0
VERTEX
  8
caminho-de-ferro
 10
-9.348327
 20
38.687458
  0
VERTEX
  8
caminho-de-ferro
 10
-9.348595
 20
38.687453
  0
VERTEX
  8
caminho-de-ferro
 10
-9.348879
 20
38.687455
  0
VERTEX
  8
caminho-de-ferro
 10
-9.349072
 20
38.687462
  0
VERTEX
  8
caminho-de-ferro
 10
-9.349271
 20
38.687474
  0
VERTEX
  8
caminho-de-ferro
 10
-9.349531
 20
38.687498
  0
VERTEX
  8
caminho-de-ferro
 10
-9.349685
 20
38.687508
  0
VERTEX
  8
caminho-de-ferro
 10
-9.350033
 20
38.687558
  0
VERTEX
  8
caminho-de-ferro
 10
-9.350325
 20
38.687612
  0
VERTEX
  8
caminho-de-ferro
 10
-9.350638
 20
38.687683
  0
VERTEX
  8
caminho-de-ferro
 10
-9.351092
 20
38.687806
  0
VERTEX
  8
caminho-de-ferro
 10
-9.351477
 20
38.687934
  0
VERTEX
  8
caminho-de-ferro
 10
-9.351841
 20
38.688064
  0
VERTEX
  8
caminho-de-ferro
 10
-9.352001
 20
38.688125
  0
VERTEX
  8
caminho-de-ferro
 10
-9.352081
 20
38.688155
  0
VERTEX
  8
caminho-de-ferro
 10
-9.352135
 20
38.688176
  0
VERTEX
  8
caminho-de-ferro
 10
-9.352412
 20
38.688276
  0
VERTEX
  8
caminho-de-ferro
 10
-9.353176
 20
38.688561
  0
VERTEX
  8
caminho-de-ferro
 10
-9.353509
 20
38.688686
  0
VERTEX
  8
caminho-de-ferro
 10
-9.353822
 20
38.688800
  0
VERTEX
  8
caminho-de-ferro
 10
-9.354114
 20
38.688908
  0
VERTEX
  8
caminho-de-ferro
 10
-9.354148
 20
38.688921
  0
VERTEX
  8
caminho-de-ferro
 10
-9.354364
 20
38.689006
  0
VERTEX
  8
caminho-de-ferro
 10
-9.354524
 20
38.689064
  0
SEQEND
  0
POLYLINE
  8
caminho-de-ferro
  6
BYLAYER
 66
1
 70
0
 40
0.000000
 41
0.000000
  0
VERTEX
  8
caminho-de-ferro
 10
-9.347712
 20
38.687474
  0
VERTEX
  8
caminho-de-ferro
 10
-9.347651
 20
38.687476
  0
VERTEX
  8
caminho-de-ferro
 10
-9.347532
 20
38.687480
  0
VERTEX
  8
caminho-de-ferro
 10
-9.347357
 20
38.687485
  0
VERTEX
  8
caminho-de-ferro
 10
-9.347007
 20
38.687501
  0
VERTEX
  8
caminho-de-ferro
 10
-9.346764
 20
38.687509
  0
SEQEND
  0
POLYLINE
  8
caminho-de-ferro
  6
BYLAYER
 66
1
 70
0
 40
0.000000
 41
0.000000
  0
VERTEX
  8
caminho-de-ferro
 10
-9.347698
 20
38.687440
  0
VERTEX
  8
caminho-de-ferro
 10
-9.347636
 20
38.687442
  0
VERTEX
  8
caminho-de-ferro
 10
-9.347532
 20
38.687446
  0
VERTEX
  8
caminho-de-ferro
 10
-9.347525
 20
38.687446
  0
VERTEX
  8
caminho-de-ferro
 10
-9.347261
 20
38.687456
  0
VERTEX
  8
caminho-de-ferro
 10
-9.346771
 20
38.687474
  0
VERTEX
  8
caminho-de-ferro
 10
-9.346764
 20
38.687475
  0
SEQEND
  0
POLYLINE
  8
caminho-de-ferro
  6
BYLAYER
 66
1
 70
0
 40
0.000000
 41
0.000000
  0
VERTEX
  8
caminho-de-ferro
 10
-9.347713
 20
38.687440
  0
VERTEX
  8
caminho-de-ferro
 10
-9.347698
 20
38.687440
  0
SEQEND
  0
POLYLINE
  8
caminho-de-ferro
  6
BYLAYER
 66
1
 70
0
 40
0.000000
 41
0.000000
  0
VERTEX
  8
caminho-de-ferro
 10
-9.347727
 20
38.687474
  0
VERTEX
  8
caminho-de-ferro
 10
-9.347712
 20
38.687474
  0
SEQEND
  0
POLYLINE
  8
caminho-de-ferro
  6
BYLAYER
 66
1
 70
0
 40
0.000000
 41
0.000000
  0
VERTEX
  8
caminho-de-ferro
 10
-9.415509
 20
38.701266
  0
VERTEX
  8
caminho-de-ferro
 10
-9.415208
 20
38.701315
  0
SEQEND
  0
POLYLINE
  8
caminho-de-ferro
  6
BYLAYER
 66
1
 70
0
 40
0.000000
 41
0.000000
  0
VERTEX
  8
caminho-de-ferro
 10
-9.416641
 20
38.701086
  0
VERTEX
  8
caminho-de-ferro
 10
-9.415522
 20
38.701264
  0
VERTEX
  8
caminho-de-ferro
 10
-9.415509
 20
38.701266
  0
SEQEND
  0
POLYLINE
  8
caminho-de-ferro
  6
BYLAYER
 66
1
 70
0
 40
0.000000
 41
0.000000
  0
VERTEX
  8
caminho-de-ferro
 10
-9.415866
 20
38.701174
  0
VERTEX
  8
caminho-de-ferro
 10
-9.415485
 20
38.701236
  0
SEQEND
  0
POLYLINE
  8
caminho-de-ferro
  6
BYLAYER
 66
1
 70
0
 40
0.000000
 41
0.000000
  0
VERTEX
  8
caminho-de-ferro
 10
-9.418244
 20
38.700785
  0
VERTEX
  8
caminho-de-ferro
 10
-9.416270
 20
38.701109
  0
VERTEX
  8
caminho-de-ferro
 10
-9.415866
 20
38.701174
  0
SEQEND
  0
POLYLINE
  8
caminho-de-ferro
  6
BYLAYER
 66
1
 70
0
 40
0.000000
 41
0.000000
  0
VERTEX
  8
caminho-de-ferro
 10
-9.415761
 20
38.701268
  0
VERTEX
  8
caminho-de-ferro
 10
-9.415800
 20
38.701263
  0
VERTEX
  8
caminho-de-ferro
 10
-9.415862
 20
38.701253
  0
VERTEX
  8
caminho-de-ferro
 10
-9.415931
 20
38.701243
  0
VERTEX
  8
caminho-de-ferro
 10
-9.416168
 20
38.701201
  0
VERTEX
  8
caminho-de-ferro
 10
-9.416695
 20
38.701117
  0
VERTEX
  8
caminho-de-ferro
 10
-9.418263
 20
38.700859
  0
SEQEND
  0
POLYLINE
  8
caminho-de-ferro
  6
BYLAYER
 66
1
 70
0
 40
0.000000
 41
0.000000
  0
VERTEX
  8
caminho-de-ferro
 10
-9.415208
 20
38.701315
  0
VERTEX
  8
caminho-de-ferro
 10
-9.415645
 20
38.701281
  0
VERTEX
  8
caminho-de-ferro
 10
-9.415676
 20
38.701278
  0
VERTEX
  8
caminho-de-ferro
 10
-9.415738
 20
38.701271
  0
VERTEX
  8
caminho-de-ferro
 10
-9.415761
 20
38.701268
  0
SEQEND
  0
POLYLINE
  8
caminho-de-ferro
  6
BYLAYER
 66
1
 70
0
 40
0.000000
 41
0.000000
  0
VERTEX
  8
caminho-de-ferro
 10
-9.416167
 20
38.701237
  0
VERTEX
  8
caminho-de-ferro
 10
-9.415927
 20
38.701277
  0
VERTEX
  8
caminho-de-ferro
 10
-9.415670
 20
38.701309
  0
VERTEX
  8
caminho-de-ferro
 10
-9.415580
 20
38.701317
  0
VERTEX
  8
caminho-de-ferro
 10
-9.415211
 20
38.701348
  0
VERTEX
  8
caminho-de-ferro
 10
-9.414857
 20
38.701372
  0
VERTEX
  8
caminho-de-ferro
 10
-9.414857
 20
38.701372
  0
SEQEND
  0
POLYLINE
  8
caminho-de-ferro
  6
BYLAYER
 66
1
 70
0
 40
0.000000
 41
0.000000
  0
VERTEX
  8
caminho-de-ferro
 10
-9.418273
 20
38.700894
  0
VERTEX
  8
caminho-de-ferro
 10
-9.416704
 20
38.701151
  0
VERTEX
  8
caminho-de-ferro
 10
-9.416167
 20
38.701237
  0
SEQEND
  0
POLYLINE
  8
caminho-de-ferro
  6
BYLAYER
 66
1
 70
0
 40
0.000000
 41
0.000000
  0
VERTEX
  8
caminho-de-ferro
 10
-9.415509
 20
38.701266
  0
VERTEX
  8
caminho-de-ferro
 10
-9.415866
 20
38.701174
  0
SEQEND
  0
POLYLINE
  8
caminho-de-ferro
  6
BYLAYER
 66
1
 70
0
 40
0.000000
 41
0.000000
  0
VERTEX
  8
caminho-de-ferro
 10
-9.415761
 20
38.701268
  0
VERTEX
  8
caminho-de-ferro
 10
-9.415957
 20
38.701252
  0
VERTEX
  8
caminho-de-ferro
 10
-9.416167
 20
38.701237
  0
SEQEND
  0
POLYLINE
  8
caminho-de-ferro
  6
BYLAYER
 66
1
 70
0
 40
0.000000
 41
0.000000
  0
VERTEX
  8
caminho-de-ferro
 10
-9.414857
 20
38.701372
  0
VERTEX
  8
caminho-de-ferro
 10
-9.414422
 20
38.701404
  0
SEQEND
  0
POLYLINE
  8
caminho-de-ferro
  6
BYLAYER
 66
1
 70
0
 40
0.000000
 41
0.000000
  0
VERTEX
  8
caminho-de-ferro
 10
-9.416394
 20
38.701053
  0
VERTEX
  8
caminho-de-ferro
 10
-9.418235
 20
38.700751
  0
SEQEND
  0
POLYLINE
  8
caminho-de-ferro
  6
BYLAYER
 66
1
 70
0
 40
0.000000
 41
0.000000
  0
VERTEX
  8
caminho-de-ferro
 10
-9.415208
 20
38.701315
  0
VERTEX
  8
caminho-de-ferro
 10
-9.414857
 20
38.701372
  0
SEQEND
  0
POLYLINE
  8
caminho-de-ferro
  6
BYLAYER
 66
1
 70
0
 40
0.000000
 41
0.000000
  0
VERTEX
  8
caminho-de-ferro
 10
-9.410590
 20
38.701976
  0
VERTEX
  8
caminho-de-ferro
 10
-9.410665
 20
38.701959
  0
VERTEX
  8
caminho-de-ferro
 10
-9.410794
 20
38.701933
  0
VERTEX
  8
caminho-de-ferro
 10
-9.410925
 20
38.701910
  0
VERTEX
  8
caminho-de-ferro
 10
-9.411379
 20
38.701845
  0
SEQEND
  0
POLYLINE
  8
caminho-de-ferro
  6
BYLAYER
 66
1
 70
0
 40
0.000000
 41
0.000000
  0
VERTEX
  8
caminho-de-ferro
 10
-9.410436
 20
38.701977
  0
VERTEX
  8
caminho-de-ferro
 10
-9.410524
 20
38.701956
  0
VERTEX
  8
caminho-de-ferro
 10
-9.410654
 20
38.701927
  0
VERTEX
  8
caminho-de-ferro
 10
-9.410784
 20
38.701901
  0
VERTEX
  8
caminho-de-ferro
 10
-9.410916
 20
38.701878
  0
VERTEX
  8
caminho-de-ferro
 10
-9.411378
 20
38.701811
  0
SEQEND
  0
POLYLINE
  8
caminho-de-ferro
  6
BYLAYER
 66
1
 70
0
 40
0.000000
 41
0.000000
  0
VERTEX
  8
caminho-de-ferro
 10
-9.412841
 20
38.701615
  0
VERTEX
  8
caminho-de-ferro
 10
-9.413472
 20
38.701533
  0
VERTEX
  8
caminho-de-ferro
 10
-9.414298
 20
38.701422
  0
VERTEX
  8
caminho-de-ferro
 10
-9.414422
 20
38.701404
  0
SEQEND
  0
POLYLINE
  8
caminho-de-ferro
  6
BYLAYER
 66
1
 70
0
 40
0.000000
 41
0.000000
  0
VERTEX
  8
caminho-de-ferro
 10
-9.412864
 20
38.701646
  0
VERTEX
  8
caminho-de-ferro
 10
-9.413479
 20
38.701565
  0
VERTEX
  8
caminho-de-ferro
 10
-9.414305
 20
38.701454
  0
VERTEX
  8
caminho-de-ferro
 10
-9.414753
 20
38.701389
  0
VERTEX
  8
caminho-de-ferro
 10
-9.414857
 20
38.701372
  0
SEQEND
  0
POLYLINE
  8
caminho-de-ferro
  6
BYLAYER
 66
1
 70
0
 40
0.000000
 41
0.000000
  0
VERTEX
  8
caminho-de-ferro
 10
-9.415485
 20
38.701236
  0
VERTEX
  8
caminho-de-ferro
 10
-9.414745
 20
38.701357
  0
VERTEX
  8
caminho-de-ferro
 10
-9.414422
 20
38.701404
  0
SEQEND
  0
POLYLINE
  8
caminho-de-ferro
  6
BYLAYER
 66
1
 70
0
 40
0.000000
 41
0.000000
  0
VERTEX
  8
caminho-de-ferro
 10
-9.416769
 20
38.700953
  0
VERTEX
  8
caminho-de-ferro
 10
-9.416671
 20
38.700973
  0
VERTEX
  8
caminho-de-ferro
 10
-9.416573
 20
38.700991
  0
VERTEX
  8
caminho-de-ferro
 10
-9.416474
 20
38.701007
  0
VERTEX
  8
caminho-de-ferro
 10
-9.416343
 20
38.701027
  0
VERTEX
  8
caminho-de-ferro
 10
-9.416310
 20
38.701033
  0
VERTEX
  8
caminho-de-ferro
 10
-9.416271
 20
38.701041
  0
SEQEND
  0
POLYLINE
  8
caminho-de-ferro
  6
BYLAYER
 66
1
 70
0
 40
0.000000
 41
0.000000
  0
VERTEX
  8
caminho-de-ferro
 10
-9.416769
 20
38.700953
  0
VERTEX
  8
caminho-de-ferro
 10
-9.416931
 20
38.700911
  0
VERTEX
  8
caminho-de-ferro
 10
-9.416981
 20
38.700897
  0
VERTEX
  8
caminho-de-ferro
 10
-9.417031
 20
38.700884
  0
VERTEX
  8
caminho-de-ferro
 10
-9.417108
 20
38.700866
  0
VERTEX
  8
caminho-de-ferro
 10
-9.417159
 20
38.700856
  0
VERTEX
  8
caminho-de-ferro
 10
-9.417211
 20
38.700847
  0
VERTEX
  8
caminho-de-ferro
 10
-9.418010
 20
38.700714
  0
SEQEND
  0
POLYLINE
  8
caminho-de-ferro
  6
BYLAYER
 66
1
 70
0
 40
0.000000
 41
0.000000
  0
VERTEX
  8
caminho-de-ferro
 10
-9.416394
 20
38.701053
  0
VERTEX
  8
caminho-de-ferro
 10
-9.416589
 20
38.701000
  0
VERTEX
  8
caminho-de-ferro
 10
-9.416769
 20
38.700953
  0
SEQEND
  0
POLYLINE
  8
caminho-de-ferro
  6
BYLAYER
 66
1
 70
0
 40
0.000000
 41
0.000000
  0
VERTEX
  8
caminho-de-ferro
 10
-9.415830
 20
38.701145
  0
VERTEX
  8
caminho-de-ferro
 10
-9.415768
 20
38.701164
  0
VERTEX
  8
caminho-de-ferro
 10
-9.415674
 20
38.701190
  0
VERTEX
  8
caminho-de-ferro
 10
-9.415580
 20
38.701214
  0
VERTEX
  8
caminho-de-ferro
 10
-9.415485
 20
38.701236
  0
SEQEND
  0
POLYLINE
  8
caminho-de-ferro
  6
BYLAYER
 66
1
 70
0
 40
0.000000
 41
0.000000
  0
VERTEX
  8
caminho-de-ferro
 10
-9.415830
 20
38.701145
  0
VERTEX
  8
caminho-de-ferro
 10
-9.416261
 20
38.701075
  0
VERTEX
  8
caminho-de-ferro
 10
-9.416394
 20
38.701053
  0
SEQEND
  0
POLYLINE
  8
caminho-de-ferro
  6
BYLAYER
 66
1
 70
0
 40
0.000000
 41
0.000000
  0
VERTEX
  8
caminho-de-ferro
 10
-9.416271
 20
38.701041
  0
VERTEX
  8
caminho-de-ferro
 10
-9.416246
 20
38.701045
  0
VERTEX
  8
caminho-de-ferro
 10
-9.416214
 20
38.701052
  0
VERTEX
  8
caminho-de-ferro
 10
-9.416150
 20
38.701067
  0
VERTEX
  8
caminho-de-ferro
 10
-9.416088
 20
38.701083
  0
VERTEX
  8
caminho-de-ferro
 10
-9.415830
 20
38.701145
  0
SEQEND
  0
POLYLINE
  8
caminho-de-ferro
  6
BYLAYER
 66
1
 70
0
 40
0.000000
 41
0.000000
  0
VERTEX
  8
caminho-de-ferro
 10
-9.418002
 20
38.700683
  0
VERTEX
  8
caminho-de-ferro
 10
-9.417200
 20
38.700808
  0
VERTEX
  8
caminho-de-ferro
 10
-9.417147
 20
38.700818
  0
VERTEX
  8
caminho-de-ferro
 10
-9.417094
 20
38.700828
  0
VERTEX
  8
caminho-de-ferro
 10
-9.417016
 20
38.700846
  0
VERTEX
  8
caminho-de-ferro
 10
-9.416637
 20
38.700946
  0
VERTEX
  8
caminho-de-ferro
 10
-9.416471
 20
38.700988
  0
VERTEX
  8
caminho-de-ferro
 10
-9.416271
 20
38.701041
  0
SEQEND
  0
POLYLINE
  8
caminho-de-ferro
  6
BYLAYER
 66
1
 70
0
 40
0.000000
 41
0.000000
  0
VERTEX
  8
caminho-de-ferro
 10
-9.411378
 20
38.701811
  0
VERTEX
  8
caminho-de-ferro
 10
-9.411656
 20
38.701771
  0
VERTEX
  8
caminho-de-ferro
 10
-9.412620
 20
38.701644
  0
VERTEX
  8
caminho-de-ferro
 10
-9.412841
 20
38.701615
  0
SEQEND
  0
POLYLINE
  8
caminho-de-ferro
  6
BYLAYER
 66
1
 70
0
 40
0.000000
 41
0.000000
  0
VERTEX
  8
caminho-de-ferro
 10
-9.411379
 20
38.701845
  0
VERTEX
  8
caminho-de-ferro
 10
-9.411664
 20
38.701804
  0
VERTEX
  8
caminho-de-ferro
 10
-9.412627
 20
38.701677
  0
VERTEX
  8
caminho-de-ferro
 10
-9.412864
 20
38.701646
  0
SEQEND
  0
POLYLINE
  8
caminho-de-ferro
  6
BYLAYER
 66
1
 70
0
 40
0.000000
 41
0.000000
  0
VERTEX
  8
caminho-de-ferro
 10
-9.402213
 20
38.703564
  0
VERTEX
  8
caminho-de-ferro
 10
-9.402566
 20
38.703613
  0
VERTEX
  8
caminho-de-ferro
 10
-9.403438
 20
38.703754
  0
VERTEX
  8
caminho-de-ferro
 10
-9.403951
 20
38.703834
  0
VERTEX
  8
caminho-de-ferro
 10
-9.404031
 20
38.703844
  0
VERTEX
  8
caminho-de-ferro
 10
-9.404087
 20
38.703851
  0
VERTEX
  8
caminho-de-ferro
 10
-9.404111
 20
38.703853
  0
VERTEX
  8
caminho-de-ferro
 10
-9.404191
 20
38.703862
  0
VERTEX
  8
caminho-de-ferro
 10
-9.404271
 20
38.703869
  0
VERTEX
  8
caminho-de-ferro
 10
-9.404351
 20
38.703876
  0
VERTEX
  8
caminho-de-ferro
 10
-9.404431
 20
38.703881
  0
VERTEX
  8
caminho-de-ferro
 10
-9.404512
 20
38.703886
  0
VERTEX
  8
caminho-de-ferro
 10
-9.404592
 20
38.703890
  0
VERTEX
  8
caminho-de-ferro
 10
-9.404673
 20
38.703893
  0
VERTEX
  8
caminho-de-ferro
 10
-9.404754
 20
38.703895
  0
VERTEX
  8
caminho-de-ferro
 10
-9.404835
 20
38.703896
  0
VERTEX
  8
caminho-de-ferro
 10
-9.404918
 20
38.703895
  0
VERTEX
  8
caminho-de-ferro
 10
-9.405001
 20
38.703891
  0
VERTEX
  8
caminho-de-ferro
 10
-9.405085
 20
38.703887
  0
VERTEX
  8
caminho-de-ferro
 10
-9.405168
 20
38.703881
  0
VERTEX
  8
caminho-de-ferro
 10
-9.405251
 20
38.703874
  0
VERTEX
  8
caminho-de-ferro
 10
-9.405334
 20
38.703866
  0
VERTEX
  8
caminho-de-ferro
 10
-9.405416
 20
38.703856
  0
VERTEX
  8
caminho-de-ferro
 10
-9.405499
 20
38.703845
  0
VERTEX
  8
caminho-de-ferro
 10
-9.405581
 20
38.703833
  0
VERTEX
  8
caminho-de-ferro
 10
-9.405663
 20
38.703819
  0
VERTEX
  8
caminho-de-ferro
 10
-9.405744
 20
38.703804
  0
VERTEX
  8
caminho-de-ferro
 10
-9.405822
 20
38.703789
  0
VERTEX
  8
caminho-de-ferro
 10
-9.405899
 20
38.703772
  0
VERTEX
  8
caminho-de-ferro
 10
-9.405976
 20
38.703755
  0
VERTEX
  8
caminho-de-ferro
 10
-9.406053
 20
38.703735
  0
VERTEX
  8
caminho-de-ferro
 10
-9.406129
 20
38.703715
  0
VERTEX
  8
caminho-de-ferro
 10
-9.406205
 20
38.703693
  0
VERTEX
  8
caminho-de-ferro
 10
-9.406279
 20
38.703670
  0
VERTEX
  8
caminho-de-ferro
 10
-9.406354
 20
38.703645
  0
VERTEX
  8
caminho-de-ferro
 10
-9.406427
 20
38.703619
  0
VERTEX
  8
caminho-de-ferro
 10
-9.406500
 20
38.703592
  0
VERTEX
  8
caminho-de-ferro
 10
-9.406571
 20
38.703564
  0
VERTEX
  8
caminho-de-ferro
 10
-9.406645
 20
38.703533
  0
VERTEX
  8
caminho-de-ferro
 10
-9.406717
 20
38.703502
  0
VERTEX
  8
caminho-de-ferro
 10
-9.406789
 20
38.703469
  0
VERTEX
  8
caminho-de-ferro
 10
-9.406860
 20
38.703436
  0
VERTEX
  8
caminho-de-ferro
 10
-9.406931
 20
38.703402
  0
VERTEX
  8
caminho-de-ferro
 10
-9.407000
 20
38.703367
  0
VERTEX
  8
caminho-de-ferro
 10
-9.407069
 20
38.703331
  0
VERTEX
  8
caminho-de-ferro
 10
-9.407138
 20
38.703294
  0
VERTEX
  8
caminho-de-ferro
 10
-9.407205
 20
38.703256
  0
VERTEX
  8
caminho-de-ferro
 10
-9.407272
 20
38.703217
  0
VERTEX
  8
caminho-de-ferro
 10
-9.407666
 20
38.702981
  0
VERTEX
  8
caminho-de-ferro
 10
-9.407712
 20
38.702954
  0
VERTEX
  8
caminho-de-ferro
 10
-9.407806
 20
38.702902
  0
VERTEX
  8
caminho-de-ferro
 10
-9.407950
 20
38.702825
  0
VERTEX
  8
caminho-de-ferro
 10
-9.408048
 20
38.702776
  0
VERTEX
  8
caminho-de-ferro
 10
-9.408146
 20
38.702728
  0
VERTEX
  8
caminho-de-ferro
 10
-9.408196
 20
38.702705
  0
VERTEX
  8
caminho-de-ferro
 10
-9.408263
 20
38.702676
  0
VERTEX
  8
caminho-de-ferro
 10
-9.408331
 20
38.702647
  0
VERTEX
  8
caminho-de-ferro
 10
-9.408400
 20
38.702619
  0
VERTEX
  8
caminho-de-ferro
 10
-9.408469
 20
38.702592
  0
VERTEX
  8
caminho-de-ferro
 10
-9.408539
 20
38.702566
  0
VERTEX
  8
caminho-de-ferro
 10
-9.408633
 20
38.702534
  0
VERTEX
  8
caminho-de-ferro
 10
-9.408728
 20
38.702503
  0
VERTEX
  8
caminho-de-ferro
 10
-9.408871
 20
38.702457
  0
VERTEX
  8
caminho-de-ferro
 10
-9.408967
 20
38.702428
  0
VERTEX
  8
caminho-de-ferro
 10
-9.409064
 20
38.702400
  0
VERTEX
  8
caminho-de-ferro
 10
-9.409749
 20
38.702205
  0
VERTEX
  8
caminho-de-ferro
 10
-9.410218
 20
38.702070
  0
VERTEX
  8
caminho-de-ferro
 10
-9.410281
 20
38.702052
  0
VERTEX
  8
caminho-de-ferro
 10
-9.410408
 20
38.702019
  0
VERTEX
  8
caminho-de-ferro
 10
-9.410536
 20
38.701988
  0
VERTEX
  8
caminho-de-ferro
 10
-9.410590
 20
38.701976
  0
SEQEND
  0
POLYLINE
  8
caminho-de-ferro
  6
BYLAYER
 66
1
 70
0
 40
0.000000
 41
0.000000
  0
VERTEX
  8
caminho-de-ferro
 10
-9.402213
 20
38.703531
  0
VERTEX
  8
caminho-de-ferro
 10
-9.402574
 20
38.703581
  0
VERTEX
  8
caminho-de-ferro
 10
-9.403446
 20
38.703722
  0
VERTEX
  8
caminho-de-ferro
 10
-9.403959
 20
38.703802
  0
VERTEX
  8
caminho-de-ferro
 10
-9.404037
 20
38.703812
  0
VERTEX
  8
caminho-de-ferro
 10
-9.404102
 20
38.703819
  0
VERTEX
  8
caminho-de-ferro
 10
-9.404116
 20
38.703821
  0
VERTEX
  8
caminho-de-ferro
 10
-9.404196
 20
38.703829
  0
VERTEX
  8
caminho-de-ferro
 10
-9.404275
 20
38.703837
  0
VERTEX
  8
caminho-de-ferro
 10
-9.404355
 20
38.703843
  0
VERTEX
  8
caminho-de-ferro
 10
-9.404435
 20
38.703849
  0
VERTEX
  8
caminho-de-ferro
 10
-9.404515
 20
38.703853
  0
VERTEX
  8
caminho-de-ferro
 10
-9.404595
 20
38.703857
  0
VERTEX
  8
caminho-de-ferro
 10
-9.404675
 20
38.703860
  0
VERTEX
  8
caminho-de-ferro
 10
-9.404755
 20
38.703862
  0
VERTEX
  8
caminho-de-ferro
 10
-9.404834
 20
38.703863
  0
VERTEX
  8
caminho-de-ferro
 10
-9.404916
 20
38.703862
  0
VERTEX
  8
caminho-de-ferro
 10
-9.404999
 20
38.703859
  0
VERTEX
  8
caminho-de-ferro
 10
-9.405081
 20
38.703854
  0
VERTEX
  8
caminho-de-ferro
 10
-9.405164
 20
38.703848
  0
VERTEX
  8
caminho-de-ferro
 10
-9.405246
 20
38.703841
  0
VERTEX
  8
caminho-de-ferro
 10
-9.405328
 20
38.703833
  0
VERTEX
  8
caminho-de-ferro
 10
-9.405410
 20
38.703823
  0
VERTEX
  8
caminho-de-ferro
 10
-9.405491
 20
38.703812
  0
VERTEX
  8
caminho-de-ferro
 10
-9.405572
 20
38.703800
  0
VERTEX
  8
caminho-de-ferro
 10
-9.405653
 20
38.703787
  0
VERTEX
  8
caminho-de-ferro
 10
-9.405734
 20
38.703772
  0
VERTEX
  8
caminho-de-ferro
 10
-9.405811
 20
38.703757
  0
VERTEX
  8
caminho-de-ferro
 10
-9.405888
 20
38.703741
  0
VERTEX
  8
caminho-de-ferro
 10
-9.405964
 20
38.703723
  0
VERTEX
  8
caminho-de-ferro
 10
-9.406040
 20
38.703704
  0
VERTEX
  8
caminho-de-ferro
 10
-9.406115
 20
38.703684
  0
VERTEX
  8
caminho-de-ferro
 10
-9.406190
 20
38.703662
  0
VERTEX
  8
caminho-de-ferro
 10
-9.406264
 20
38.703639
  0
VERTEX
  8
caminho-de-ferro
 10
-9.406337
 20
38.703615
  0
VERTEX
  8
caminho-de-ferro
 10
-9.406409
 20
38.703589
  0
VERTEX
  8
caminho-de-ferro
 10
-9.406481
 20
38.703563
  0
VERTEX
  8
caminho-de-ferro
 10
-9.406552
 20
38.703534
  0
VERTEX
  8
caminho-de-ferro
 10
-9.406625
 20
38.703504
  0
VERTEX
  8
caminho-de-ferro
 10
-9.406697
 20
38.703473
  0
VERTEX
  8
caminho-de-ferro
 10
-9.406768
 20
38.703441
  0
VERTEX
  8
caminho-de-ferro
 10
-9.406838
 20
38.703408
  0
VERTEX
  8
caminho-de-ferro
 10
-9.406908
 20
38.703374
  0
VERTEX
  8
caminho-de-ferro
 10
-9.406977
 20
38.703339
  0
VERTEX
  8
caminho-de-ferro
 10
-9.407046
 20
38.703303
  0
VERTEX
  8
caminho-de-ferro
 10
-9.407114
 20
38.703267
  0
VERTEX
  8
caminho-de-ferro
 10
-9.407180
 20
38.703229
  0
VERTEX
  8
caminho-de-ferro
 10
-9.407246
 20
38.703191
  0
VERTEX
  8
caminho-de-ferro
 10
-9.407640
 20
38.702955
  0
VERTEX
  8
caminho-de-ferro
 10
-9.407687
 20
38.702928
  0
VERTEX
  8
caminho-de-ferro
 10
-9.407782
 20
38.702874
  0
VERTEX
  8
caminho-de-ferro
 10
-9.407879
 20
38.702823
  0
VERTEX
  8
caminho-de-ferro
 10
-9.407927
 20
38.702797
  0
VERTEX
  8
caminho-de-ferro
 10
-9.408025
 20
38.702748
  0
VERTEX
  8
caminho-de-ferro
 10
-9.408125
 20
38.702700
  0
VERTEX
  8
caminho-de-ferro
 10
-9.408175
 20
38.702676
  0
VERTEX
  8
caminho-de-ferro
 10
-9.408243
 20
38.702647
  0
VERTEX
  8
caminho-de-ferro
 10
-9.408312
 20
38.702618
  0
VERTEX
  8
caminho-de-ferro
 10
-9.408381
 20
38.702590
  0
VERTEX
  8
caminho-de-ferro
 10
-9.408451
 20
38.702563
  0
VERTEX
  8
caminho-de-ferro
 10
-9.408521
 20
38.702536
  0
VERTEX
  8
caminho-de-ferro
 10
-9.408616
 20
38.702504
  0
VERTEX
  8
caminho-de-ferro
 10
-9.408712
 20
38.702472
  0
VERTEX
  8
caminho-de-ferro
 10
-9.408856
 20
38.702427
  0
VERTEX
  8
caminho-de-ferro
 10
-9.408952
 20
38.702397
  0
VERTEX
  8
caminho-de-ferro
 10
-9.409049
 20
38.702369
  0
VERTEX
  8
caminho-de-ferro
 10
-9.409735
 20
38.702174
  0
VERTEX
  8
caminho-de-ferro
 10
-9.410204
 20
38.702039
  0
VERTEX
  8
caminho-de-ferro
 10
-9.410267
 20
38.702021
  0
VERTEX
  8
caminho-de-ferro
 10
-9.410395
 20
38.701987
  0
VERTEX
  8
caminho-de-ferro
 10
-9.410436
 20
38.701977
  0
SEQEND
  0
POLYLINE
  8
caminho-de-ferro
  6
BYLAYER
 66
1
 70
0
 40
0.000000
 41
0.000000
  0
VERTEX
  8
caminho-de-ferro
 10
-9.393011
 20
38.703197
  0
VERTEX
  8
caminho-de-ferro
 10
-9.393289
 20
38.703163
  0
VERTEX
  8
caminho-de-ferro
 10
-9.393876
 20
38.703089
  0
VERTEX
  8
caminho-de-ferro
 10
-9.394217
 20
38.703044
  0
VERTEX
  8
caminho-de-ferro
 10
-9.394219
 20
38.703044
  0
SEQEND
  0
POLYLINE
  8
caminho-de-ferro
  6
BYLAYER
 66
1
 70
0
 40
0.000000
 41
0.000000
  0
VERTEX
  8
caminho-de-ferro
 10
-9.393011
 20
38.703231
  0
VERTEX
  8
caminho-de-ferro
 10
-9.393296
 20
38.703196
  0
VERTEX
  8
caminho-de-ferro
 10
-9.393883
 20
38.703122
  0
VERTEX
  8
caminho-de-ferro
 10
-9.394224
 20
38.703077
  0
VERTEX
  8
caminho-de-ferro
 10
-9.394227
 20
38.703077
  0
SEQEND
  0
POLYLINE
  8
caminho-de-ferro
  6
BYLAYER
 66
1
 70
0
 40
0.000000
 41
0.000000
  0
VERTEX
  8
caminho-de-ferro
 10
-9.394657
 20
38.702992
  0
VERTEX
  8
caminho-de-ferro
 10
-9.394694
 20
38.702988
  0
VERTEX
  8
caminho-de-ferro
 10
-9.394803
 20
38.702982
  0
VERTEX
  8
caminho-de-ferro
 10
-9.394911
 20
38.702977
  0
VERTEX
  8
caminho-de-ferro
 10
-9.394965
 20
38.702975
  0
VERTEX
  8
caminho-de-ferro
 10
-9.395126
 20
38.702973
  0
VERTEX
  8
caminho-de-ferro
 10
-9.395287
 20
38.702974
  0
VERTEX
  8
caminho-de-ferro
 10
-9.395360
 20
38.702973
  0
VERTEX
  8
caminho-de-ferro
 10
-9.395471
 20
38.702975
  0
VERTEX
  8
caminho-de-ferro
 10
-9.395544
 20
38.702979
  0
VERTEX
  8
caminho-de-ferro
 10
-9.395581
 20
38.702982
  0
VERTEX
  8
caminho-de-ferro
 10
-9.395654
 20
38.702988
  0
VERTEX
  8
caminho-de-ferro
 10
-9.395690
 20
38.702992
  0
VERTEX
  8
caminho-de-ferro
 10
-9.396269
 20
38.703043
  0
VERTEX
  8
caminho-de-ferro
 10
-9.397037
 20
38.703105
  0
VERTEX
  8
caminho-de-ferro
 10
-9.398102
 20
38.703186
  0
VERTEX
  8
caminho-de-ferro
 10
-9.399105
 20
38.703260
  0
VERTEX
  8
caminho-de-ferro
 10
-9.399944
 20
38.703322
  0
VERTEX
  8
caminho-de-ferro
 10
-9.400562
 20
38.703369
  0
VERTEX
  8
caminho-de-ferro
 10
-9.401198
 20
38.703416
  0
VERTEX
  8
caminho-de-ferro
 10
-9.401692
 20
38.703459
  0
VERTEX
  8
caminho-de-ferro
 10
-9.402213
 20
38.703531
  0
SEQEND
  0
POLYLINE
  8
caminho-de-ferro
  6
BYLAYER
 66
1
 70
0
 40
0.000000
 41
0.000000
  0
VERTEX
  8
caminho-de-ferro
 10
-9.394663
 20
38.703025
  0
VERTEX
  8
caminho-de-ferro
 10
-9.394698
 20
38.703021
  0
VERTEX
  8
caminho-de-ferro
 10
-9.394806
 20
38.703015
  0
VERTEX
  8
caminho-de-ferro
 10
-9.394913
 20
38.703010
  0
VERTEX
  8
caminho-de-ferro
 10
-9.394966
 20
38.703008
  0
VERTEX
  8
caminho-de-ferro
 10
-9.395127
 20
38.703006
  0
VERTEX
  8
caminho-de-ferro
 10
-9.395288
 20
38.703007
  0
VERTEX
  8
caminho-de-ferro
 10
-9.395360
 20
38.703006
  0
VERTEX
  8
caminho-de-ferro
 10
-9.395432
 20
38.703007
  0
VERTEX
  8
caminho-de-ferro
 10
-9.395468
 20
38.703008
  0
VERTEX
  8
caminho-de-ferro
 10
-9.395541
 20
38.703012
  0
VERTEX
  8
caminho-de-ferro
 10
-9.395577
 20
38.703015
  0
VERTEX
  8
caminho-de-ferro
 10
-9.395649
 20
38.703021
  0
VERTEX
  8
caminho-de-ferro
 10
-9.395684
 20
38.703025
  0
VERTEX
  8
caminho-de-ferro
 10
-9.396265
 20
38.703076
  0
VERTEX
  8
caminho-de-ferro
 10
-9.397033
 20
38.703138
  0
VERTEX
  8
caminho-de-ferro
 10
-9.398098
 20
38.703219
  0
VERTEX
  8
caminho-de-ferro
 10
-9.399101
 20
38.703293
  0
VERTEX
  8
caminho-de-ferro
 10
-9.399940
 20
38.703355
  0
VERTEX
  8
caminho-de-ferro
 10
-9.400558
 20
38.703402
  0
VERTEX
  8
caminho-de-ferro
 10
-9.401194
 20
38.703449
  0
VERTEX
  8
caminho-de-ferro
 10
-9.401686
 20
38.703492
  0
VERTEX
  8
caminho-de-ferro
 10
-9.402213
 20
38.703564
  0
SEQEND
  0
POLYLINE
  8
caminho-de-ferro
  6
BYLAYER
 66
1
 70
0
 40
0.000000
 41
0.000000
  0
VERTEX
  8
caminho-de-ferro
 10
-9.388451
 20
38.702216
  0
VERTEX
  8
caminho-de-ferro
 10
-9.388968
 20
38.702419
  0
VERTEX
  8
caminho-de-ferro
 10
-9.389592
 20
38.702666
  0
VERTEX
  8
caminho-de-ferro
 10
-9.389958
 20
38.702810
  0
VERTEX
  8
caminho-de-ferro
 10
-9.390070
 20
38.702854
  0
VERTEX
  8
caminho-de-ferro
 10
-9.390126
 20
38.702875
  0
VERTEX
  8
caminho-de-ferro
 10
-9.390183
 20
38.702895
  0
VERTEX
  8
caminho-de-ferro
 10
-9.390297
 20
38.702936
  0
VERTEX
  8
caminho-de-ferro
 10
-9.390411
 20
38.702975
  0
VERTEX
  8
caminho-de-ferro
 10
-9.390468
 20
38.702994
  0
VERTEX
  8
caminho-de-ferro
 10
-9.390584
 20
38.703031
  0
VERTEX
  8
caminho-de-ferro
 10
-9.390820
 20
38.703095
  0
VERTEX
  8
caminho-de-ferro
 10
-9.390872
 20
38.703108
  0
VERTEX
  8
caminho-de-ferro
 10
-9.390980
 20
38.703132
  0
VERTEX
  8
caminho-de-ferro
 10
-9.391089
 20
38.703154
  0
VERTEX
  8
caminho-de-ferro
 10
-9.391198
 20
38.703175
  0
VERTEX
  8
caminho-de-ferro
 10
-9.391307
 20
38.703193
  0
VERTEX
  8
caminho-de-ferro
 10
-9.391418
 20
38.703210
  0
VERTEX
  8
caminho-de-ferro
 10
-9.391484
 20
38.703218
  0
VERTEX
  8
caminho-de-ferro
 10
-9.391551
 20
38.703225
  0
VERTEX
  8
caminho-de-ferro
 10
-9.391686
 20
38.703238
  0
VERTEX
  8
caminho-de-ferro
 10
-9.391718
 20
38.703240
  0
SEQEND
  0
POLYLINE
  8
caminho-de-ferro
  6
BYLAYER
 66
1
 70
0
 40
0.000000
 41
0.000000
  0
VERTEX
  8
caminho-de-ferro
 10
-9.388359
 20
38.702217
  0
VERTEX
  8
caminho-de-ferro
 10
-9.388948
 20
38.702449
  0
VERTEX
  8
caminho-de-ferro
 10
-9.389572
 20
38.702696
  0
VERTEX
  8
caminho-de-ferro
 10
-9.389939
 20
38.702840
  0
VERTEX
  8
caminho-de-ferro
 10
-9.390051
 20
38.702884
  0
VERTEX
  8
caminho-de-ferro
 10
-9.390108
 20
38.702905
  0
VERTEX
  8
caminho-de-ferro
 10
-9.390165
 20
38.702926
  0
VERTEX
  8
caminho-de-ferro
 10
-9.390279
 20
38.702967
  0
VERTEX
  8
caminho-de-ferro
 10
-9.390452
 20
38.703025
  0
VERTEX
  8
caminho-de-ferro
 10
-9.390570
 20
38.703063
  0
VERTEX
  8
caminho-de-ferro
 10
-9.390807
 20
38.703127
  0
VERTEX
  8
caminho-de-ferro
 10
-9.390860
 20
38.703140
  0
VERTEX
  8
caminho-de-ferro
 10
-9.390969
 20
38.703164
  0
VERTEX
  8
caminho-de-ferro
 10
-9.391079
 20
38.703186
  0
VERTEX
  8
caminho-de-ferro
 10
-9.391189
 20
38.703207
  0
VERTEX
  8
caminho-de-ferro
 10
-9.391299
 20
38.703226
  0
VERTEX
  8
caminho-de-ferro
 10
-9.391410
 20
38.703242
  0
VERTEX
  8
caminho-de-ferro
 10
-9.391478
 20
38.703251
  0
VERTEX
  8
caminho-de-ferro
 10
-9.391545
 20
38.703258
  0
VERTEX
  8
caminho-de-ferro
 10
-9.391613
 20
38.703265
  0
VERTEX
  8
caminho-de-ferro
 10
-9.391681
 20
38.703271
  0
VERTEX
  8
caminho-de-ferro
 10
-9.391712
 20
38.703273
  0
SEQEND
  0
POLYLINE
  8
caminho-de-ferro
  6
BYLAYER
 66
1
 70
0
 40
0.000000
 41
0.000000
  0
VERTEX
  8
caminho-de-ferro
 10
-9.393011
 20
38.703197
  0
VERTEX
  8
caminho-de-ferro
 10
-9.392775
 20
38.703226
  0
VERTEX
  8
caminho-de-ferro
 10
-9.392720
 20
38.703232
  0
VERTEX
  8
caminho-de-ferro
 10
-9.392608
 20
38.703241
  0
VERTEX
  8
caminho-de-ferro
 10
-9.392496
 20
38.703248
  0
VERTEX
  8
caminho-de-ferro
 10
-9.392440
 20
38.703251
  0
VERTEX
  8
caminho-de-ferro
 10
-9.392420
 20
38.703252
  0
VERTEX
  8
caminho-de-ferro
 10
-9.392327
 20
38.703256
  0
VERTEX
  8
caminho-de-ferro
 10
-9.392159
 20
38.703258
  0
VERTEX
  8
caminho-de-ferro
 10
-9.392091
 20
38.703257
  0
VERTEX
  8
caminho-de-ferro
 10
-9.392024
 20
38.703256
  0
VERTEX
  8
caminho-de-ferro
 10
-9.391956
 20
38.703254
  0
VERTEX
  8
caminho-de-ferro
 10
-9.391888
 20
38.703251
  0
VERTEX
  8
caminho-de-ferro
 10
-9.391753
 20
38.703243
  0
VERTEX
  8
caminho-de-ferro
 10
-9.391744
 20
38.703242
  0
VERTEX
  8
caminho-de-ferro
 10
-9.391718
 20
38.703240
  0
SEQEND
  0
POLYLINE
  8
caminho-de-ferro
  6
BYLAYER
 66
1
 70
0
 40
0.000000
 41
0.000000
  0
VERTEX
  8
caminho-de-ferro
 10
-9.393011
 20
38.703231
  0
VERTEX
  8
caminho-de-ferro
 10
-9.392781
 20
38.703259
  0
VERTEX
  8
caminho-de-ferro
 10
-9.392725
 20
38.703265
  0
VERTEX
  8
caminho-de-ferro
 10
-9.392612
 20
38.703274
  0
VERTEX
  8
caminho-de-ferro
 10
-9.392499
 20
38.703281
  0
VERTEX
  8
caminho-de-ferro
 10
-9.392442
 20
38.703284
  0
VERTEX
  8
caminho-de-ferro
 10
-9.392435
 20
38.703285
  0
VERTEX
  8
caminho-de-ferro
 10
-9.392329
 20
38.703288
  0
VERTEX
  8
caminho-de-ferro
 10
-9.392272
 20
38.703290
  0
VERTEX
  8
caminho-de-ferro
 10
-9.392159
 20
38.703291
  0
VERTEX
  8
caminho-de-ferro
 10
-9.392091
 20
38.703290
  0
VERTEX
  8
caminho-de-ferro
 10
-9.392022
 20
38.703289
  0
VERTEX
  8
caminho-de-ferro
 10
-9.391954
 20
38.703287
  0
VERTEX
  8
caminho-de-ferro
 10
-9.391886
 20
38.703284
  0
VERTEX
  8
caminho-de-ferro
 10
-9.391817
 20
38.703280
  0
VERTEX
  8
caminho-de-ferro
 10
-9.391749
 20
38.703276
  0
VERTEX
  8
caminho-de-ferro
 10
-9.391739
 20
38.703275
  0
VERTEX
  8
caminho-de-ferro
 10
-9.391712
 20
38.703273
  0
SEQEND
  0
POLYLINE
  8
caminho-de-ferro
  6
BYLAYER
 66
1
 70
0
 40
0.000000
 41
0.000000
  0
VERTEX
  8
caminho-de-ferro
 10
-9.386555
 20
38.701467
  0
VERTEX
  8
caminho-de-ferro
 10
-9.386552
 20
38.701466
  0
VERTEX
  8
caminho-de-ferro
 10
-9.386546
 20
38.701464
  0
VERTEX
  8
caminho-de-ferro
 10
-9.386462
 20
38.701431
  0
VERTEX
  8
caminho-de-ferro
 10
-9.386457
 20
38.701429
  0
SEQEND
  0
POLYLINE
  8
caminho-de-ferro
  6
BYLAYER
 66
1
 70
0
 40
0.000000
 41
0.000000
  0
VERTEX
  8
caminho-de-ferro
 10
-9.386457
 20
38.701429
  0
VERTEX
  8
caminho-de-ferro
 10
-9.386230
 20
38.701340
  0
VERTEX
  8
caminho-de-ferro
 10
-9.385732
 20
38.701142
  0
VERTEX
  8
caminho-de-ferro
 10
-9.385285
 20
38.700966
  0
VERTEX
  8
caminho-de-ferro
 10
-9.384811
 20
38.700771
  0
SEQEND
  0
POLYLINE
  8
caminho-de-ferro
  6
BYLAYER
 66
1
 70
0
 40
0.000000
 41
0.000000
  0
VERTEX
  8
caminho-de-ferro
 10
-9.386536
 20
38.701497
  0
VERTEX
  8
caminho-de-ferro
 10
-9.386532
 20
38.701496
  0
VERTEX
  8
caminho-de-ferro
 10
-9.386527
 20
38.701494
  0
VERTEX
  8
caminho-de-ferro
 10
-9.386443
 20
38.701461
  0
SEQEND
  0
POLYLINE
  8
caminho-de-ferro
  6
BYLAYER
 66
1
 70
0
 40
0.000000
 41
0.000000
  0
VERTEX
  8
caminho-de-ferro
 10
-9.386443
 20
38.701461
  0
VERTEX
  8
caminho-de-ferro
 10
-9.386211
 20
38.701370
  0
VERTEX
  8
caminho-de-ferro
 10
-9.385712
 20
38.701172
  0
VERTEX
  8
caminho-de-ferro
 10
-9.385266
 20
38.700996
  0
VERTEX
  8
caminho-de-ferro
 10
-9.384791
 20
38.700801
  0
SEQEND
  0
POLYLINE
  8
caminho-de-ferro
  6
BYLAYER
 66
1
 70
0
 40
0.000000
 41
0.000000
  0
VERTEX
  8
caminho-de-ferro
 10
-9.383762
 20
38.700157
  0
VERTEX
  8
caminho-de-ferro
 10
-9.383834
 20
38.700215
  0
VERTEX
  8
caminho-de-ferro
 10
-9.383956
 20
38.700306
  0
VERTEX
  8
caminho-de-ferro
 10
-9.384082
 20
38.700392
  0
VERTEX
  8
caminho-de-ferro
 10
-9.384213
 20
38.700474
  0
VERTEX
  8
caminho-de-ferro
 10
-9.384348
 20
38.700552
  0
VERTEX
  8
caminho-de-ferro
 10
-9.384488
 20
38.700625
  0
VERTEX
  8
caminho-de-ferro
 10
-9.384631
 20
38.700693
  0
VERTEX
  8
caminho-de-ferro
 10
-9.384778
 20
38.700757
  0
VERTEX
  8
caminho-de-ferro
 10
-9.384781
 20
38.700758
  0
SEQEND
  0
POLYLINE
  8
caminho-de-ferro
  6
BYLAYER
 66
1
 70
0
 40
0.000000
 41
0.000000
  0
VERTEX
  8
caminho-de-ferro
 10
-9.383762
 20
38.700206
  0
VERTEX
  8
caminho-de-ferro
 10
-9.383857
 20
38.700279
  0
VERTEX
  8
caminho-de-ferro
 10
-9.383978
 20
38.700365
  0
VERTEX
  8
caminho-de-ferro
 10
-9.384102
 20
38.700447
  0
VERTEX
  8
caminho-de-ferro
 10
-9.384231
 20
38.700526
  0
VERTEX
  8
caminho-de-ferro
 10
-9.384363
 20
38.700600
  0
VERTEX
  8
caminho-de-ferro
 10
-9.384500
 20
38.700670
  0
VERTEX
  8
caminho-de-ferro
 10
-9.384639
 20
38.700736
  0
VERTEX
  8
caminho-de-ferro
 10
-9.384762
 20
38.700789
  0
SEQEND
  0
POLYLINE
  8
caminho-de-ferro
  6
BYLAYER
 66
1
 70
0
 40
0.000000
 41
0.000000
  0
VERTEX
  8
caminho-de-ferro
 10
-9.386555
 20
38.701467
  0
VERTEX
  8
caminho-de-ferro
 10
-9.386807
 20
38.701566
  0
VERTEX
  8
caminho-de-ferro
 10
-9.387553
 20
38.701862
  0
VERTEX
  8
caminho-de-ferro
 10
-9.388277
 20
38.702147
  0
VERTEX
  8
caminho-de-ferro
 10
-9.388451
 20
38.702216
  0
SEQEND
  0
POLYLINE
  8
caminho-de-ferro
  6
BYLAYER
 66
1
 70
0
 40
0.000000
 41
0.000000
  0
VERTEX
  8
caminho-de-ferro
 10
-9.386536
 20
38.701497
  0
VERTEX
  8
caminho-de-ferro
 10
-9.386788
 20
38.701596
  0
VERTEX
  8
caminho-de-ferro
 10
-9.387534
 20
38.701892
  0
VERTEX
  8
caminho-de-ferro
 10
-9.388258
 20
38.702177
  0
VERTEX
  8
caminho-de-ferro
 10
-9.388359
 20
38.702217
  0
SEQEND
  0
POLYLINE
  8
caminho-de-ferro
  6
BYLAYER
 66
1
 70
0
 40
0.000000
 41
0.000000
  0
VERTEX
  8
caminho-de-ferro
 10
-9.384791
 20
38.700801
  0
VERTEX
  8
caminho-de-ferro
 10
-9.384762
 20
38.700789
  0
SEQEND
  0
POLYLINE
  8
caminho-de-ferro
  6
BYLAYER
 66
1
 70
0
 40
0.000000
 41
0.000000
  0
VERTEX
  8
caminho-de-ferro
 10
-9.384781
 20
38.700758
  0
VERTEX
  8
caminho-de-ferro
 10
-9.384811
 20
38.700771
  0
SEQEND
  0
POLYLINE
  8
caminho-de-ferro
  6
BYLAYER
 66
1
 70
0
 40
0.000000
 41
0.000000
  0
VERTEX
  8
caminho-de-ferro
 10
-9.394663
 20
38.703025
  0
VERTEX
  8
caminho-de-ferro
 10
-9.394227
 20
38.703077
  0
SEQEND
  0
POLYLINE
  8
caminho-de-ferro
  6
BYLAYER
 66
1
 70
0
 40
0.000000
 41
0.000000
  0
VERTEX
  8
caminho-de-ferro
 10
-9.394219
 20
38.703044
  0
VERTEX
  8
caminho-de-ferro
 10
-9.394657
 20
38.702992
  0
SEQEND
  0
POLYLINE
  8
caminho-de-ferro
  6
BYLAYER
 66
1
 70
0
 40
0.000000
 41
0.000000
  0
VERTEX
  8
caminho-de-ferro
 10
-9.328387
 20
38.688156
  0
VERTEX
  8
caminho-de-ferro
 10
-9.328417
 20
38.688155
  0
VERTEX
  8
caminho-de-ferro
 10
-9.328583
 20
38.688148
  0
VERTEX
  8
caminho-de-ferro
 10
-9.328712
 20
38.688145
  0
VERTEX
  8
caminho-de-ferro
 10
-9.328795
 20
38.688143
  0
VERTEX
  8
caminho-de-ferro
 10
-9.328900
 20
38.688140
  0
VERTEX
  8
caminho-de-ferro
 10
-9.329010
 20
38.688135
  0
VERTEX
  8
caminho-de-ferro
 10
-9.329171
 20
38.688129
  0
VERTEX
  8
caminho-de-ferro
 10
-9.329352
 20
38.688122
  0
VERTEX
  8
caminho-de-ferro
 10
-9.329507
 20
38.688116
  0
SEQEND
  0
POLYLINE
  8
caminho-de-ferro
  6
BYLAYER
 66
1
 70
0
 40
0.000000
 41
0.000000
  0
VERTEX
  8
caminho-de-ferro
 10
-9.329525
 20
38.688080
  0
VERTEX
  8
caminho-de-ferro
 10
-9.329419
 20
38.688085
  0
VERTEX
  8
caminho-de-ferro
 10
-9.329293
 20
38.688090
  0
VERTEX
  8
caminho-de-ferro
 10
-9.329155
 20
38.688094
  0
VERTEX
  8
caminho-de-ferro
 10
-9.328986
 20
38.688100
  0
VERTEX
  8
caminho-de-ferro
 10
-9.328844
 20
38.688107
  0
VERTEX
  8
caminho-de-ferro
 10
-9.328635
 20
38.688115
  0
VERTEX
  8
caminho-de-ferro
 10
-9.328498
 20
38.688119
  0
VERTEX
  8
caminho-de-ferro
 10
-9.328386
 20
38.688123
  0
SEQEND
  0
POLYLINE
  8
caminho-de-ferro
  6
BYLAYER
 66
1
 70
0
 40
0.000000
 41
0.000000
  0
VERTEX
  8
caminho-de-ferro
 10
-9.329525
 20
38.688080
  0
VERTEX
  8
caminho-de-ferro
 10
-9.329696
 20
38.688074
  0
VERTEX
  8
caminho-de-ferro
 10
-9.330262
 20
38.688054
  0
VERTEX
  8
caminho-de-ferro
 10
-9.330483
 20
38.688046
  0
SEQEND
  0
POLYLINE
  8
caminho-de-ferro
  6
BYLAYER
 66
1
 70
0
 40
0.000000
 41
0.000000
  0
VERTEX
  8
caminho-de-ferro
 10
-9.329507
 20
38.688116
  0
VERTEX
  8
caminho-de-ferro
 10
-9.329698
 20
38.688112
  0
VERTEX
  8
caminho-de-ferro
 10
-9.330265
 20
38.688092
  0
VERTEX
  8
caminho-de-ferro
 10
-9.330485
 20
38.688084
  0
SEQEND
  0
POLYLINE
  8
caminho-de-ferro
  6
BYLAYER
 66
1
 70
0
 40
0.000000
 41
0.000000
  0
VERTEX
  8
caminho-de-ferro
 10
-9.336362
 20
38.687734
  0
VERTEX
  8
caminho-de-ferro
 10
-9.336456
 20
38.687729
  0
VERTEX
  8
caminho-de-ferro
 10
-9.336754
 20
38.687719
  0
VERTEX
  8
caminho-de-ferro
 10
-9.337032
 20
38.687708
  0
VERTEX
  8
caminho-de-ferro
 10
-9.337349
 20
38.687699
  0
VERTEX
  8
caminho-de-ferro
 10
-9.337573
 20
38.687698
  0
SEQEND
  0
POLYLINE
  8
caminho-de-ferro
  6
BYLAYER
 66
1
 70
0
 40
0.000000
 41
0.000000
  0
VERTEX
  8
caminho-de-ferro
 10
-9.331592
 20
38.688007
  0
VERTEX
  8
caminho-de-ferro
 10
-9.332111
 20
38.687986
  0
VERTEX
  8
caminho-de-ferro
 10
-9.332708
 20
38.687965
  0
VERTEX
  8
caminho-de-ferro
 10
-9.333293
 20
38.687945
  0
VERTEX
  8
caminho-de-ferro
 10
-9.333789
 20
38.687927
  0
VERTEX
  8
caminho-de-ferro
 10
-9.334159
 20
38.687912
  0
VERTEX
  8
caminho-de-ferro
 10
-9.334280
 20
38.687911
  0
VERTEX
  8
caminho-de-ferro
 10
-9.334723
 20
38.687895
  0
VERTEX
  8
caminho-de-ferro
 10
-9.335101
 20
38.687881
  0
VERTEX
  8
caminho-de-ferro
 10
-9.335663
 20
38.687862
  0
VERTEX
  8
caminho-de-ferro
 10
-9.336612
 20
38.687839
  0
VERTEX
  8
caminho-de-ferro
 10
-9.337575
 20
38.687806
  0
SEQEND
  0
POLYLINE
  8
caminho-de-ferro
  6
BYLAYER
 66
1
 70
0
 40
0.000000
 41
0.000000
  0
VERTEX
  8
caminho-de-ferro
 10
-9.331592
 20
38.688007
  0
VERTEX
  8
caminho-de-ferro
 10
-9.331496
 20
38.688010
  0
VERTEX
  8
caminho-de-ferro
 10
-9.331023
 20
38.688027
  0
VERTEX
  8
caminho-de-ferro
 10
-9.330946
 20
38.688030
  0
VERTEX
  8
caminho-de-ferro
 10
-9.330864
 20
38.688033
  0
VERTEX
  8
caminho-de-ferro
 10
-9.330857
 20
38.688033
  0
VERTEX
  8
caminho-de-ferro
 10
-9.330530
 20
38.688045
  0
SEQEND
  0
POLYLINE
  8
caminho-de-ferro
  6
BYLAYER
 66
1
 70
0
 40
0.000000
 41
0.000000
  0
VERTEX
  8
caminho-de-ferro
 10
-9.331593
 20
38.688045
  0
VERTEX
  8
caminho-de-ferro
 10
-9.332113
 20
38.688024
  0
VERTEX
  8
caminho-de-ferro
 10
-9.332710
 20
38.688003
  0
VERTEX
  8
caminho-de-ferro
 10
-9.333295
 20
38.687983
  0
VERTEX
  8
caminho-de-ferro
 10
-9.333791
 20
38.687965
  0
VERTEX
  8
caminho-de-ferro
 10
-9.334161
 20
38.687950
  0
VERTEX
  8
caminho-de-ferro
 10
-9.334282
 20
38.687945
  0
VERTEX
  8
caminho-de-ferro
 10
-9.334725
 20
38.687930
  0
VERTEX
  8
caminho-de-ferro
 10
-9.335103
 20
38.687915
  0
VERTEX
  8
caminho-de-ferro
 10
-9.335665
 20
38.687897
  0
VERTEX
  8
caminho-de-ferro
 10
-9.336614
 20
38.687874
  0
VERTEX
  8
caminho-de-ferro
 10
-9.337576
 20
38.687841
  0
SEQEND
  0
POLYLINE
  8
caminho-de-ferro
  6
BYLAYER
 66
1
 70
0
 40
0.000000
 41
0.000000
  0
VERTEX
  8
caminho-de-ferro
 10
-9.331593
 20
38.688045
  0
VERTEX
  8
caminho-de-ferro
 10
-9.331498
 20
38.688048
  0
VERTEX
  8
caminho-de-ferro
 10
-9.331025
 20
38.688065
  0
VERTEX
  8
caminho-de-ferro
 10
-9.330945
 20
38.688068
  0
VERTEX
  8
caminho-de-ferro
 10
-9.330943
 20
38.688068
  0
VERTEX
  8
caminho-de-ferro
 10
-9.330865
 20
38.688071
  0
VERTEX
  8
caminho-de-ferro
 10
-9.330858
 20
38.688071
  0
VERTEX
  8
caminho-de-ferro
 10
-9.330533
 20
38.688083
  0
SEQEND
  0
POLYLINE
  8
caminho-de-ferro
  6
BYLAYER
 66
1
 70
0
 40
0.000000
 41
0.000000
  0
VERTEX
  8
caminho-de-ferro
 10
-9.335802
 20
38.687751
  0
VERTEX
  8
caminho-de-ferro
 10
-9.335456
 20
38.687734
  0
SEQEND
  0
POLYLINE
  8
caminho-de-ferro
  6
BYLAYER
 66
1
 70
0
 40
0.000000
 41
0.000000
  0
VERTEX
  8
caminho-de-ferro
 10
-9.335456
 20
38.687734
  0
VERTEX
  8
caminho-de-ferro
 10
-9.335284
 20
38.687728
  0
VERTEX
  8
caminho-de-ferro
 10
-9.335200
 20
38.687722
  0
VERTEX
  8
caminho-de-ferro
 10
-9.335154
 20
38.687721
  0
SEQEND
  0
POLYLINE
  8
caminho-de-ferro
  6
BYLAYER
 66
1
 70
0
 40
0.000000
 41
0.000000
  0
VERTEX
  8
caminho-de-ferro
 10
-9.336362
 20
38.687734
  0
VERTEX
  8
caminho-de-ferro
 10
-9.336080
 20
38.687743
  0
VERTEX
  8
caminho-de-ferro
 10
-9.335951
 20
38.687749
  0
VERTEX
  8
caminho-de-ferro
 10
-9.335802
 20
38.687751
  0
SEQEND
  0
POLYLINE
  8
caminho-de-ferro
  6
BYLAYER
 66
1
 70
0
 40
0.000000
 41
0.000000
  0
VERTEX
  8
caminho-de-ferro
 10
-9.334143
 20
38.687626
  0
VERTEX
  8
caminho-de-ferro
 10
-9.334389
 20
38.687620
  0
VERTEX
  8
caminho-de-ferro
 10
-9.334486
 20
38.687621
  0
VERTEX
  8
caminho-de-ferro
 10
-9.334604
 20
38.687629
  0
VERTEX
  8
caminho-de-ferro
 10
-9.334957
 20
38.687668
  0
SEQEND
  0
POLYLINE
  8
caminho-de-ferro
  6
BYLAYER
 66
1
 70
0
 40
0.000000
 41
0.000000
  0
VERTEX
  8
caminho-de-ferro
 10
-9.334957
 20
38.687668
  0
VERTEX
  8
caminho-de-ferro
 10
-9.335186
 20
38.687697
  0
VERTEX
  8
caminho-de-ferro
 10
-9.335257
 20
38.687708
  0
VERTEX
  8
caminho-de-ferro
 10
-9.335456
 20
38.687734
  0
SEQEND
  0
POLYLINE
  8
caminho-de-ferro
  6
BYLAYER
 66
1
 70
0
 40
0.000000
 41
0.000000
  0
VERTEX
  8
caminho-de-ferro
 10
-9.330533
 20
38.688083
  0
VERTEX
  8
caminho-de-ferro
 10
-9.330485
 20
38.688084
  0
SEQEND
  0
POLYLINE
  8
caminho-de-ferro
  6
BYLAYER
 66
1
 70
0
 40
0.000000
 41
0.000000
  0
VERTEX
  8
caminho-de-ferro
 10
-9.330530
 20
38.688045
  0
VERTEX
  8
caminho-de-ferro
 10
-9.330483
 20
38.688046
  0
SEQEND
  0
POLYLINE
  8
caminho-de-ferro
  6
BYLAYER
 66
1
 70
0
 40
0.000000
 41
0.000000
  0
VERTEX
  8
caminho-de-ferro
 10
-9.331588
 20
38.687884
  0
VERTEX
  8
caminho-de-ferro
 10
-9.331852
 20
38.687858
  0
VERTEX
  8
caminho-de-ferro
 10
-9.332637
 20
38.687823
  0
VERTEX
  8
caminho-de-ferro
 10
-9.333500
 20
38.687793
  0
VERTEX
  8
caminho-de-ferro
 10
-9.334087
 20
38.687770
  0
VERTEX
  8
caminho-de-ferro
 10
-9.334551
 20
38.687753
  0
VERTEX
  8
caminho-de-ferro
 10
-9.334717
 20
38.687742
  0
VERTEX
  8
caminho-de-ferro
 10
-9.334870
 20
38.687733
  0
VERTEX
  8
caminho-de-ferro
 10
-9.334993
 20
38.687725
  0
VERTEX
  8
caminho-de-ferro
 10
-9.335092
 20
38.687720
  0
VERTEX
  8
caminho-de-ferro
 10
-9.335154
 20
38.687721
  0
SEQEND
  0
POLYLINE
  8
caminho-de-ferro
  6
BYLAYER
 66
1
 70
0
 40
0.000000
 41
0.000000
  0
VERTEX
  8
caminho-de-ferro
 10
-9.331362
 20
38.687907
  0
VERTEX
  8
caminho-de-ferro
 10
-9.331588
 20
38.687884
  0
SEQEND
  0
POLYLINE
  8
caminho-de-ferro
  6
BYLAYER
 66
1
 70
0
 40
0.000000
 41
0.000000
  0
VERTEX
  8
caminho-de-ferro
 10
-9.331586
 20
38.687848
  0
VERTEX
  8
caminho-de-ferro
 10
-9.331696
 20
38.687834
  0
VERTEX
  8
caminho-de-ferro
 10
-9.331826
 20
38.687822
  0
VERTEX
  8
caminho-de-ferro
 10
-9.333456
 20
38.687750
  0
VERTEX
  8
caminho-de-ferro
 10
-9.334049
 20
38.687726
  0
VERTEX
  8
caminho-de-ferro
 10
-9.334631
 20
38.687706
  0
VERTEX
  8
caminho-de-ferro
 10
-9.334787
 20
38.687704
  0
VERTEX
  8
caminho-de-ferro
 10
-9.334879
 20
38.687706
  0
VERTEX
  8
caminho-de-ferro
 10
-9.335154
 20
38.687721
  0
SEQEND
  0
POLYLINE
  8
caminho-de-ferro
  6
BYLAYER
 66
1
 70
0
 40
0.000000
 41
0.000000
  0
VERTEX
  8
caminho-de-ferro
 10
-9.331586
 20
38.687834
  0
VERTEX
  8
caminho-de-ferro
 10
-9.331351
 20
38.687888
  0
VERTEX
  8
caminho-de-ferro
 10
-9.331458
 20
38.687868
  0
VERTEX
  8
caminho-de-ferro
 10
-9.331576
 20
38.687849
  0
VERTEX
  8
caminho-de-ferro
 10
-9.331586
 20
38.687848
  0
SEQEND
  0
POLYLINE
  8
caminho-de-ferro
  6
BYLAYER
 66
1
 70
0
 40
0.000000
 41
0.000000
  0
VERTEX
  8
caminho-de-ferro
 10
-9.334957
 20
38.687668
  0
VERTEX
  8
caminho-de-ferro
 10
-9.334812
 20
38.687665
  0
VERTEX
  8
caminho-de-ferro
 10
-9.334640
 20
38.687662
  0
VERTEX
  8
caminho-de-ferro
 10
-9.334470
 20
38.687664
  0
VERTEX
  8
caminho-de-ferro
 10
-9.334115
 20
38.687677
  0
VERTEX
  8
caminho-de-ferro
 10
-9.333505
 20
38.687702
  0
VERTEX
  8
caminho-de-ferro
 10
-9.332524
 20
38.687737
  0
VERTEX
  8
caminho-de-ferro
 10
-9.332352
 20
38.687744
  0
VERTEX
  8
caminho-de-ferro
 10
-9.332242
 20
38.687747
  0
VERTEX
  8
caminho-de-ferro
 10
-9.332117
 20
38.687755
  0
VERTEX
  8
caminho-de-ferro
 10
-9.332018
 20
38.687764
  0
VERTEX
  8
caminho-de-ferro
 10
-9.331935
 20
38.687773
  0
VERTEX
  8
caminho-de-ferro
 10
-9.331853
 20
38.687784
  0
VERTEX
  8
caminho-de-ferro
 10
-9.331755
 20
38.687800
  0
VERTEX
  8
caminho-de-ferro
 10
-9.331608
 20
38.687829
  0
VERTEX
  8
caminho-de-ferro
 10
-9.331586
 20
38.687834
  0
SEQEND
  0
POLYLINE
  8
caminho-de-ferro
  6
BYLAYER
 66
1
 70
0
 40
0.000000
 41
0.000000
  0
VERTEX
  8
caminho-de-ferro
 10
-9.331589
 20
38.687916
  0
VERTEX
  8
caminho-de-ferro
 10
-9.331690
 20
38.687904
  0
VERTEX
  8
caminho-de-ferro
 10
-9.331776
 20
38.687899
  0
VERTEX
  8
caminho-de-ferro
 10
-9.332080
 20
38.687888
  0
VERTEX
  8
caminho-de-ferro
 10
-9.332095
 20
38.687887
  0
VERTEX
  8
caminho-de-ferro
 10
-9.333502
 20
38.687836
  0
VERTEX
  8
caminho-de-ferro
 10
-9.334135
 20
38.687813
  0
VERTEX
  8
caminho-de-ferro
 10
-9.335220
 20
38.687774
  0
VERTEX
  8
caminho-de-ferro
 10
-9.335442
 20
38.687765
  0
VERTEX
  8
caminho-de-ferro
 10
-9.335579
 20
38.687758
  0
VERTEX
  8
caminho-de-ferro
 10
-9.335722
 20
38.687756
  0
VERTEX
  8
caminho-de-ferro
 10
-9.335802
 20
38.687751
  0
SEQEND
  0
POLYLINE
  8
caminho-de-ferro
  6
BYLAYER
 66
1
 70
0
 40
0.000000
 41
0.000000
  0
VERTEX
  8
caminho-de-ferro
 10
-9.331520
 20
38.687923
  0
VERTEX
  8
caminho-de-ferro
 10
-9.331589
 20
38.687916
  0
SEQEND
  0
POLYLINE
  8
caminho-de-ferro
  6
BYLAYER
 66
1
 70
0
 40
0.000000
 41
0.000000
  0
VERTEX
  8
caminho-de-ferro
 10
-9.331590
 20
38.687951
  0
VERTEX
  8
caminho-de-ferro
 10
-9.331859
 20
38.687938
  0
VERTEX
  8
caminho-de-ferro
 10
-9.332123
 20
38.687930
  0
VERTEX
  8
caminho-de-ferro
 10
-9.333507
 20
38.687881
  0
VERTEX
  8
caminho-de-ferro
 10
-9.334138
 20
38.687855
  0
VERTEX
  8
caminho-de-ferro
 10
-9.335222
 20
38.687817
  0
VERTEX
  8
caminho-de-ferro
 10
-9.335445
 20
38.687808
  0
VERTEX
  8
caminho-de-ferro
 10
-9.335583
 20
38.687801
  0
VERTEX
  8
caminho-de-ferro
 10
-9.335681
 20
38.687796
  0
VERTEX
  8
caminho-de-ferro
 10
-9.335844
 20
38.687781
  0
VERTEX
  8
caminho-de-ferro
 10
-9.336053
 20
38.687755
  0
VERTEX
  8
caminho-de-ferro
 10
-9.336362
 20
38.687734
  0
SEQEND
  0
POLYLINE
  8
caminho-de-ferro
  6
BYLAYER
 66
1
 70
0
 40
0.000000
 41
0.000000
  0
VERTEX
  8
caminho-de-ferro
 10
-9.331528
 20
38.687954
  0
VERTEX
  8
caminho-de-ferro
 10
-9.331590
 20
38.687951
  0
SEQEND
  0
POLYLINE
  8
caminho-de-ferro
  6
BYLAYER
 66
1
 70
0
 40
0.000000
 41
0.000000
  0
VERTEX
  8
caminho-de-ferro
 10
-9.337573
 20
38.687698
  0
VERTEX
  8
caminho-de-ferro
 10
-9.337663
 20
38.687697
  0
VERTEX
  8
caminho-de-ferro
 10
-9.337978
 20
38.687695
  0
VERTEX
  8
caminho-de-ferro
 10
-9.338188
 20
38.687694
  0
VERTEX
  8
caminho-de-ferro
 10
-9.338661
 20
38.687695
  0
VERTEX
  8
caminho-de-ferro
 10
-9.338953
 20
38.687693
  0
VERTEX
  8
caminho-de-ferro
 10
-9.339103
 20
38.687691
  0
VERTEX
  8
caminho-de-ferro
 10
-9.339319
 20
38.687692
  0
VERTEX
  8
caminho-de-ferro
 10
-9.339449
 20
38.687694
  0
VERTEX
  8
caminho-de-ferro
 10
-9.339562
 20
38.687698
  0
VERTEX
  8
caminho-de-ferro
 10
-9.339681
 20
38.687706
  0
VERTEX
  8
caminho-de-ferro
 10
-9.339816
 20
38.687708
  0
VERTEX
  8
caminho-de-ferro
 10
-9.339977
 20
38.687710
  0
VERTEX
  8
caminho-de-ferro
 10
-9.340272
 20
38.687705
  0
VERTEX
  8
caminho-de-ferro
 10
-9.340280
 20
38.687705
  0
SEQEND
  0
POLYLINE
  8
caminho-de-ferro
  6
BYLAYER
 66
1
 70
0
 40
0.000000
 41
0.000000
  0
VERTEX
  8
caminho-de-ferro
 10
-9.337575
 20
38.687806
  0
VERTEX
  8
caminho-de-ferro
 10
-9.337618
 20
38.687805
  0
VERTEX
  8
caminho-de-ferro
 10
-9.338103
 20
38.687784
  0
VERTEX
  8
caminho-de-ferro
 10
-9.338621
 20
38.687765
  0
VERTEX
  8
caminho-de-ferro
 10
-9.338965
 20
38.687752
  0
VERTEX
  8
caminho-de-ferro
 10
-9.339366
 20
38.687736
  0
VERTEX
  8
caminho-de-ferro
 10
-9.339735
 20
38.687723
  0
VERTEX
  8
caminho-de-ferro
 10
-9.339993
 20
38.687716
  0
VERTEX
  8
caminho-de-ferro
 10
-9.340280
 20
38.687705
  0
SEQEND
  0
POLYLINE
  8
caminho-de-ferro
  6
BYLAYER
 66
1
 70
0
 40
0.000000
 41
0.000000
  0
VERTEX
  8
caminho-de-ferro
 10
-9.337576
 20
38.687841
  0
VERTEX
  8
caminho-de-ferro
 10
-9.337620
 20
38.687839
  0
VERTEX
  8
caminho-de-ferro
 10
-9.338106
 20
38.687818
  0
VERTEX
  8
caminho-de-ferro
 10
-9.338623
 20
38.687799
  0
VERTEX
  8
caminho-de-ferro
 10
-9.338968
 20
38.687786
  0
VERTEX
  8
caminho-de-ferro
 10
-9.339368
 20
38.687771
  0
VERTEX
  8
caminho-de-ferro
 10
-9.339737
 20
38.687758
  0
VERTEX
  8
caminho-de-ferro
 10
-9.339998
 20
38.687750
  0
VERTEX
  8
caminho-de-ferro
 10
-9.340430
 20
38.687734
  0
VERTEX
  8
caminho-de-ferro
 10
-9.340830
 20
38.687720
  0
SEQEND
  0
POLYLINE
  8
caminho-de-ferro
  6
BYLAYER
 66
1
 70
0
 40
0.000000
 41
0.000000
  0
VERTEX
  8
caminho-de-ferro
 10
-9.346764
 20
38.687475
  0
VERTEX
  8
caminho-de-ferro
 10
-9.346296
 20
38.687491
  0
VERTEX
  8
caminho-de-ferro
 10
-9.345916
 20
38.687504
  0
VERTEX
  8
caminho-de-ferro
 10
-9.344425
 20
38.687557
  0
VERTEX
  8
caminho-de-ferro
 10
-9.344071
 20
38.687571
  0
VERTEX
  8
caminho-de-ferro
 10
-9.343528
 20
38.687590
  0
VERTEX
  8
caminho-de-ferro
 10
-9.342982
 20
38.687610
  0
VERTEX
  8
caminho-de-ferro
 10
-9.342447
 20
38.687628
  0
VERTEX
  8
caminho-de-ferro
 10
-9.341896
 20
38.687649
  0
VERTEX
  8
caminho-de-ferro
 10
-9.341410
 20
38.687666
  0
VERTEX
  8
caminho-de-ferro
 10
-9.340969
 20
38.687681
  0
SEQEND
  0
POLYLINE
  8
caminho-de-ferro
  6
BYLAYER
 66
1
 70
0
 40
0.000000
 41
0.000000
  0
VERTEX
  8
caminho-de-ferro
 10
-9.346764
 20
38.687509
  0
VERTEX
  8
caminho-de-ferro
 10
-9.346652
 20
38.687512
  0
VERTEX
  8
caminho-de-ferro
 10
-9.346258
 20
38.687525
  0
VERTEX
  8
caminho-de-ferro
 10
-9.345881
 20
38.687541
  0
VERTEX
  8
caminho-de-ferro
 10
-9.345544
 20
38.687552
  0
VERTEX
  8
caminho-de-ferro
 10
-9.345124
 20
38.687567
  0
VERTEX
  8
caminho-de-ferro
 10
-9.344715
 20
38.687580
  0
VERTEX
  8
caminho-de-ferro
 10
-9.344425
 20
38.687591
  0
VERTEX
  8
caminho-de-ferro
 10
-9.344076
 20
38.687605
  0
VERTEX
  8
caminho-de-ferro
 10
-9.343533
 20
38.687624
  0
VERTEX
  8
caminho-de-ferro
 10
-9.342987
 20
38.687645
  0
VERTEX
  8
caminho-de-ferro
 10
-9.342452
 20
38.687663
  0
VERTEX
  8
caminho-de-ferro
 10
-9.341901
 20
38.687683
  0
VERTEX
  8
caminho-de-ferro
 10
-9.341415
 20
38.687700
  0
VERTEX
  8
caminho-de-ferro
 10
-9.340971
 20
38.687716
  0
SEQEND
  0
POLYLINE
  8
caminho-de-ferro
  6
BYLAYER
 66
1
 70
0
 40
0.000000
 41
0.000000
  0
VERTEX
  8
caminho-de-ferro
 10
-9.340830
 20
38.687720
  0
VERTEX
  8
caminho-de-ferro
 10
-9.340645
 20
38.687713
  0
VERTEX
  8
caminho-de-ferro
 10
-9.340280
 20
38.687705
  0
SEQEND
  0
POLYLINE
  8
caminho-de-ferro
  6
BYLAYER
 66
1
 70
0
 40
0.000000
 41
0.000000
  0
VERTEX
  8
caminho-de-ferro
 10
-9.340969
 20
38.687681
  0
VERTEX
  8
caminho-de-ferro
 10
-9.340905
 20
38.687683
  0
VERTEX
  8
caminho-de-ferro
 10
-9.340425
 20
38.687699
  0
VERTEX
  8
caminho-de-ferro
 10
-9.340280
 20
38.687705
  0
SEQEND
  0
POLYLINE
  8
caminho-de-ferro
  6
BYLAYER
 66
1
 70
0
 40
0.000000
 41
0.000000
  0
VERTEX
  8
caminho-de-ferro
 10
-9.340971
 20
38.687716
  0
VERTEX
  8
caminho-de-ferro
 10
-9.340910
 20
38.687718
  0
VERTEX
  8
caminho-de-ferro
 10
-9.340830
 20
38.687720
  0
SEQEND
  0
POLYLINE
  8
caminho-de-ferro
  6
BYLAYER
 66
1
 70
0
 40
0.000000
 41
0.000000
  0
VERTEX
  8
caminho-de-ferro
 10
-9.364226
 20
38.691622
  0
VERTEX
  8
caminho-de-ferro
 10
-9.364191
 20
38.691593
  0
VERTEX
  8
caminho-de-ferro
 10
-9.363886
 20
38.691370
  0
VERTEX
  8
caminho-de-ferro
 10
-9.363558
 20
38.691169
  0
VERTEX
  8
caminho-de-ferro
 10
-9.363220
 20
38.691000
  0
VERTEX
  8
caminho-de-ferro
 10
-9.362959
 20
38.690889
  0
VERTEX
  8
caminho-de-ferro
 10
-9.362612
 20
38.690767
  0
VERTEX
  8
caminho-de-ferro
 10
-9.362319
 20
38.690684
  0
VERTEX
  8
caminho-de-ferro
 10
-9.361879
 20
38.690592
  0
VERTEX
  8
caminho-de-ferro
 10
-9.361807
 20
38.690580
  0
VERTEX
  8
caminho-de-ferro
 10
-9.361379
 20
38.690531
  0
VERTEX
  8
caminho-de-ferro
 10
-9.361246
 20
38.690522
  0
VERTEX
  8
caminho-de-ferro
 10
-9.360731
 20
38.690506
  0
VERTEX
  8
caminho-de-ferro
 10
-9.360158
 20
38.690511
  0
VERTEX
  8
caminho-de-ferro
 10
-9.360008
 20
38.690512
  0
VERTEX
  8
caminho-de-ferro
 10
-9.359700
 20
38.690515
  0
VERTEX
  8
caminho-de-ferro
 10
-9.359234
 20
38.690504
  0
VERTEX
  8
caminho-de-ferro
 10
-9.359229
 20
38.690504
  0
VERTEX
  8
caminho-de-ferro
 10
-9.358772
 20
38.690468
  0
VERTEX
  8
caminho-de-ferro
 10
-9.358736
 20
38.690463
  0
VERTEX
  8
caminho-de-ferro
 10
-9.358319
 20
38.690395
  0
VERTEX
  8
caminho-de-ferro
 10
-9.358286
 20
38.690388
  0
VERTEX
  8
caminho-de-ferro
 10
-9.357979
 20
38.690313
  0
VERTEX
  8
caminho-de-ferro
 10
-9.357861
 20
38.690281
  0
VERTEX
  8
caminho-de-ferro
 10
-9.357854
 20
38.690279
  0
VERTEX
  8
caminho-de-ferro
 10
-9.357843
 20
38.690275
  0
VERTEX
  8
caminho-de-ferro
 10
-9.357584
 20
38.690192
  0
VERTEX
  8
caminho-de-ferro
 10
-9.357234
 20
38.690067
  0
VERTEX
  8
caminho-de-ferro
 10
-9.356458
 20
38.689785
  0
VERTEX
  8
caminho-de-ferro
 10
-9.355994
 20
38.689612
  0
SEQEND
  0
POLYLINE
  8
caminho-de-ferro
  6
BYLAYER
 66
1
 70
0
 40
0.000000
 41
0.000000
  0
VERTEX
  8
caminho-de-ferro
 10
-9.364276
 20
38.691624
  0
VERTEX
  8
caminho-de-ferro
 10
-9.364027
 20
38.691424
  0
VERTEX
  8
caminho-de-ferro
 10
-9.363725
 20
38.691224
  0
VERTEX
  8
caminho-de-ferro
 10
-9.363400
 20
38.691045
  0
VERTEX
  8
caminho-de-ferro
 10
-9.363041
 20
38.690883
  0
VERTEX
  8
caminho-de-ferro
 10
-9.362682
 20
38.690752
  0
VERTEX
  8
caminho-de-ferro
 10
-9.362598
 20
38.690726
  0
VERTEX
  8
caminho-de-ferro
 10
-9.362207
 20
38.690622
  0
VERTEX
  8
caminho-de-ferro
 10
-9.361937
 20
38.690566
  0
VERTEX
  8
caminho-de-ferro
 10
-9.361584
 20
38.690515
  0
VERTEX
  8
caminho-de-ferro
 10
-9.361457
 20
38.690503
  0
VERTEX
  8
caminho-de-ferro
 10
-9.360874
 20
38.690474
  0
VERTEX
  8
caminho-de-ferro
 10
-9.360515
 20
38.690472
  0
VERTEX
  8
caminho-de-ferro
 10
-9.360007
 20
38.690477
  0
VERTEX
  8
caminho-de-ferro
 10
-9.359691
 20
38.690477
  0
VERTEX
  8
caminho-de-ferro
 10
-9.359119
 20
38.690458
  0
VERTEX
  8
caminho-de-ferro
 10
-9.359064
 20
38.690454
  0
VERTEX
  8
caminho-de-ferro
 10
-9.358801
 20
38.690429
  0
VERTEX
  8
caminho-de-ferro
 10
-9.358595
 20
38.690401
  0
VERTEX
  8
caminho-de-ferro
 10
-9.358460
 20
38.690380
  0
VERTEX
  8
caminho-de-ferro
 10
-9.358022
 20
38.690281
  0
VERTEX
  8
caminho-de-ferro
 10
-9.357954
 20
38.690263
  0
VERTEX
  8
caminho-de-ferro
 10
-9.357855
 20
38.690231
  0
VERTEX
  8
caminho-de-ferro
 10
-9.357843
 20
38.690228
  0
VERTEX
  8
caminho-de-ferro
 10
-9.357492
 20
38.690117
  0
VERTEX
  8
caminho-de-ferro
 10
-9.356204
 20
38.689643
  0
VERTEX
  8
caminho-de-ferro
 10
-9.355994
 20
38.689565
  0
SEQEND
  0
POLYLINE
  8
caminho-de-ferro
  6
BYLAYER
 66
1
 70
0
 40
0.000000
 41
0.000000
  0
VERTEX
  8
caminho-de-ferro
 10
-9.364226
 20
38.691622
  0
VERTEX
  8
caminho-de-ferro
 10
-9.364308
 20
38.691691
  0
SEQEND
  0
POLYLINE
  8
caminho-de-ferro
  6
BYLAYER
 66
1
 70
0
 40
0.000000
 41
0.000000
  0
VERTEX
  8
caminho-de-ferro
 10
-9.364276
 20
38.691624
  0
VERTEX
  8
caminho-de-ferro
 10
-9.364360
 20
38.691692
  0
SEQEND
  0
POLYLINE
  8
caminho-de-ferro
  6
BYLAYER
 66
1
 70
0
 40
0.000000
 41
0.000000
  0
VERTEX
  8
caminho-de-ferro
 10
-9.354524
 20
38.689064
  0
VERTEX
  8
caminho-de-ferro
 10
-9.354718
 20
38.689135
  0
VERTEX
  8
caminho-de-ferro
 10
-9.355061
 20
38.689263
  0
VERTEX
  8
caminho-de-ferro
 10
-9.355513
 20
38.689434
  0
VERTEX
  8
caminho-de-ferro
 10
-9.355971
 20
38.689603
  0
VERTEX
  8
caminho-de-ferro
 10
-9.355994
 20
38.689612
  0
SEQEND
  0
POLYLINE
  8
caminho-de-ferro
  6
BYLAYER
 66
1
 70
0
 40
0.000000
 41
0.000000
  0
VERTEX
  8
caminho-de-ferro
 10
-9.354639
 20
38.689063
  0
VERTEX
  8
caminho-de-ferro
 10
-9.354671
 20
38.689075
  0
VERTEX
  8
caminho-de-ferro
 10
-9.355021
 20
38.689204
  0
VERTEX
  8
caminho-de-ferro
 10
-9.355326
 20
38.689318
  0
VERTEX
  8
caminho-de-ferro
 10
-9.355994
 20
38.689565
  0
SEQEND
  0
POLYLINE
  8
caminho-de-ferro
  6
BYLAYER
 66
1
 70
0
 40
0.000000
 41
0.000000
  0
VERTEX
  8
caminho-de-ferro
 10
-9.364360
 20
38.691692
  0
VERTEX
  8
caminho-de-ferro
 10
-9.364562
 20
38.691853
  0
VERTEX
  8
caminho-de-ferro
 10
-9.364593
 20
38.691878
  0
VERTEX
  8
caminho-de-ferro
 10
-9.364600
 20
38.691885
  0
VERTEX
  8
caminho-de-ferro
 10
-9.365121
 20
38.692335
  0
VERTEX
  8
caminho-de-ferro
 10
-9.365237
 20
38.692436
  0
SEQEND
  0
POLYLINE
  8
caminho-de-ferro
  6
BYLAYER
 66
1
 70
0
 40
0.000000
 41
0.000000
  0
VERTEX
  8
caminho-de-ferro
 10
-9.364308
 20
38.691691
  0
VERTEX
  8
caminho-de-ferro
 10
-9.364468
 20
38.691823
  0
VERTEX
  8
caminho-de-ferro
 10
-9.364524
 20
38.691871
  0
VERTEX
  8
caminho-de-ferro
 10
-9.364862
 20
38.692162
  0
VERTEX
  8
caminho-de-ferro
 10
-9.365238
 20
38.692489
  0
SEQEND
  0
POLYLINE
  8
caminho-de-ferro
  6
BYLAYER
 66
1
 70
0
 40
0.000000
 41
0.000000
  0
VERTEX
  8
caminho-de-ferro
 10
-9.372948
 20
38.695630
  0
VERTEX
  8
caminho-de-ferro
 10
-9.373361
 20
38.695711
  0
SEQEND
  0
POLYLINE
  8
caminho-de-ferro
  6
BYLAYER
 66
1
 70
0
 40
0.000000
 41
0.000000
  0
VERTEX
  8
caminho-de-ferro
 10
-9.375395
 20
38.696180
  0
VERTEX
  8
caminho-de-ferro
 10
-9.376118
 20
38.696268
  0
SEQEND
  0
POLYLINE
  8
caminho-de-ferro
  6
BYLAYER
 66
1
 70
0
 40
0.000000
 41
0.000000
  0
VERTEX
  8
caminho-de-ferro
 10
-9.376820
 20
38.696408
  0
VERTEX
  8
caminho-de-ferro
 10
-9.376830
 20
38.696410
  0
SEQEND
  0
POLYLINE
  8
caminho-de-ferro
  6
BYLAYER
 66
1
 70
0
 40
0.000000
 41
0.000000
  0
VERTEX
  8
caminho-de-ferro
 10
-9.376818
 20
38.696445
  0
VERTEX
  8
caminho-de-ferro
 10
-9.376808
 20
38.696443
  0
SEQEND
  0
POLYLINE
  8
caminho-de-ferro
  6
BYLAYER
 66
1
 70
0
 40
0.000000
 41
0.000000
  0
VERTEX
  8
caminho-de-ferro
 10
-9.365237
 20
38.692436
  0
VERTEX
  8
caminho-de-ferro
 10
-9.365365
 20
38.692547
  0
VERTEX
  8
caminho-de-ferro
 10
-9.365751
 20
38.692876
  0
VERTEX
  8
caminho-de-ferro
 10
-9.366003
 20
38.693091
  0
VERTEX
  8
caminho-de-ferro
 10
-9.366066
 20
38.693145
  0
VERTEX
  8
caminho-de-ferro
 10
-9.366128
 20
38.693199
  0
VERTEX
  8
caminho-de-ferro
 10
-9.366407
 20
38.693443
  0
SEQEND
  0
POLYLINE
  8
caminho-de-ferro
  6
BYLAYER
 66
1
 70
0
 40
0.000000
 41
0.000000
  0
VERTEX
  8
caminho-de-ferro
 10
-9.365238
 20
38.692489
  0
VERTEX
  8
caminho-de-ferro
 10
-9.365256
 20
38.692504
  0
VERTEX
  8
caminho-de-ferro
 10
-9.365660
 20
38.692852
  0
VERTEX
  8
caminho-de-ferro
 10
-9.365789
 20
38.692965
  0
VERTEX
  8
caminho-de-ferro
 10
-9.366119
 20
38.693246
  0
VERTEX
  8
caminho-de-ferro
 10
-9.366347
 20
38.693444
  0
SEQEND
  0
POLYLINE
  8
caminho-de-ferro
  6
BYLAYER
 66
1
 70
0
 40
0.000000
 41
0.000000
  0
VERTEX
  8
caminho-de-ferro
 10
-9.366407
 20
38.693443
  0
VERTEX
  8
caminho-de-ferro
 10
-9.366485
 20
38.693511
  0
VERTEX
  8
caminho-de-ferro
 10
-9.366626
 20
38.693631
  0
VERTEX
  8
caminho-de-ferro
 10
-9.366818
 20
38.693789
  0
VERTEX
  8
caminho-de-ferro
 10
-9.366915
 20
38.693866
  0
VERTEX
  8
caminho-de-ferro
 10
-9.367017
 20
38.693945
  0
VERTEX
  8
caminho-de-ferro
 10
-9.367124
 20
38.694022
  0
VERTEX
  8
caminho-de-ferro
 10
-9.367233
 20
38.694097
  0
VERTEX
  8
caminho-de-ferro
 10
-9.367346
 20
38.694170
  0
VERTEX
  8
caminho-de-ferro
 10
-9.367461
 20
38.694241
  0
VERTEX
  8
caminho-de-ferro
 10
-9.367578
 20
38.694309
  0
VERTEX
  8
caminho-de-ferro
 10
-9.367627
 20
38.694334
  0
VERTEX
  8
caminho-de-ferro
 10
-9.367726
 20
38.694383
  0
VERTEX
  8
caminho-de-ferro
 10
-9.367876
 20
38.694454
  0
VERTEX
  8
caminho-de-ferro
 10
-9.368029
 20
38.694522
  0
VERTEX
  8
caminho-de-ferro
 10
-9.368133
 20
38.694565
  0
VERTEX
  8
caminho-de-ferro
 10
-9.368277
 20
38.694618
  0
VERTEX
  8
caminho-de-ferro
 10
-9.368374
 20
38.694652
  0
VERTEX
  8
caminho-de-ferro
 10
-9.368522
 20
38.694701
  0
VERTEX
  8
caminho-de-ferro
 10
-9.368670
 20
38.694747
  0
VERTEX
  8
caminho-de-ferro
 10
-9.368671
 20
38.694747
  0
SEQEND
  0
POLYLINE
  8
caminho-de-ferro
  6
BYLAYER
 66
1
 70
0
 40
0.000000
 41
0.000000
  0
VERTEX
  8
caminho-de-ferro
 10
-9.366347
 20
38.693444
  0
VERTEX
  8
caminho-de-ferro
 10
-9.366351
 20
38.693447
  0
VERTEX
  8
caminho-de-ferro
 10
-9.366641
 20
38.693696
  0
VERTEX
  8
caminho-de-ferro
 10
-9.367094
 20
38.694061
  0
VERTEX
  8
caminho-de-ferro
 10
-9.367137
 20
38.694093
  0
VERTEX
  8
caminho-de-ferro
 10
-9.367242
 20
38.694165
  0
VERTEX
  8
caminho-de-ferro
 10
-9.367349
 20
38.694235
  0
VERTEX
  8
caminho-de-ferro
 10
-9.367458
 20
38.694302
  0
VERTEX
  8
caminho-de-ferro
 10
-9.367570
 20
38.694367
  0
VERTEX
  8
caminho-de-ferro
 10
-9.367742
 20
38.694459
  0
VERTEX
  8
caminho-de-ferro
 10
-9.367805
 20
38.694491
  0
VERTEX
  8
caminho-de-ferro
 10
-9.367934
 20
38.694552
  0
VERTEX
  8
caminho-de-ferro
 10
-9.368066
 20
38.694609
  0
VERTEX
  8
caminho-de-ferro
 10
-9.368200
 20
38.694663
  0
VERTEX
  8
caminho-de-ferro
 10
-9.368336
 20
38.694713
  0
VERTEX
  8
caminho-de-ferro
 10
-9.368405
 20
38.694736
  0
VERTEX
  8
caminho-de-ferro
 10
-9.368538
 20
38.694779
  0
VERTEX
  8
caminho-de-ferro
 10
-9.368729
 20
38.694833
  0
VERTEX
  8
caminho-de-ferro
 10
-9.368858
 20
38.694867
  0
VERTEX
  8
caminho-de-ferro
 10
-9.368987
 20
38.694898
  0
VERTEX
  8
caminho-de-ferro
 10
-9.369118
 20
38.694926
  0
VERTEX
  8
caminho-de-ferro
 10
-9.369491
 20
38.695004
  0
SEQEND
  0
POLYLINE
  8
caminho-de-ferro
  6
BYLAYER
 66
1
 70
0
 40
0.000000
 41
0.000000
  0
VERTEX
  8
caminho-de-ferro
 10
-9.374493
 20
38.695975
  0
VERTEX
  8
caminho-de-ferro
 10
-9.374476
 20
38.695972
  0
VERTEX
  8
caminho-de-ferro
 10
-9.374108
 20
38.695895
  0
VERTEX
  8
caminho-de-ferro
 10
-9.373872
 20
38.695841
  0
VERTEX
  8
caminho-de-ferro
 10
-9.373654
 20
38.695786
  0
VERTEX
  8
caminho-de-ferro
 10
-9.373516
 20
38.695751
  0
SEQEND
  0
POLYLINE
  8
caminho-de-ferro
  6
BYLAYER
 66
1
 70
0
 40
0.000000
 41
0.000000
  0
VERTEX
  8
caminho-de-ferro
 10
-9.374494
 20
38.696011
  0
VERTEX
  8
caminho-de-ferro
 10
-9.374161
 20
38.695944
  0
VERTEX
  8
caminho-de-ferro
 10
-9.373874
 20
38.695881
  0
SEQEND
  0
POLYLINE
  8
caminho-de-ferro
  6
BYLAYER
 66
1
 70
0
 40
0.000000
 41
0.000000
  0
VERTEX
  8
caminho-de-ferro
 10
-9.374493
 20
38.695935
  0
VERTEX
  8
caminho-de-ferro
 10
-9.374266
 20
38.695887
  0
VERTEX
  8
caminho-de-ferro
 10
-9.373935
 20
38.695807
  0
SEQEND
  0
POLYLINE
  8
caminho-de-ferro
  6
BYLAYER
 66
1
 70
0
 40
0.000000
 41
0.000000
  0
VERTEX
  8
caminho-de-ferro
 10
-9.368464
 20
38.694720
  0
VERTEX
  8
caminho-de-ferro
 10
-9.368703
 20
38.694790
  0
VERTEX
  8
caminho-de-ferro
 10
-9.368957
 20
38.694848
  0
VERTEX
  8
caminho-de-ferro
 10
-9.369172
 20
38.694898
  0
SEQEND
  0
POLYLINE
  8
caminho-de-ferro
  6
BYLAYER
 66
1
 70
0
 40
0.000000
 41
0.000000
  0
VERTEX
  8
caminho-de-ferro
 10
-9.369172
 20
38.694898
  0
VERTEX
  8
caminho-de-ferro
 10
-9.368959
 20
38.694840
  0
VERTEX
  8
caminho-de-ferro
 10
-9.368821
 20
38.694799
  0
VERTEX
  8
caminho-de-ferro
 10
-9.368671
 20
38.694747
  0
SEQEND
  0
POLYLINE
  8
caminho-de-ferro
  6
BYLAYER
 66
1
 70
0
 40
0.000000
 41
0.000000
  0
VERTEX
  8
caminho-de-ferro
 10
-9.373516
 20
38.695751
  0
VERTEX
  8
caminho-de-ferro
 10
-9.373509
 20
38.695749
  0
VERTEX
  8
caminho-de-ferro
 10
-9.373468
 20
38.695738
  0
VERTEX
  8
caminho-de-ferro
 10
-9.373385
 20
38.695717
  0
SEQEND
  0
POLYLINE
  8
caminho-de-ferro
  6
BYLAYER
 66
1
 70
0
 40
0.000000
 41
0.000000
  0
VERTEX
  8
caminho-de-ferro
 10
-9.373935
 20
38.695807
  0
VERTEX
  8
caminho-de-ferro
 10
-9.373786
 20
38.695772
  0
VERTEX
  8
caminho-de-ferro
 10
-9.373650
 20
38.695734
  0
VERTEX
  8
caminho-de-ferro
 10
-9.373540
 20
38.695706
  0
SEQEND
  0
POLYLINE
  8
caminho-de-ferro
  6
BYLAYER
 66
1
 70
0
 40
0.000000
 41
0.000000
  0
VERTEX
  8
caminho-de-ferro
 10
-9.373540
 20
38.695706
  0
VERTEX
  8
caminho-de-ferro
 10
-9.373506
 20
38.695698
  0
VERTEX
  8
caminho-de-ferro
 10
-9.373415
 20
38.695674
  0
VERTEX
  8
caminho-de-ferro
 10
-9.373408
 20
38.695673
  0
SEQEND
  0
POLYLINE
  8
caminho-de-ferro
  6
BYLAYER
 66
1
 70
0
 40
0.000000
 41
0.000000
  0
VERTEX
  8
caminho-de-ferro
 10
-9.373874
 20
38.695881
  0
VERTEX
  8
caminho-de-ferro
 10
-9.373637
 20
38.695817
  0
VERTEX
  8
caminho-de-ferro
 10
-9.373499
 20
38.695778
  0
SEQEND
  0
POLYLINE
  8
caminho-de-ferro
  6
BYLAYER
 66
1
 70
0
 40
0.000000
 41
0.000000
  0
VERTEX
  8
caminho-de-ferro
 10
-9.373499
 20
38.695778
  0
VERTEX
  8
caminho-de-ferro
 10
-9.373488
 20
38.695775
  0
VERTEX
  8
caminho-de-ferro
 10
-9.373457
 20
38.695766
  0
VERTEX
  8
caminho-de-ferro
 10
-9.373445
 20
38.695763
  0
VERTEX
  8
caminho-de-ferro
 10
-9.373365
 20
38.695741
  0
SEQEND
  0
POLYLINE
  8
caminho-de-ferro
  6
BYLAYER
 66
1
 70
0
 40
0.000000
 41
0.000000
  0
VERTEX
  8
caminho-de-ferro
 10
-9.373365
 20
38.695741
  0
VERTEX
  8
caminho-de-ferro
 10
-9.373365
 20
38.695741
  0
VERTEX
  8
caminho-de-ferro
 10
-9.373223
 20
38.695702
  0
VERTEX
  8
caminho-de-ferro
 10
-9.372948
 20
38.695630
  0
SEQEND
  0
POLYLINE
  8
caminho-de-ferro
  6
BYLAYER
 66
1
 70
0
 40
0.000000
 41
0.000000
  0
VERTEX
  8
caminho-de-ferro
 10
-9.373935
 20
38.695807
  0
VERTEX
  8
caminho-de-ferro
 10
-9.373704
 20
38.695768
  0
VERTEX
  8
caminho-de-ferro
 10
-9.373523
 20
38.695739
  0
SEQEND
  0
POLYLINE
  8
caminho-de-ferro
  6
BYLAYER
 66
1
 70
0
 40
0.000000
 41
0.000000
  0
VERTEX
  8
caminho-de-ferro
 10
-9.373523
 20
38.695739
  0
VERTEX
  8
caminho-de-ferro
 10
-9.373517
 20
38.695737
  0
VERTEX
  8
caminho-de-ferro
 10
-9.373476
 20
38.695730
  0
VERTEX
  8
caminho-de-ferro
 10
-9.373386
 20
38.695716
  0
SEQEND
  0
POLYLINE
  8
caminho-de-ferro
  6
BYLAYER
 66
1
 70
0
 40
0.000000
 41
0.000000
  0
VERTEX
  8
caminho-de-ferro
 10
-9.373874
 20
38.695881
  0
VERTEX
  8
caminho-de-ferro
 10
-9.373687
 20
38.695840
  0
VERTEX
  8
caminho-de-ferro
 10
-9.373618
 20
38.695828
  0
VERTEX
  8
caminho-de-ferro
 10
-9.373469
 20
38.695803
  0
SEQEND
  0
POLYLINE
  8
caminho-de-ferro
  6
BYLAYER
 66
1
 70
0
 40
0.000000
 41
0.000000
  0
VERTEX
  8
caminho-de-ferro
 10
-9.373469
 20
38.695803
  0
VERTEX
  8
caminho-de-ferro
 10
-9.373462
 20
38.695802
  0
VERTEX
  8
caminho-de-ferro
 10
-9.373430
 20
38.695796
  0
VERTEX
  8
caminho-de-ferro
 10
-9.373416
 20
38.695794
  0
VERTEX
  8
caminho-de-ferro
 10
-9.373336
 20
38.695778
  0
SEQEND
  0
POLYLINE
  8
caminho-de-ferro
  6
BYLAYER
 66
1
 70
0
 40
0.000000
 41
0.000000
  0
VERTEX
  8
caminho-de-ferro
 10
-9.370229
 20
38.695092
  0
VERTEX
  8
caminho-de-ferro
 10
-9.370460
 20
38.695132
  0
VERTEX
  8
caminho-de-ferro
 10
-9.370754
 20
38.695188
  0
VERTEX
  8
caminho-de-ferro
 10
-9.371241
 20
38.695285
  0
VERTEX
  8
caminho-de-ferro
 10
-9.372391
 20
38.695518
  0
VERTEX
  8
caminho-de-ferro
 10
-9.372948
 20
38.695630
  0
SEQEND
  0
POLYLINE
  8
caminho-de-ferro
  6
BYLAYER
 66
1
 70
0
 40
0.000000
 41
0.000000
  0
VERTEX
  8
caminho-de-ferro
 10
-9.373385
 20
38.695717
  0
VERTEX
  8
caminho-de-ferro
 10
-9.373383
 20
38.695717
  0
VERTEX
  8
caminho-de-ferro
 10
-9.373361
 20
38.695711
  0
SEQEND
  0
POLYLINE
  8
caminho-de-ferro
  6
BYLAYER
 66
1
 70
0
 40
0.000000
 41
0.000000
  0
VERTEX
  8
caminho-de-ferro
 10
-9.373386
 20
38.695716
  0
VERTEX
  8
caminho-de-ferro
 10
-9.373385
 20
38.695715
  0
VERTEX
  8
caminho-de-ferro
 10
-9.373361
 20
38.695711
  0
SEQEND
  0
POLYLINE
  8
caminho-de-ferro
  6
BYLAYER
 66
1
 70
0
 40
0.000000
 41
0.000000
  0
VERTEX
  8
caminho-de-ferro
 10
-9.369491
 20
38.695004
  0
VERTEX
  8
caminho-de-ferro
 10
-9.369536
 20
38.695013
  0
VERTEX
  8
caminho-de-ferro
 10
-9.369920
 20
38.695091
  0
VERTEX
  8
caminho-de-ferro
 10
-9.370089
 20
38.695125
  0
VERTEX
  8
caminho-de-ferro
 10
-9.370557
 20
38.695217
  0
VERTEX
  8
caminho-de-ferro
 10
-9.371014
 20
38.695309
  0
VERTEX
  8
caminho-de-ferro
 10
-9.371484
 20
38.695404
  0
VERTEX
  8
caminho-de-ferro
 10
-9.372322
 20
38.695573
  0
VERTEX
  8
caminho-de-ferro
 10
-9.372722
 20
38.695654
  0
VERTEX
  8
caminho-de-ferro
 10
-9.373131
 20
38.695737
  0
VERTEX
  8
caminho-de-ferro
 10
-9.373336
 20
38.695778
  0
SEQEND
  0
POLYLINE
  8
caminho-de-ferro
  6
BYLAYER
 66
1
 70
0
 40
0.000000
 41
0.000000
  0
VERTEX
  8
caminho-de-ferro
 10
-9.369172
 20
38.694898
  0
VERTEX
  8
caminho-de-ferro
 10
-9.369203
 20
38.694905
  0
VERTEX
  8
caminho-de-ferro
 10
-9.369549
 20
38.694974
  0
VERTEX
  8
caminho-de-ferro
 10
-9.369963
 20
38.695046
  0
VERTEX
  8
caminho-de-ferro
 10
-9.370127
 20
38.695074
  0
VERTEX
  8
caminho-de-ferro
 10
-9.370229
 20
38.695092
  0
SEQEND
  0
POLYLINE
  8
caminho-de-ferro
  6
BYLAYER
 66
1
 70
0
 40
0.000000
 41
0.000000
  0
VERTEX
  8
caminho-de-ferro
 10
-9.369491
 20
38.695004
  0
VERTEX
  8
caminho-de-ferro
 10
-9.369672
 20
38.695029
  0
VERTEX
  8
caminho-de-ferro
 10
-9.369904
 20
38.695056
  0
VERTEX
  8
caminho-de-ferro
 10
-9.370123
 20
38.695080
  0
VERTEX
  8
caminho-de-ferro
 10
-9.370229
 20
38.695092
  0
SEQEND
  0
POLYLINE
  8
caminho-de-ferro
  6
BYLAYER
 66
1
 70
0
 40
0.000000
 41
0.000000
  0
VERTEX
  8
caminho-de-ferro
 10
-9.368671
 20
38.694747
  0
VERTEX
  8
caminho-de-ferro
 10
-9.368911
 20
38.694805
  0
VERTEX
  8
caminho-de-ferro
 10
-9.369290
 20
38.694881
  0
VERTEX
  8
caminho-de-ferro
 10
-9.369655
 20
38.694947
  0
VERTEX
  8
caminho-de-ferro
 10
-9.370027
 20
38.695006
  0
VERTEX
  8
caminho-de-ferro
 10
-9.370164
 20
38.695027
  0
VERTEX
  8
caminho-de-ferro
 10
-9.370390
 20
38.695062
  0
VERTEX
  8
caminho-de-ferro
 10
-9.370708
 20
38.695116
  0
VERTEX
  8
caminho-de-ferro
 10
-9.371075
 20
38.695174
  0
VERTEX
  8
caminho-de-ferro
 10
-9.371479
 20
38.695243
  0
VERTEX
  8
caminho-de-ferro
 10
-9.371945
 20
38.695332
  0
VERTEX
  8
caminho-de-ferro
 10
-9.372691
 20
38.695495
  0
VERTEX
  8
caminho-de-ferro
 10
-9.373017
 20
38.695577
  0
VERTEX
  8
caminho-de-ferro
 10
-9.373367
 20
38.695662
  0
VERTEX
  8
caminho-de-ferro
 10
-9.373408
 20
38.695673
  0
SEQEND
  0
POLYLINE
  8
caminho-de-ferro
  6
BYLAYER
 66
1
 70
0
 40
0.000000
 41
0.000000
  0
VERTEX
  8
caminho-de-ferro
 10
-9.376818
 20
38.696445
  0
VERTEX
  8
caminho-de-ferro
 10
-9.377011
 20
38.696484
  0
VERTEX
  8
caminho-de-ferro
 10
-9.377298
 20
38.696539
  0
VERTEX
  8
caminho-de-ferro
 10
-9.378430
 20
38.696772
  0
VERTEX
  8
caminho-de-ferro
 10
-9.379193
 20
38.696922
  0
VERTEX
  8
caminho-de-ferro
 10
-9.379328
 20
38.696949
  0
VERTEX
  8
caminho-de-ferro
 10
-9.379464
 20
38.696978
  0
VERTEX
  8
caminho-de-ferro
 10
-9.379599
 20
38.697007
  0
VERTEX
  8
caminho-de-ferro
 10
-9.379733
 20
38.697038
  0
VERTEX
  8
caminho-de-ferro
 10
-9.379868
 20
38.697070
  0
VERTEX
  8
caminho-de-ferro
 10
-9.380001
 20
38.697105
  0
VERTEX
  8
caminho-de-ferro
 10
-9.380132
 20
38.697144
  0
VERTEX
  8
caminho-de-ferro
 10
-9.380262
 20
38.697185
  0
VERTEX
  8
caminho-de-ferro
 10
-9.380391
 20
38.697230
  0
VERTEX
  8
caminho-de-ferro
 10
-9.380517
 20
38.697278
  0
VERTEX
  8
caminho-de-ferro
 10
-9.380685
 20
38.697347
  0
VERTEX
  8
caminho-de-ferro
 10
-9.380849
 20
38.697421
  0
VERTEX
  8
caminho-de-ferro
 10
-9.381009
 20
38.697500
  0
VERTEX
  8
caminho-de-ferro
 10
-9.381165
 20
38.697585
  0
VERTEX
  8
caminho-de-ferro
 10
-9.381301
 20
38.697667
  0
VERTEX
  8
caminho-de-ferro
 10
-9.381435
 20
38.697753
  0
VERTEX
  8
caminho-de-ferro
 10
-9.381483
 20
38.697787
  0
SEQEND
  0
POLYLINE
  8
caminho-de-ferro
  6
BYLAYER
 66
1
 70
0
 40
0.000000
 41
0.000000
  0
VERTEX
  8
caminho-de-ferro
 10
-9.376830
 20
38.696410
  0
VERTEX
  8
caminho-de-ferro
 10
-9.377053
 20
38.696454
  0
VERTEX
  8
caminho-de-ferro
 10
-9.377314
 20
38.696508
  0
VERTEX
  8
caminho-de-ferro
 10
-9.378226
 20
38.696696
  0
VERTEX
  8
caminho-de-ferro
 10
-9.379181
 20
38.696884
  0
VERTEX
  8
caminho-de-ferro
 10
-9.379524
 20
38.696955
  0
VERTEX
  8
caminho-de-ferro
 10
-9.379678
 20
38.696988
  0
VERTEX
  8
caminho-de-ferro
 10
-9.379830
 20
38.697023
  0
VERTEX
  8
caminho-de-ferro
 10
-9.379981
 20
38.697063
  0
VERTEX
  8
caminho-de-ferro
 10
-9.380130
 20
38.697106
  0
VERTEX
  8
caminho-de-ferro
 10
-9.380278
 20
38.697153
  0
VERTEX
  8
caminho-de-ferro
 10
-9.380424
 20
38.697203
  0
VERTEX
  8
caminho-de-ferro
 10
-9.380545
 20
38.697248
  0
VERTEX
  8
caminho-de-ferro
 10
-9.380664
 20
38.697296
  0
VERTEX
  8
caminho-de-ferro
 10
-9.380781
 20
38.697347
  0
VERTEX
  8
caminho-de-ferro
 10
-9.380896
 20
38.697401
  0
VERTEX
  8
caminho-de-ferro
 10
-9.381009
 20
38.697458
  0
VERTEX
  8
caminho-de-ferro
 10
-9.381120
 20
38.697517
  0
VERTEX
  8
caminho-de-ferro
 10
-9.381324
 20
38.697639
  0
VERTEX
  8
caminho-de-ferro
 10
-9.381331
 20
38.697641
  0
VERTEX
  8
caminho-de-ferro
 10
-9.381522
 20
38.697768
  0
VERTEX
  8
caminho-de-ferro
 10
-9.381547
 20
38.697786
  0
SEQEND
  0
POLYLINE
  8
caminho-de-ferro
  6
BYLAYER
 66
1
 70
0
 40
0.000000
 41
0.000000
  0
VERTEX
  8
caminho-de-ferro
 10
-9.375014
 20
38.696079
  0
VERTEX
  8
caminho-de-ferro
 10
-9.374784
 20
38.696034
  0
VERTEX
  8
caminho-de-ferro
 10
-9.374493
 20
38.695975
  0
SEQEND
  0
POLYLINE
  8
caminho-de-ferro
  6
BYLAYER
 66
1
 70
0
 40
0.000000
 41
0.000000
  0
VERTEX
  8
caminho-de-ferro
 10
-9.375057
 20
38.696120
  0
VERTEX
  8
caminho-de-ferro
 10
-9.374915
 20
38.696093
  0
VERTEX
  8
caminho-de-ferro
 10
-9.374532
 20
38.696018
  0
VERTEX
  8
caminho-de-ferro
 10
-9.374494
 20
38.696011
  0
SEQEND
  0
POLYLINE
  8
caminho-de-ferro
  6
BYLAYER
 66
1
 70
0
 40
0.000000
 41
0.000000
  0
VERTEX
  8
caminho-de-ferro
 10
-9.375095
 20
38.696062
  0
VERTEX
  8
caminho-de-ferro
 10
-9.374788
 20
38.695999
  0
VERTEX
  8
caminho-de-ferro
 10
-9.374493
 20
38.695935
  0
SEQEND
  0
POLYLINE
  8
caminho-de-ferro
  6
BYLAYER
 66
1
 70
0
 40
0.000000
 41
0.000000
  0
VERTEX
  8
caminho-de-ferro
 10
-9.376808
 20
38.696443
  0
VERTEX
  8
caminho-de-ferro
 10
-9.376661
 20
38.696413
  0
VERTEX
  8
caminho-de-ferro
 10
-9.376288
 20
38.696344
  0
VERTEX
  8
caminho-de-ferro
 10
-9.375928
 20
38.696280
  0
VERTEX
  8
caminho-de-ferro
 10
-9.375543
 20
38.696205
  0
VERTEX
  8
caminho-de-ferro
 10
-9.375395
 20
38.696180
  0
SEQEND
  0
POLYLINE
  8
caminho-de-ferro
  6
BYLAYER
 66
1
 70
0
 40
0.000000
 41
0.000000
  0
VERTEX
  8
caminho-de-ferro
 10
-9.376820
 20
38.696408
  0
VERTEX
  8
caminho-de-ferro
 10
-9.376486
 20
38.696341
  0
VERTEX
  8
caminho-de-ferro
 10
-9.376118
 20
38.696268
  0
SEQEND
  0
POLYLINE
  8
caminho-de-ferro
  6
BYLAYER
 66
1
 70
0
 40
0.000000
 41
0.000000
  0
VERTEX
  8
caminho-de-ferro
 10
-9.375057
 20
38.696120
  0
VERTEX
  8
caminho-de-ferro
 10
-9.375217
 20
38.696151
  0
VERTEX
  8
caminho-de-ferro
 10
-9.375395
 20
38.696180
  0
SEQEND
  0
POLYLINE
  8
caminho-de-ferro
  6
BYLAYER
 66
1
 70
0
 40
0.000000
 41
0.000000
  0
VERTEX
  8
caminho-de-ferro
 10
-9.375095
 20
38.696062
  0
VERTEX
  8
caminho-de-ferro
 10
-9.375279
 20
38.696100
  0
VERTEX
  8
caminho-de-ferro
 10
-9.375893
 20
38.696223
  0
VERTEX
  8
caminho-de-ferro
 10
-9.376118
 20
38.696268
  0
SEQEND
  0
ENDSEC
  0
EOF
