  0
SECTION
  2
HEADER
  9
$LTSCALE
 40
1.000000
  9
$LUNITS
 70
2
  9
$LUPREC
 70
4
  9
$AUNITS
 70
1
  9
$AUPREC
 70
4
  9
$FILLMODE
 70
1
  0
ENDSEC
  0
SECTION
  2
TABLES
  0
TABLE
  2
VPORT
 70
0
  0
ENDTAB
  0
TABLE
  2
LTYPE
 70
1
  0
LTYPE
  2
CONTINUOUS
 70
64
  3
Solid line
 72
65
 73
0
 40
0.000000
  0
ENDTAB
  0
TABLE
  2
LAYER
 70
1
  0
LAYER
  2
0
 62
1
  6
CONTINUOUS
 70
64
  0
ENDTAB
  0
TABLE
  2
STYLE
 70
1
  0
STYLE
  2
STANDARD
 70
64
 40
0.000000
 41
1.000000
 50
0.000000
 71
0
 42
2.000000
  3
txt
  4

  0
ENDTAB
  0
TABLE
  2
VIEW
 70
0
  0
ENDTAB
  0
TABLE
  2
UCS
 70
0
  0
ENDTAB
  0
TABLE
  2
APPID
 70
0
  0
ENDTAB
  0
TABLE
  2
DIMSTYLE
 70
1
  0
DIMSTYLE
  2
STANDARD
 70
0
  3

  4

  5

  6

  7

 40
1.000000
 41
3.000000
 42
2.500000
 43
10.000000
 44
2.500000
 45
0.000000
 46
1.250000
 47
0.000000
 48
0.000000
140
3.000000
141
-3.000000
142
0.000000
143
0.039000
144
1.000000
145
1.500000
146
0.750000
147
1.500000
 71
0
 72
0
 73
0
 74
0
 75
0
 76
0
 77
0
 78
0
170
0
171
0
172
0
173
0
174
0
175
0
176
0
177
0
178
0
  0
ENDTAB
  0
ENDSEC
  0
SECTION
  2
ENTITIES
  0
POLYLINE
  8
piscina
  6
BYLAYER
 66
1
 70
1
 40
0.000000
 41
0.000000
  0
VERTEX
  8
piscina
 10
-9.478457
 20
38.721488
  0
VERTEX
  8
piscina
 10
-9.478384
 20
38.721529
  0
VERTEX
  8
piscina
 10
-9.478266
 20
38.721469
  0
VERTEX
  8
piscina
 10
-9.478133
 20
38.721453
  0
VERTEX
  8
piscina
 10
-9.478144
 20
38.721371
  0
VERTEX
  8
piscina
 10
-9.478184
 20
38.721310
  0
VERTEX
  8
piscina
 10
-9.478393
 20
38.721339
  0
VERTEX
  8
piscina
 10
-9.478391
 20
38.721398
  0
VERTEX
  8
piscina
 10
-9.478353
 20
38.721414
  0
VERTEX
  8
piscina
 10
-9.478350
 20
38.721435
  0
VERTEX
  8
piscina
 10
-9.478370
 20
38.721440
  0
VERTEX
  8
piscina
 10
-9.478408
 20
38.721424
  0
VERTEX
  8
piscina
 10
-9.478457
 20
38.721488
  0
SEQEND
  0
POLYLINE
  8
piscina
  6
BYLAYER
 66
1
 70
1
 40
0.000000
 41
0.000000
  0
VERTEX
  8
piscina
 10
-9.472046
 20
38.720391
  0
VERTEX
  8
piscina
 10
-9.472026
 20
38.720413
  0
VERTEX
  8
piscina
 10
-9.472017
 20
38.720414
  0
VERTEX
  8
piscina
 10
-9.471954
 20
38.720414
  0
VERTEX
  8
piscina
 10
-9.471952
 20
38.720306
  0
VERTEX
  8
piscina
 10
-9.472019
 20
38.720306
  0
VERTEX
  8
piscina
 10
-9.472019
 20
38.720347
  0
VERTEX
  8
piscina
 10
-9.472032
 20
38.720378
  0
VERTEX
  8
piscina
 10
-9.472046
 20
38.720391
  0
VERTEX
  8
piscina
 10
-9.472046
 20
38.720391
  0
SEQEND
  0
POLYLINE
  8
piscina
  6
BYLAYER
 66
1
 70
1
 40
0.000000
 41
0.000000
  0
VERTEX
  8
piscina
 10
-9.466481
 20
38.722028
  0
VERTEX
  8
piscina
 10
-9.466472
 20
38.722027
  0
VERTEX
  8
piscina
 10
-9.466463
 20
38.722025
  0
VERTEX
  8
piscina
 10
-9.466454
 20
38.722022
  0
VERTEX
  8
piscina
 10
-9.466447
 20
38.722017
  0
VERTEX
  8
piscina
 10
-9.466441
 20
38.722011
  0
VERTEX
  8
piscina
 10
-9.466437
 20
38.722005
  0
VERTEX
  8
piscina
 10
-9.466434
 20
38.721998
  0
VERTEX
  8
piscina
 10
-9.466434
 20
38.721991
  0
VERTEX
  8
piscina
 10
-9.466435
 20
38.721983
  0
VERTEX
  8
piscina
 10
-9.466438
 20
38.721976
  0
VERTEX
  8
piscina
 10
-9.466442
 20
38.721970
  0
VERTEX
  8
piscina
 10
-9.466448
 20
38.721965
  0
VERTEX
  8
piscina
 10
-9.466456
 20
38.721960
  0
VERTEX
  8
piscina
 10
-9.466464
 20
38.721957
  0
VERTEX
  8
piscina
 10
-9.466473
 20
38.721955
  0
VERTEX
  8
piscina
 10
-9.466482
 20
38.721955
  0
VERTEX
  8
piscina
 10
-9.466492
 20
38.721956
  0
VERTEX
  8
piscina
 10
-9.466500
 20
38.721958
  0
VERTEX
  8
piscina
 10
-9.466508
 20
38.721962
  0
VERTEX
  8
piscina
 10
-9.466515
 20
38.721967
  0
VERTEX
  8
piscina
 10
-9.466521
 20
38.721973
  0
VERTEX
  8
piscina
 10
-9.466524
 20
38.721980
  0
VERTEX
  8
piscina
 10
-9.466527
 20
38.721987
  0
VERTEX
  8
piscina
 10
-9.466527
 20
38.721994
  0
VERTEX
  8
piscina
 10
-9.466525
 20
38.722001
  0
VERTEX
  8
piscina
 10
-9.466522
 20
38.722008
  0
VERTEX
  8
piscina
 10
-9.466517
 20
38.722014
  0
VERTEX
  8
piscina
 10
-9.466510
 20
38.722019
  0
VERTEX
  8
piscina
 10
-9.466502
 20
38.722023
  0
VERTEX
  8
piscina
 10
-9.466494
 20
38.722026
  0
VERTEX
  8
piscina
 10
-9.466485
 20
38.722028
  0
VERTEX
  8
piscina
 10
-9.466481
 20
38.722028
  0
VERTEX
  8
piscina
 10
-9.466481
 20
38.722028
  0
SEQEND
  0
POLYLINE
  8
piscina
  6
BYLAYER
 66
1
 70
1
 40
0.000000
 41
0.000000
  0
VERTEX
  8
piscina
 10
-9.466573
 20
38.722066
  0
VERTEX
  8
piscina
 10
-9.466623
 20
38.722241
  0
VERTEX
  8
piscina
 10
-9.466512
 20
38.722261
  0
VERTEX
  8
piscina
 10
-9.466462
 20
38.722085
  0
VERTEX
  8
piscina
 10
-9.466573
 20
38.722066
  0
VERTEX
  8
piscina
 10
-9.466573
 20
38.722066
  0
SEQEND
  0
POLYLINE
  8
piscina
  6
BYLAYER
 66
1
 70
1
 40
0.000000
 41
0.000000
  0
VERTEX
  8
piscina
 10
-9.475447
 20
38.729502
  0
VERTEX
  8
piscina
 10
-9.475078
 20
38.729569
  0
VERTEX
  8
piscina
 10
-9.475025
 20
38.729452
  0
VERTEX
  8
piscina
 10
-9.475381
 20
38.729368
  0
VERTEX
  8
piscina
 10
-9.475447
 20
38.729502
  0
VERTEX
  8
piscina
 10
-9.475447
 20
38.729502
  0
SEQEND
  0
POLYLINE
  8
piscina
  6
BYLAYER
 66
1
 70
1
 40
0.000000
 41
0.000000
  0
VERTEX
  8
piscina
 10
-9.474890
 20
38.729376
  0
VERTEX
  8
piscina
 10
-9.474839
 20
38.729378
  0
VERTEX
  8
piscina
 10
-9.474822
 20
38.729377
  0
VERTEX
  8
piscina
 10
-9.474819
 20
38.729376
  0
VERTEX
  8
piscina
 10
-9.474817
 20
38.729374
  0
VERTEX
  8
piscina
 10
-9.474814
 20
38.729372
  0
VERTEX
  8
piscina
 10
-9.474813
 20
38.729370
  0
VERTEX
  8
piscina
 10
-9.474812
 20
38.729368
  0
VERTEX
  8
piscina
 10
-9.474812
 20
38.729365
  0
VERTEX
  8
piscina
 10
-9.474812
 20
38.729363
  0
VERTEX
  8
piscina
 10
-9.474813
 20
38.729360
  0
VERTEX
  8
piscina
 10
-9.474814
 20
38.729358
  0
VERTEX
  8
piscina
 10
-9.474816
 20
38.729356
  0
VERTEX
  8
piscina
 10
-9.474818
 20
38.729354
  0
VERTEX
  8
piscina
 10
-9.474825
 20
38.729352
  0
VERTEX
  8
piscina
 10
-9.474832
 20
38.729350
  0
VERTEX
  8
piscina
 10
-9.474839
 20
38.729348
  0
VERTEX
  8
piscina
 10
-9.474846
 20
38.729347
  0
VERTEX
  8
piscina
 10
-9.474853
 20
38.729346
  0
VERTEX
  8
piscina
 10
-9.474860
 20
38.729346
  0
VERTEX
  8
piscina
 10
-9.474867
 20
38.729345
  0
VERTEX
  8
piscina
 10
-9.474875
 20
38.729346
  0
VERTEX
  8
piscina
 10
-9.474882
 20
38.729346
  0
VERTEX
  8
piscina
 10
-9.474889
 20
38.729347
  0
VERTEX
  8
piscina
 10
-9.474896
 20
38.729348
  0
VERTEX
  8
piscina
 10
-9.474899
 20
38.729350
  0
VERTEX
  8
piscina
 10
-9.474902
 20
38.729353
  0
VERTEX
  8
piscina
 10
-9.474904
 20
38.729356
  0
VERTEX
  8
piscina
 10
-9.474905
 20
38.729359
  0
VERTEX
  8
piscina
 10
-9.474905
 20
38.729362
  0
VERTEX
  8
piscina
 10
-9.474904
 20
38.729365
  0
VERTEX
  8
piscina
 10
-9.474902
 20
38.729368
  0
VERTEX
  8
piscina
 10
-9.474900
 20
38.729371
  0
VERTEX
  8
piscina
 10
-9.474897
 20
38.729373
  0
VERTEX
  8
piscina
 10
-9.474893
 20
38.729375
  0
VERTEX
  8
piscina
 10
-9.474890
 20
38.729376
  0
VERTEX
  8
piscina
 10
-9.474890
 20
38.729376
  0
SEQEND
  0
POLYLINE
  8
piscina
  6
BYLAYER
 66
1
 70
1
 40
0.000000
 41
0.000000
  0
VERTEX
  8
piscina
 10
-9.393233
 20
38.746093
  0
VERTEX
  8
piscina
 10
-9.393235
 20
38.746099
  0
VERTEX
  8
piscina
 10
-9.393237
 20
38.746105
  0
VERTEX
  8
piscina
 10
-9.393239
 20
38.746111
  0
VERTEX
  8
piscina
 10
-9.393240
 20
38.746117
  0
VERTEX
  8
piscina
 10
-9.393240
 20
38.746123
  0
VERTEX
  8
piscina
 10
-9.393239
 20
38.746130
  0
VERTEX
  8
piscina
 10
-9.393237
 20
38.746137
  0
VERTEX
  8
piscina
 10
-9.393235
 20
38.746145
  0
VERTEX
  8
piscina
 10
-9.393231
 20
38.746151
  0
VERTEX
  8
piscina
 10
-9.393227
 20
38.746158
  0
VERTEX
  8
piscina
 10
-9.393222
 20
38.746164
  0
VERTEX
  8
piscina
 10
-9.393216
 20
38.746170
  0
VERTEX
  8
piscina
 10
-9.393210
 20
38.746176
  0
VERTEX
  8
piscina
 10
-9.393203
 20
38.746181
  0
VERTEX
  8
piscina
 10
-9.393196
 20
38.746185
  0
VERTEX
  8
piscina
 10
-9.393188
 20
38.746189
  0
VERTEX
  8
piscina
 10
-9.393182
 20
38.746191
  0
VERTEX
  8
piscina
 10
-9.393176
 20
38.746192
  0
VERTEX
  8
piscina
 10
-9.393170
 20
38.746194
  0
VERTEX
  8
piscina
 10
-9.393164
 20
38.746195
  0
VERTEX
  8
piscina
 10
-9.393158
 20
38.746195
  0
VERTEX
  8
piscina
 10
-9.393152
 20
38.746196
  0
VERTEX
  8
piscina
 10
-9.393145
 20
38.746196
  0
VERTEX
  8
piscina
 10
-9.393139
 20
38.746196
  0
VERTEX
  8
piscina
 10
-9.393133
 20
38.746196
  0
VERTEX
  8
piscina
 10
-9.393127
 20
38.746195
  0
VERTEX
  8
piscina
 10
-9.393121
 20
38.746194
  0
VERTEX
  8
piscina
 10
-9.393099
 20
38.746188
  0
VERTEX
  8
piscina
 10
-9.393087
 20
38.746155
  0
VERTEX
  8
piscina
 10
-9.393123
 20
38.746142
  0
VERTEX
  8
piscina
 10
-9.393108
 20
38.746116
  0
VERTEX
  8
piscina
 10
-9.393075
 20
38.746118
  0
VERTEX
  8
piscina
 10
-9.393056
 20
38.746095
  0
VERTEX
  8
piscina
 10
-9.393059
 20
38.746089
  0
VERTEX
  8
piscina
 10
-9.393063
 20
38.746084
  0
VERTEX
  8
piscina
 10
-9.393068
 20
38.746078
  0
VERTEX
  8
piscina
 10
-9.393073
 20
38.746073
  0
VERTEX
  8
piscina
 10
-9.393079
 20
38.746068
  0
VERTEX
  8
piscina
 10
-9.393086
 20
38.746064
  0
VERTEX
  8
piscina
 10
-9.393093
 20
38.746060
  0
VERTEX
  8
piscina
 10
-9.393100
 20
38.746057
  0
VERTEX
  8
piscina
 10
-9.393107
 20
38.746054
  0
VERTEX
  8
piscina
 10
-9.393115
 20
38.746052
  0
VERTEX
  8
piscina
 10
-9.393124
 20
38.746050
  0
VERTEX
  8
piscina
 10
-9.393131
 20
38.746049
  0
VERTEX
  8
piscina
 10
-9.393139
 20
38.746048
  0
VERTEX
  8
piscina
 10
-9.393147
 20
38.746048
  0
VERTEX
  8
piscina
 10
-9.393155
 20
38.746048
  0
VERTEX
  8
piscina
 10
-9.393162
 20
38.746049
  0
VERTEX
  8
piscina
 10
-9.393170
 20
38.746051
  0
VERTEX
  8
piscina
 10
-9.393178
 20
38.746052
  0
VERTEX
  8
piscina
 10
-9.393185
 20
38.746055
  0
VERTEX
  8
piscina
 10
-9.393192
 20
38.746058
  0
VERTEX
  8
piscina
 10
-9.393198
 20
38.746061
  0
VERTEX
  8
piscina
 10
-9.393205
 20
38.746065
  0
VERTEX
  8
piscina
 10
-9.393211
 20
38.746069
  0
VERTEX
  8
piscina
 10
-9.393216
 20
38.746073
  0
VERTEX
  8
piscina
 10
-9.393221
 20
38.746078
  0
VERTEX
  8
piscina
 10
-9.393225
 20
38.746083
  0
VERTEX
  8
piscina
 10
-9.393229
 20
38.746088
  0
VERTEX
  8
piscina
 10
-9.393233
 20
38.746093
  0
VERTEX
  8
piscina
 10
-9.393233
 20
38.746093
  0
SEQEND
  0
POLYLINE
  8
piscina
  6
BYLAYER
 66
1
 70
1
 40
0.000000
 41
0.000000
  0
VERTEX
  8
piscina
 10
-9.393202
 20
38.746028
  0
VERTEX
  8
piscina
 10
-9.393198
 20
38.746026
  0
VERTEX
  8
piscina
 10
-9.393193
 20
38.746024
  0
VERTEX
  8
piscina
 10
-9.393189
 20
38.746023
  0
VERTEX
  8
piscina
 10
-9.393184
 20
38.746021
  0
VERTEX
  8
piscina
 10
-9.393180
 20
38.746020
  0
VERTEX
  8
piscina
 10
-9.393175
 20
38.746019
  0
VERTEX
  8
piscina
 10
-9.393170
 20
38.746018
  0
VERTEX
  8
piscina
 10
-9.393165
 20
38.746018
  0
VERTEX
  8
piscina
 10
-9.393160
 20
38.746017
  0
VERTEX
  8
piscina
 10
-9.393155
 20
38.746017
  0
VERTEX
  8
piscina
 10
-9.393150
 20
38.746017
  0
VERTEX
  8
piscina
 10
-9.393138
 20
38.745994
  0
VERTEX
  8
piscina
 10
-9.393140
 20
38.745990
  0
VERTEX
  8
piscina
 10
-9.393142
 20
38.745986
  0
VERTEX
  8
piscina
 10
-9.393145
 20
38.745982
  0
VERTEX
  8
piscina
 10
-9.393148
 20
38.745979
  0
VERTEX
  8
piscina
 10
-9.393152
 20
38.745975
  0
VERTEX
  8
piscina
 10
-9.393156
 20
38.745973
  0
VERTEX
  8
piscina
 10
-9.393161
 20
38.745970
  0
VERTEX
  8
piscina
 10
-9.393166
 20
38.745968
  0
VERTEX
  8
piscina
 10
-9.393171
 20
38.745967
  0
VERTEX
  8
piscina
 10
-9.393177
 20
38.745966
  0
VERTEX
  8
piscina
 10
-9.393182
 20
38.745965
  0
VERTEX
  8
piscina
 10
-9.393188
 20
38.745966
  0
VERTEX
  8
piscina
 10
-9.393193
 20
38.745966
  0
VERTEX
  8
piscina
 10
-9.393198
 20
38.745967
  0
VERTEX
  8
piscina
 10
-9.393203
 20
38.745968
  0
VERTEX
  8
piscina
 10
-9.393208
 20
38.745970
  0
VERTEX
  8
piscina
 10
-9.393213
 20
38.745973
  0
VERTEX
  8
piscina
 10
-9.393217
 20
38.745975
  0
VERTEX
  8
piscina
 10
-9.393221
 20
38.745978
  0
VERTEX
  8
piscina
 10
-9.393224
 20
38.745982
  0
VERTEX
  8
piscina
 10
-9.393227
 20
38.745985
  0
VERTEX
  8
piscina
 10
-9.393229
 20
38.745989
  0
VERTEX
  8
piscina
 10
-9.393230
 20
38.745992
  0
VERTEX
  8
piscina
 10
-9.393231
 20
38.745994
  0
VERTEX
  8
piscina
 10
-9.393231
 20
38.745996
  0
VERTEX
  8
piscina
 10
-9.393232
 20
38.745998
  0
VERTEX
  8
piscina
 10
-9.393232
 20
38.746001
  0
VERTEX
  8
piscina
 10
-9.393232
 20
38.746003
  0
VERTEX
  8
piscina
 10
-9.393232
 20
38.746005
  0
VERTEX
  8
piscina
 10
-9.393232
 20
38.746008
  0
VERTEX
  8
piscina
 10
-9.393232
 20
38.746010
  0
VERTEX
  8
piscina
 10
-9.393232
 20
38.746012
  0
VERTEX
  8
piscina
 10
-9.393232
 20
38.746015
  0
VERTEX
  8
piscina
 10
-9.393202
 20
38.746028
  0
VERTEX
  8
piscina
 10
-9.393202
 20
38.746028
  0
SEQEND
  0
POLYLINE
  8
piscina
  6
BYLAYER
 66
1
 70
1
 40
0.000000
 41
0.000000
  0
VERTEX
  8
piscina
 10
-9.403923
 20
38.706698
  0
VERTEX
  8
piscina
 10
-9.403972
 20
38.706814
  0
VERTEX
  8
piscina
 10
-9.403899
 20
38.706833
  0
VERTEX
  8
piscina
 10
-9.403850
 20
38.706717
  0
VERTEX
  8
piscina
 10
-9.403923
 20
38.706698
  0
VERTEX
  8
piscina
 10
-9.403923
 20
38.706698
  0
SEQEND
  0
POLYLINE
  8
piscina
  6
BYLAYER
 66
1
 70
1
 40
0.000000
 41
0.000000
  0
VERTEX
  8
piscina
 10
-9.405891
 20
38.709101
  0
VERTEX
  8
piscina
 10
-9.405827
 20
38.709078
  0
VERTEX
  8
piscina
 10
-9.405783
 20
38.708986
  0
VERTEX
  8
piscina
 10
-9.405846
 20
38.708969
  0
VERTEX
  8
piscina
 10
-9.405870
 20
38.709027
  0
VERTEX
  8
piscina
 10
-9.405923
 20
38.709044
  0
VERTEX
  8
piscina
 10
-9.405891
 20
38.709101
  0
VERTEX
  8
piscina
 10
-9.405891
 20
38.709101
  0
SEQEND
  0
POLYLINE
  8
piscina
  6
BYLAYER
 66
1
 70
1
 40
0.000000
 41
0.000000
  0
VERTEX
  8
piscina
 10
-9.454262
 20
38.697319
  0
VERTEX
  8
piscina
 10
-9.454315
 20
38.697417
  0
VERTEX
  8
piscina
 10
-9.454269
 20
38.697432
  0
VERTEX
  8
piscina
 10
-9.454281
 20
38.697454
  0
VERTEX
  8
piscina
 10
-9.454209
 20
38.697478
  0
VERTEX
  8
piscina
 10
-9.454196
 20
38.697454
  0
VERTEX
  8
piscina
 10
-9.454152
 20
38.697468
  0
VERTEX
  8
piscina
 10
-9.454100
 20
38.697373
  0
VERTEX
  8
piscina
 10
-9.454262
 20
38.697319
  0
VERTEX
  8
piscina
 10
-9.454262
 20
38.697319
  0
SEQEND
  0
POLYLINE
  8
piscina
  6
BYLAYER
 66
1
 70
1
 40
0.000000
 41
0.000000
  0
VERTEX
  8
piscina
 10
-9.456808
 20
38.706883
  0
VERTEX
  8
piscina
 10
-9.456810
 20
38.706887
  0
VERTEX
  8
piscina
 10
-9.456812
 20
38.706891
  0
VERTEX
  8
piscina
 10
-9.456815
 20
38.706896
  0
VERTEX
  8
piscina
 10
-9.456817
 20
38.706900
  0
VERTEX
  8
piscina
 10
-9.456818
 20
38.706904
  0
VERTEX
  8
piscina
 10
-9.456820
 20
38.706909
  0
VERTEX
  8
piscina
 10
-9.456821
 20
38.706913
  0
VERTEX
  8
piscina
 10
-9.456823
 20
38.706918
  0
VERTEX
  8
piscina
 10
-9.456823
 20
38.706922
  0
VERTEX
  8
piscina
 10
-9.456824
 20
38.706927
  0
VERTEX
  8
piscina
 10
-9.456825
 20
38.706932
  0
VERTEX
  8
piscina
 10
-9.456823
 20
38.706942
  0
VERTEX
  8
piscina
 10
-9.456819
 20
38.706952
  0
VERTEX
  8
piscina
 10
-9.456814
 20
38.706961
  0
VERTEX
  8
piscina
 10
-9.456808
 20
38.706970
  0
VERTEX
  8
piscina
 10
-9.456801
 20
38.706979
  0
VERTEX
  8
piscina
 10
-9.456792
 20
38.706986
  0
VERTEX
  8
piscina
 10
-9.456783
 20
38.706993
  0
VERTEX
  8
piscina
 10
-9.456772
 20
38.706999
  0
VERTEX
  8
piscina
 10
-9.456761
 20
38.707005
  0
VERTEX
  8
piscina
 10
-9.456749
 20
38.707009
  0
VERTEX
  8
piscina
 10
-9.456737
 20
38.707012
  0
VERTEX
  8
piscina
 10
-9.456731
 20
38.707012
  0
VERTEX
  8
piscina
 10
-9.456726
 20
38.707012
  0
VERTEX
  8
piscina
 10
-9.456721
 20
38.707012
  0
VERTEX
  8
piscina
 10
-9.456716
 20
38.707012
  0
VERTEX
  8
piscina
 10
-9.456711
 20
38.707011
  0
VERTEX
  8
piscina
 10
-9.456706
 20
38.707011
  0
VERTEX
  8
piscina
 10
-9.456701
 20
38.707010
  0
VERTEX
  8
piscina
 10
-9.456696
 20
38.707009
  0
VERTEX
  8
piscina
 10
-9.456691
 20
38.707008
  0
VERTEX
  8
piscina
 10
-9.456686
 20
38.707007
  0
VERTEX
  8
piscina
 10
-9.456682
 20
38.707006
  0
VERTEX
  8
piscina
 10
-9.456684
 20
38.706997
  0
VERTEX
  8
piscina
 10
-9.456684
 20
38.706988
  0
VERTEX
  8
piscina
 10
-9.456681
 20
38.706980
  0
VERTEX
  8
piscina
 10
-9.456675
 20
38.706972
  0
VERTEX
  8
piscina
 10
-9.456668
 20
38.706965
  0
VERTEX
  8
piscina
 10
-9.456658
 20
38.706960
  0
VERTEX
  8
piscina
 10
-9.456648
 20
38.706957
  0
VERTEX
  8
piscina
 10
-9.456637
 20
38.706956
  0
VERTEX
  8
piscina
 10
-9.456625
 20
38.706957
  0
VERTEX
  8
piscina
 10
-9.456615
 20
38.706960
  0
VERTEX
  8
piscina
 10
-9.456605
 20
38.706965
  0
VERTEX
  8
piscina
 10
-9.456603
 20
38.706962
  0
VERTEX
  8
piscina
 10
-9.456601
 20
38.706960
  0
VERTEX
  8
piscina
 10
-9.456598
 20
38.706957
  0
VERTEX
  8
piscina
 10
-9.456595
 20
38.706955
  0
VERTEX
  8
piscina
 10
-9.456593
 20
38.706953
  0
VERTEX
  8
piscina
 10
-9.456590
 20
38.706951
  0
VERTEX
  8
piscina
 10
-9.456587
 20
38.706949
  0
VERTEX
  8
piscina
 10
-9.456583
 20
38.706947
  0
VERTEX
  8
piscina
 10
-9.456580
 20
38.706945
  0
VERTEX
  8
piscina
 10
-9.456576
 20
38.706944
  0
VERTEX
  8
piscina
 10
-9.456573
 20
38.706943
  0
VERTEX
  8
piscina
 10
-9.456579
 20
38.706935
  0
VERTEX
  8
piscina
 10
-9.456585
 20
38.706928
  0
VERTEX
  8
piscina
 10
-9.456592
 20
38.706921
  0
VERTEX
  8
piscina
 10
-9.456600
 20
38.706915
  0
VERTEX
  8
piscina
 10
-9.456609
 20
38.706909
  0
VERTEX
  8
piscina
 10
-9.456617
 20
38.706903
  0
VERTEX
  8
piscina
 10
-9.456627
 20
38.706898
  0
VERTEX
  8
piscina
 10
-9.456636
 20
38.706894
  0
VERTEX
  8
piscina
 10
-9.456646
 20
38.706890
  0
VERTEX
  8
piscina
 10
-9.456657
 20
38.706887
  0
VERTEX
  8
piscina
 10
-9.456668
 20
38.706884
  0
VERTEX
  8
piscina
 10
-9.456674
 20
38.706884
  0
VERTEX
  8
piscina
 10
-9.456681
 20
38.706885
  0
VERTEX
  8
piscina
 10
-9.456688
 20
38.706885
  0
VERTEX
  8
piscina
 10
-9.456695
 20
38.706885
  0
VERTEX
  8
piscina
 10
-9.456702
 20
38.706885
  0
VERTEX
  8
piscina
 10
-9.456709
 20
38.706885
  0
VERTEX
  8
piscina
 10
-9.456716
 20
38.706884
  0
VERTEX
  8
piscina
 10
-9.456723
 20
38.706883
  0
VERTEX
  8
piscina
 10
-9.456729
 20
38.706882
  0
VERTEX
  8
piscina
 10
-9.456736
 20
38.706880
  0
VERTEX
  8
piscina
 10
-9.456743
 20
38.706879
  0
VERTEX
  8
piscina
 10
-9.456746
 20
38.706878
  0
VERTEX
  8
piscina
 10
-9.456750
 20
38.706876
  0
VERTEX
  8
piscina
 10
-9.456753
 20
38.706875
  0
VERTEX
  8
piscina
 10
-9.456756
 20
38.706873
  0
VERTEX
  8
piscina
 10
-9.456760
 20
38.706872
  0
VERTEX
  8
piscina
 10
-9.456763
 20
38.706870
  0
VERTEX
  8
piscina
 10
-9.456766
 20
38.706869
  0
VERTEX
  8
piscina
 10
-9.456770
 20
38.706868
  0
VERTEX
  8
piscina
 10
-9.456773
 20
38.706866
  0
VERTEX
  8
piscina
 10
-9.456776
 20
38.706864
  0
VERTEX
  8
piscina
 10
-9.456780
 20
38.706863
  0
VERTEX
  8
piscina
 10
-9.456808
 20
38.706883
  0
VERTEX
  8
piscina
 10
-9.456808
 20
38.706883
  0
SEQEND
  0
POLYLINE
  8
piscina
  6
BYLAYER
 66
1
 70
1
 40
0.000000
 41
0.000000
  0
VERTEX
  8
piscina
 10
-9.456864
 20
38.706878
  0
VERTEX
  8
piscina
 10
-9.456865
 20
38.706876
  0
VERTEX
  8
piscina
 10
-9.456866
 20
38.706873
  0
VERTEX
  8
piscina
 10
-9.456867
 20
38.706871
  0
VERTEX
  8
piscina
 10
-9.456869
 20
38.706869
  0
VERTEX
  8
piscina
 10
-9.456871
 20
38.706867
  0
VERTEX
  8
piscina
 10
-9.456873
 20
38.706866
  0
VERTEX
  8
piscina
 10
-9.456876
 20
38.706864
  0
VERTEX
  8
piscina
 10
-9.456879
 20
38.706863
  0
VERTEX
  8
piscina
 10
-9.456881
 20
38.706862
  0
VERTEX
  8
piscina
 10
-9.456884
 20
38.706861
  0
VERTEX
  8
piscina
 10
-9.456887
 20
38.706860
  0
VERTEX
  8
piscina
 10
-9.456891
 20
38.706860
  0
VERTEX
  8
piscina
 10
-9.456894
 20
38.706860
  0
VERTEX
  8
piscina
 10
-9.456897
 20
38.706860
  0
VERTEX
  8
piscina
 10
-9.456900
 20
38.706860
  0
VERTEX
  8
piscina
 10
-9.456903
 20
38.706861
  0
VERTEX
  8
piscina
 10
-9.456906
 20
38.706862
  0
VERTEX
  8
piscina
 10
-9.456909
 20
38.706863
  0
VERTEX
  8
piscina
 10
-9.456911
 20
38.706865
  0
VERTEX
  8
piscina
 10
-9.456914
 20
38.706866
  0
VERTEX
  8
piscina
 10
-9.456916
 20
38.706868
  0
VERTEX
  8
piscina
 10
-9.456918
 20
38.706870
  0
VERTEX
  8
piscina
 10
-9.456920
 20
38.706872
  0
VERTEX
  8
piscina
 10
-9.456921
 20
38.706874
  0
VERTEX
  8
piscina
 10
-9.456922
 20
38.706877
  0
VERTEX
  8
piscina
 10
-9.456923
 20
38.706879
  0
VERTEX
  8
piscina
 10
-9.456923
 20
38.706881
  0
VERTEX
  8
piscina
 10
-9.456923
 20
38.706884
  0
VERTEX
  8
piscina
 10
-9.456923
 20
38.706886
  0
VERTEX
  8
piscina
 10
-9.456923
 20
38.706889
  0
VERTEX
  8
piscina
 10
-9.456922
 20
38.706891
  0
VERTEX
  8
piscina
 10
-9.456921
 20
38.706894
  0
VERTEX
  8
piscina
 10
-9.456919
 20
38.706896
  0
VERTEX
  8
piscina
 10
-9.456917
 20
38.706898
  0
VERTEX
  8
piscina
 10
-9.456915
 20
38.706900
  0
VERTEX
  8
piscina
 10
-9.456913
 20
38.706901
  0
VERTEX
  8
piscina
 10
-9.456910
 20
38.706903
  0
VERTEX
  8
piscina
 10
-9.456908
 20
38.706904
  0
VERTEX
  8
piscina
 10
-9.456905
 20
38.706905
  0
VERTEX
  8
piscina
 10
-9.456902
 20
38.706906
  0
VERTEX
  8
piscina
 10
-9.456899
 20
38.706907
  0
VERTEX
  8
piscina
 10
-9.456896
 20
38.706907
  0
VERTEX
  8
piscina
 10
-9.456893
 20
38.706907
  0
VERTEX
  8
piscina
 10
-9.456889
 20
38.706907
  0
VERTEX
  8
piscina
 10
-9.456886
 20
38.706906
  0
VERTEX
  8
piscina
 10
-9.456883
 20
38.706906
  0
VERTEX
  8
piscina
 10
-9.456880
 20
38.706905
  0
VERTEX
  8
piscina
 10
-9.456877
 20
38.706904
  0
VERTEX
  8
piscina
 10
-9.456875
 20
38.706902
  0
VERTEX
  8
piscina
 10
-9.456872
 20
38.706901
  0
VERTEX
  8
piscina
 10
-9.456870
 20
38.706899
  0
VERTEX
  8
piscina
 10
-9.456868
 20
38.706897
  0
VERTEX
  8
piscina
 10
-9.456867
 20
38.706895
  0
VERTEX
  8
piscina
 10
-9.456865
 20
38.706893
  0
VERTEX
  8
piscina
 10
-9.456864
 20
38.706890
  0
VERTEX
  8
piscina
 10
-9.456863
 20
38.706888
  0
VERTEX
  8
piscina
 10
-9.456863
 20
38.706885
  0
VERTEX
  8
piscina
 10
-9.456863
 20
38.706883
  0
VERTEX
  8
piscina
 10
-9.456863
 20
38.706880
  0
VERTEX
  8
piscina
 10
-9.456864
 20
38.706878
  0
VERTEX
  8
piscina
 10
-9.456864
 20
38.706878
  0
SEQEND
  0
POLYLINE
  8
piscina
  6
BYLAYER
 66
1
 70
1
 40
0.000000
 41
0.000000
  0
VERTEX
  8
piscina
 10
-9.440753
 20
38.696552
  0
VERTEX
  8
piscina
 10
-9.440840
 20
38.696603
  0
VERTEX
  8
piscina
 10
-9.440714
 20
38.696735
  0
VERTEX
  8
piscina
 10
-9.440627
 20
38.696683
  0
VERTEX
  8
piscina
 10
-9.440753
 20
38.696552
  0
VERTEX
  8
piscina
 10
-9.440753
 20
38.696552
  0
SEQEND
  0
POLYLINE
  8
piscina
  6
BYLAYER
 66
1
 70
1
 40
0.000000
 41
0.000000
  0
VERTEX
  8
piscina
 10
-9.440656
 20
38.696742
  0
VERTEX
  8
piscina
 10
-9.440661
 20
38.696743
  0
VERTEX
  8
piscina
 10
-9.440665
 20
38.696744
  0
VERTEX
  8
piscina
 10
-9.440669
 20
38.696746
  0
VERTEX
  8
piscina
 10
-9.440673
 20
38.696749
  0
VERTEX
  8
piscina
 10
-9.440675
 20
38.696752
  0
VERTEX
  8
piscina
 10
-9.440677
 20
38.696755
  0
VERTEX
  8
piscina
 10
-9.440678
 20
38.696759
  0
VERTEX
  8
piscina
 10
-9.440678
 20
38.696762
  0
VERTEX
  8
piscina
 10
-9.440678
 20
38.696766
  0
VERTEX
  8
piscina
 10
-9.440676
 20
38.696769
  0
VERTEX
  8
piscina
 10
-9.440673
 20
38.696772
  0
VERTEX
  8
piscina
 10
-9.440670
 20
38.696775
  0
VERTEX
  8
piscina
 10
-9.440666
 20
38.696777
  0
VERTEX
  8
piscina
 10
-9.440662
 20
38.696779
  0
VERTEX
  8
piscina
 10
-9.440657
 20
38.696779
  0
VERTEX
  8
piscina
 10
-9.440655
 20
38.696779
  0
VERTEX
  8
piscina
 10
-9.440651
 20
38.696779
  0
VERTEX
  8
piscina
 10
-9.440646
 20
38.696778
  0
VERTEX
  8
piscina
 10
-9.440642
 20
38.696776
  0
VERTEX
  8
piscina
 10
-9.440638
 20
38.696774
  0
VERTEX
  8
piscina
 10
-9.440635
 20
38.696771
  0
VERTEX
  8
piscina
 10
-9.440633
 20
38.696768
  0
VERTEX
  8
piscina
 10
-9.440632
 20
38.696764
  0
VERTEX
  8
piscina
 10
-9.440631
 20
38.696761
  0
VERTEX
  8
piscina
 10
-9.440632
 20
38.696757
  0
VERTEX
  8
piscina
 10
-9.440633
 20
38.696753
  0
VERTEX
  8
piscina
 10
-9.440636
 20
38.696750
  0
VERTEX
  8
piscina
 10
-9.440639
 20
38.696747
  0
VERTEX
  8
piscina
 10
-9.440643
 20
38.696745
  0
VERTEX
  8
piscina
 10
-9.440647
 20
38.696744
  0
VERTEX
  8
piscina
 10
-9.440651
 20
38.696743
  0
VERTEX
  8
piscina
 10
-9.440656
 20
38.696742
  0
VERTEX
  8
piscina
 10
-9.440656
 20
38.696742
  0
SEQEND
  0
POLYLINE
  8
piscina
  6
BYLAYER
 66
1
 70
1
 40
0.000000
 41
0.000000
  0
VERTEX
  8
piscina
 10
-9.440797
 20
38.696512
  0
VERTEX
  8
piscina
 10
-9.440801
 20
38.696512
  0
VERTEX
  8
piscina
 10
-9.440805
 20
38.696513
  0
VERTEX
  8
piscina
 10
-9.440808
 20
38.696515
  0
VERTEX
  8
piscina
 10
-9.440811
 20
38.696517
  0
VERTEX
  8
piscina
 10
-9.440813
 20
38.696519
  0
VERTEX
  8
piscina
 10
-9.440815
 20
38.696522
  0
VERTEX
  8
piscina
 10
-9.440816
 20
38.696525
  0
VERTEX
  8
piscina
 10
-9.440816
 20
38.696528
  0
VERTEX
  8
piscina
 10
-9.440815
 20
38.696531
  0
VERTEX
  8
piscina
 10
-9.440814
 20
38.696534
  0
VERTEX
  8
piscina
 10
-9.440812
 20
38.696537
  0
VERTEX
  8
piscina
 10
-9.440809
 20
38.696539
  0
VERTEX
  8
piscina
 10
-9.440806
 20
38.696541
  0
VERTEX
  8
piscina
 10
-9.440802
 20
38.696542
  0
VERTEX
  8
piscina
 10
-9.440798
 20
38.696542
  0
VERTEX
  8
piscina
 10
-9.440797
 20
38.696543
  0
VERTEX
  8
piscina
 10
-9.440792
 20
38.696542
  0
VERTEX
  8
piscina
 10
-9.440789
 20
38.696541
  0
VERTEX
  8
piscina
 10
-9.440785
 20
38.696540
  0
VERTEX
  8
piscina
 10
-9.440782
 20
38.696538
  0
VERTEX
  8
piscina
 10
-9.440780
 20
38.696536
  0
VERTEX
  8
piscina
 10
-9.440778
 20
38.696533
  0
VERTEX
  8
piscina
 10
-9.440777
 20
38.696530
  0
VERTEX
  8
piscina
 10
-9.440776
 20
38.696527
  0
VERTEX
  8
piscina
 10
-9.440777
 20
38.696524
  0
VERTEX
  8
piscina
 10
-9.440778
 20
38.696521
  0
VERTEX
  8
piscina
 10
-9.440780
 20
38.696518
  0
VERTEX
  8
piscina
 10
-9.440783
 20
38.696516
  0
VERTEX
  8
piscina
 10
-9.440786
 20
38.696514
  0
VERTEX
  8
piscina
 10
-9.440789
 20
38.696513
  0
VERTEX
  8
piscina
 10
-9.440793
 20
38.696512
  0
VERTEX
  8
piscina
 10
-9.440797
 20
38.696512
  0
VERTEX
  8
piscina
 10
-9.440797
 20
38.696512
  0
SEQEND
  0
POLYLINE
  8
piscina
  6
BYLAYER
 66
1
 70
1
 40
0.000000
 41
0.000000
  0
VERTEX
  8
piscina
 10
-9.456338
 20
38.695626
  0
VERTEX
  8
piscina
 10
-9.456343
 20
38.695623
  0
VERTEX
  8
piscina
 10
-9.456349
 20
38.695621
  0
VERTEX
  8
piscina
 10
-9.456354
 20
38.695620
  0
VERTEX
  8
piscina
 10
-9.456361
 20
38.695619
  0
VERTEX
  8
piscina
 10
-9.456367
 20
38.695619
  0
VERTEX
  8
piscina
 10
-9.456373
 20
38.695619
  0
VERTEX
  8
piscina
 10
-9.456377
 20
38.695621
  0
VERTEX
  8
piscina
 10
-9.456381
 20
38.695623
  0
VERTEX
  8
piscina
 10
-9.456385
 20
38.695625
  0
VERTEX
  8
piscina
 10
-9.456388
 20
38.695627
  0
VERTEX
  8
piscina
 10
-9.456391
 20
38.695630
  0
VERTEX
  8
piscina
 10
-9.456393
 20
38.695633
  0
VERTEX
  8
piscina
 10
-9.456395
 20
38.695636
  0
VERTEX
  8
piscina
 10
-9.456396
 20
38.695640
  0
VERTEX
  8
piscina
 10
-9.456397
 20
38.695643
  0
VERTEX
  8
piscina
 10
-9.456397
 20
38.695647
  0
VERTEX
  8
piscina
 10
-9.456397
 20
38.695650
  0
VERTEX
  8
piscina
 10
-9.456362
 20
38.695710
  0
VERTEX
  8
piscina
 10
-9.456357
 20
38.695714
  0
VERTEX
  8
piscina
 10
-9.456352
 20
38.695718
  0
VERTEX
  8
piscina
 10
-9.456347
 20
38.695721
  0
VERTEX
  8
piscina
 10
-9.456341
 20
38.695723
  0
VERTEX
  8
piscina
 10
-9.456334
 20
38.695724
  0
VERTEX
  8
piscina
 10
-9.456327
 20
38.695725
  0
VERTEX
  8
piscina
 10
-9.456321
 20
38.695725
  0
VERTEX
  8
piscina
 10
-9.456314
 20
38.695724
  0
VERTEX
  8
piscina
 10
-9.456307
 20
38.695723
  0
VERTEX
  8
piscina
 10
-9.456301
 20
38.695721
  0
VERTEX
  8
piscina
 10
-9.456296
 20
38.695718
  0
VERTEX
  8
piscina
 10
-9.456288
 20
38.695712
  0
VERTEX
  8
piscina
 10
-9.456279
 20
38.695707
  0
VERTEX
  8
piscina
 10
-9.456270
 20
38.695703
  0
VERTEX
  8
piscina
 10
-9.456261
 20
38.695699
  0
VERTEX
  8
piscina
 10
-9.456251
 20
38.695696
  0
VERTEX
  8
piscina
 10
-9.456240
 20
38.695694
  0
VERTEX
  8
piscina
 10
-9.456230
 20
38.695693
  0
VERTEX
  8
piscina
 10
-9.456219
 20
38.695693
  0
VERTEX
  8
piscina
 10
-9.456208
 20
38.695694
  0
VERTEX
  8
piscina
 10
-9.456198
 20
38.695695
  0
VERTEX
  8
piscina
 10
-9.456188
 20
38.695698
  0
VERTEX
  8
piscina
 10
-9.456162
 20
38.695706
  0
VERTEX
  8
piscina
 10
-9.456159
 20
38.695708
  0
VERTEX
  8
piscina
 10
-9.456156
 20
38.695708
  0
VERTEX
  8
piscina
 10
-9.456153
 20
38.695709
  0
VERTEX
  8
piscina
 10
-9.456150
 20
38.695709
  0
VERTEX
  8
piscina
 10
-9.456147
 20
38.695709
  0
VERTEX
  8
piscina
 10
-9.456144
 20
38.695708
  0
VERTEX
  8
piscina
 10
-9.456141
 20
38.695707
  0
VERTEX
  8
piscina
 10
-9.456138
 20
38.695705
  0
VERTEX
  8
piscina
 10
-9.456136
 20
38.695703
  0
VERTEX
  8
piscina
 10
-9.456135
 20
38.695701
  0
VERTEX
  8
piscina
 10
-9.456133
 20
38.695699
  0
VERTEX
  8
piscina
 10
-9.456134
 20
38.695691
  0
VERTEX
  8
piscina
 10
-9.456138
 20
38.695639
  0
VERTEX
  8
piscina
 10
-9.456140
 20
38.695636
  0
VERTEX
  8
piscina
 10
-9.456142
 20
38.695633
  0
VERTEX
  8
piscina
 10
-9.456145
 20
38.695631
  0
VERTEX
  8
piscina
 10
-9.456148
 20
38.695629
  0
VERTEX
  8
piscina
 10
-9.456151
 20
38.695627
  0
VERTEX
  8
piscina
 10
-9.456155
 20
38.695625
  0
VERTEX
  8
piscina
 10
-9.456159
 20
38.695624
  0
VERTEX
  8
piscina
 10
-9.456163
 20
38.695624
  0
VERTEX
  8
piscina
 10
-9.456167
 20
38.695623
  0
VERTEX
  8
piscina
 10
-9.456171
 20
38.695623
  0
VERTEX
  8
piscina
 10
-9.456176
 20
38.695624
  0
VERTEX
  8
piscina
 10
-9.456253
 20
38.695655
  0
VERTEX
  8
piscina
 10
-9.456260
 20
38.695656
  0
VERTEX
  8
piscina
 10
-9.456266
 20
38.695657
  0
VERTEX
  8
piscina
 10
-9.456273
 20
38.695658
  0
VERTEX
  8
piscina
 10
-9.456279
 20
38.695658
  0
VERTEX
  8
piscina
 10
-9.456286
 20
38.695658
  0
VERTEX
  8
piscina
 10
-9.456293
 20
38.695657
  0
VERTEX
  8
piscina
 10
-9.456299
 20
38.695656
  0
VERTEX
  8
piscina
 10
-9.456305
 20
38.695654
  0
VERTEX
  8
piscina
 10
-9.456311
 20
38.695652
  0
VERTEX
  8
piscina
 10
-9.456317
 20
38.695649
  0
VERTEX
  8
piscina
 10
-9.456323
 20
38.695647
  0
VERTEX
  8
piscina
 10
-9.456324
 20
38.695642
  0
VERTEX
  8
piscina
 10
-9.456326
 20
38.695637
  0
VERTEX
  8
piscina
 10
-9.456329
 20
38.695633
  0
VERTEX
  8
piscina
 10
-9.456333
 20
38.695629
  0
VERTEX
  8
piscina
 10
-9.456338
 20
38.695626
  0
VERTEX
  8
piscina
 10
-9.456338
 20
38.695626
  0
SEQEND
  0
POLYLINE
  8
piscina
  6
BYLAYER
 66
1
 70
1
 40
0.000000
 41
0.000000
  0
VERTEX
  8
piscina
 10
-9.361767
 20
38.735442
  0
VERTEX
  8
piscina
 10
-9.361769
 20
38.735444
  0
VERTEX
  8
piscina
 10
-9.361770
 20
38.735447
  0
VERTEX
  8
piscina
 10
-9.361771
 20
38.735450
  0
VERTEX
  8
piscina
 10
-9.361771
 20
38.735453
  0
VERTEX
  8
piscina
 10
-9.361771
 20
38.735456
  0
VERTEX
  8
piscina
 10
-9.361769
 20
38.735458
  0
VERTEX
  8
piscina
 10
-9.361767
 20
38.735461
  0
VERTEX
  8
piscina
 10
-9.361764
 20
38.735463
  0
VERTEX
  8
piscina
 10
-9.361761
 20
38.735464
  0
VERTEX
  8
piscina
 10
-9.361758
 20
38.735466
  0
VERTEX
  8
piscina
 10
-9.361754
 20
38.735466
  0
VERTEX
  8
piscina
 10
-9.361753
 20
38.735466
  0
VERTEX
  8
piscina
 10
-9.361749
 20
38.735466
  0
VERTEX
  8
piscina
 10
-9.361745
 20
38.735465
  0
VERTEX
  8
piscina
 10
-9.361742
 20
38.735464
  0
VERTEX
  8
piscina
 10
-9.361739
 20
38.735462
  0
VERTEX
  8
piscina
 10
-9.361737
 20
38.735460
  0
VERTEX
  8
piscina
 10
-9.361735
 20
38.735457
  0
VERTEX
  8
piscina
 10
-9.361722
 20
38.735459
  0
VERTEX
  8
piscina
 10
-9.361647
 20
38.735471
  0
VERTEX
  8
piscina
 10
-9.361643
 20
38.735457
  0
VERTEX
  8
piscina
 10
-9.361579
 20
38.735467
  0
VERTEX
  8
piscina
 10
-9.361576
 20
38.735456
  0
VERTEX
  8
piscina
 10
-9.361573
 20
38.735444
  0
VERTEX
  8
piscina
 10
-9.361479
 20
38.735459
  0
VERTEX
  8
piscina
 10
-9.361482
 20
38.735472
  0
VERTEX
  8
piscina
 10
-9.361454
 20
38.735476
  0
VERTEX
  8
piscina
 10
-9.361446
 20
38.735447
  0
VERTEX
  8
piscina
 10
-9.361475
 20
38.735443
  0
VERTEX
  8
piscina
 10
-9.361478
 20
38.735455
  0
VERTEX
  8
piscina
 10
-9.361567
 20
38.735441
  0
VERTEX
  8
piscina
 10
-9.361579
 20
38.735439
  0
VERTEX
  8
piscina
 10
-9.361580
 20
38.735443
  0
VERTEX
  8
piscina
 10
-9.361583
 20
38.735455
  0
VERTEX
  8
piscina
 10
-9.361585
 20
38.735463
  0
VERTEX
  8
piscina
 10
-9.361662
 20
38.735450
  0
VERTEX
  8
piscina
 10
-9.361665
 20
38.735464
  0
VERTEX
  8
piscina
 10
-9.361720
 20
38.735455
  0
VERTEX
  8
piscina
 10
-9.361734
 20
38.735453
  0
VERTEX
  8
piscina
 10
-9.361734
 20
38.735451
  0
VERTEX
  8
piscina
 10
-9.361734
 20
38.735448
  0
VERTEX
  8
piscina
 10
-9.361735
 20
38.735446
  0
VERTEX
  8
piscina
 10
-9.361737
 20
38.735443
  0
VERTEX
  8
piscina
 10
-9.361740
 20
38.735441
  0
VERTEX
  8
piscina
 10
-9.361743
 20
38.735439
  0
VERTEX
  8
piscina
 10
-9.361746
 20
38.735438
  0
VERTEX
  8
piscina
 10
-9.361750
 20
38.735437
  0
VERTEX
  8
piscina
 10
-9.361753
 20
38.735437
  0
VERTEX
  8
piscina
 10
-9.361757
 20
38.735437
  0
VERTEX
  8
piscina
 10
-9.361761
 20
38.735438
  0
VERTEX
  8
piscina
 10
-9.361764
 20
38.735440
  0
VERTEX
  8
piscina
 10
-9.361767
 20
38.735442
  0
VERTEX
  8
piscina
 10
-9.361767
 20
38.735442
  0
SEQEND
  0
POLYLINE
  8
piscina
  6
BYLAYER
 66
1
 70
1
 40
0.000000
 41
0.000000
  0
VERTEX
  8
piscina
 10
-9.351258
 20
38.688096
  0
VERTEX
  8
piscina
 10
-9.351216
 20
38.688086
  0
VERTEX
  8
piscina
 10
-9.351218
 20
38.688077
  0
VERTEX
  8
piscina
 10
-9.351216
 20
38.688066
  0
VERTEX
  8
piscina
 10
-9.351212
 20
38.688061
  0
VERTEX
  8
piscina
 10
-9.351198
 20
38.688053
  0
VERTEX
  8
piscina
 10
-9.351188
 20
38.688052
  0
VERTEX
  8
piscina
 10
-9.351175
 20
38.688052
  0
VERTEX
  8
piscina
 10
-9.351159
 20
38.688056
  0
VERTEX
  8
piscina
 10
-9.351147
 20
38.688064
  0
VERTEX
  8
piscina
 10
-9.351141
 20
38.688070
  0
VERTEX
  8
piscina
 10
-9.351105
 20
38.688061
  0
VERTEX
  8
piscina
 10
-9.351125
 20
38.688005
  0
VERTEX
  8
piscina
 10
-9.351281
 20
38.688040
  0
VERTEX
  8
piscina
 10
-9.351258
 20
38.688096
  0
VERTEX
  8
piscina
 10
-9.351258
 20
38.688096
  0
SEQEND
  0
POLYLINE
  8
piscina
  6
BYLAYER
 66
1
 70
1
 40
0.000000
 41
0.000000
  0
VERTEX
  8
piscina
 10
-9.430322
 20
38.705893
  0
VERTEX
  8
piscina
 10
-9.430366
 20
38.705912
  0
VERTEX
  8
piscina
 10
-9.430378
 20
38.705963
  0
VERTEX
  8
piscina
 10
-9.430380
 20
38.705974
  0
VERTEX
  8
piscina
 10
-9.430384
 20
38.705984
  0
VERTEX
  8
piscina
 10
-9.430384
 20
38.705992
  0
VERTEX
  8
piscina
 10
-9.430269
 20
38.706097
  0
VERTEX
  8
piscina
 10
-9.430259
 20
38.706101
  0
VERTEX
  8
piscina
 10
-9.430204
 20
38.706105
  0
VERTEX
  8
piscina
 10
-9.430192
 20
38.706099
  0
VERTEX
  8
piscina
 10
-9.430189
 20
38.706037
  0
VERTEX
  8
piscina
 10
-9.430264
 20
38.705967
  0
VERTEX
  8
piscina
 10
-9.430275
 20
38.705920
  0
VERTEX
  8
piscina
 10
-9.430322
 20
38.705893
  0
VERTEX
  8
piscina
 10
-9.430322
 20
38.705893
  0
SEQEND
  0
POLYLINE
  8
piscina
  6
BYLAYER
 66
1
 70
1
 40
0.000000
 41
0.000000
  0
VERTEX
  8
piscina
 10
-9.426529
 20
38.700051
  0
VERTEX
  8
piscina
 10
-9.426332
 20
38.700143
  0
VERTEX
  8
piscina
 10
-9.426286
 20
38.700100
  0
VERTEX
  8
piscina
 10
-9.426461
 20
38.699982
  0
VERTEX
  8
piscina
 10
-9.426505
 20
38.700019
  0
VERTEX
  8
piscina
 10
-9.426529
 20
38.700051
  0
VERTEX
  8
piscina
 10
-9.426529
 20
38.700051
  0
SEQEND
  0
POLYLINE
  8
piscina
  6
BYLAYER
 66
1
 70
1
 40
0.000000
 41
0.000000
  0
VERTEX
  8
piscina
 10
-9.421209
 20
38.693428
  0
VERTEX
  8
piscina
 10
-9.421206
 20
38.693420
  0
VERTEX
  8
piscina
 10
-9.421203
 20
38.693417
  0
VERTEX
  8
piscina
 10
-9.421200
 20
38.693415
  0
VERTEX
  8
piscina
 10
-9.421196
 20
38.693414
  0
VERTEX
  8
piscina
 10
-9.421192
 20
38.693412
  0
VERTEX
  8
piscina
 10
-9.421187
 20
38.693412
  0
VERTEX
  8
piscina
 10
-9.421183
 20
38.693411
  0
VERTEX
  8
piscina
 10
-9.421178
 20
38.693412
  0
VERTEX
  8
piscina
 10
-9.421174
 20
38.693412
  0
VERTEX
  8
piscina
 10
-9.421170
 20
38.693413
  0
VERTEX
  8
piscina
 10
-9.421166
 20
38.693415
  0
VERTEX
  8
piscina
 10
-9.421162
 20
38.693417
  0
VERTEX
  8
piscina
 10
-9.421159
 20
38.693422
  0
VERTEX
  8
piscina
 10
-9.421156
 20
38.693427
  0
VERTEX
  8
piscina
 10
-9.421154
 20
38.693433
  0
VERTEX
  8
piscina
 10
-9.421153
 20
38.693439
  0
VERTEX
  8
piscina
 10
-9.421153
 20
38.693445
  0
VERTEX
  8
piscina
 10
-9.421153
 20
38.693451
  0
VERTEX
  8
piscina
 10
-9.421155
 20
38.693457
  0
VERTEX
  8
piscina
 10
-9.421157
 20
38.693462
  0
VERTEX
  8
piscina
 10
-9.421160
 20
38.693468
  0
VERTEX
  8
piscina
 10
-9.421164
 20
38.693473
  0
VERTEX
  8
piscina
 10
-9.421168
 20
38.693478
  0
VERTEX
  8
piscina
 10
-9.421156
 20
38.693486
  0
VERTEX
  8
piscina
 10
-9.421143
 20
38.693493
  0
VERTEX
  8
piscina
 10
-9.421129
 20
38.693500
  0
VERTEX
  8
piscina
 10
-9.421115
 20
38.693505
  0
VERTEX
  8
piscina
 10
-9.421100
 20
38.693510
  0
VERTEX
  8
piscina
 10
-9.421085
 20
38.693514
  0
VERTEX
  8
piscina
 10
-9.421070
 20
38.693517
  0
VERTEX
  8
piscina
 10
-9.421054
 20
38.693519
  0
VERTEX
  8
piscina
 10
-9.421038
 20
38.693520
  0
VERTEX
  8
piscina
 10
-9.421022
 20
38.693520
  0
VERTEX
  8
piscina
 10
-9.421006
 20
38.693519
  0
VERTEX
  8
piscina
 10
-9.420993
 20
38.693516
  0
VERTEX
  8
piscina
 10
-9.420980
 20
38.693512
  0
VERTEX
  8
piscina
 10
-9.420969
 20
38.693506
  0
VERTEX
  8
piscina
 10
-9.420959
 20
38.693499
  0
VERTEX
  8
piscina
 10
-9.420950
 20
38.693491
  0
VERTEX
  8
piscina
 10
-9.420943
 20
38.693482
  0
VERTEX
  8
piscina
 10
-9.420938
 20
38.693472
  0
VERTEX
  8
piscina
 10
-9.420934
 20
38.693462
  0
VERTEX
  8
piscina
 10
-9.420933
 20
38.693451
  0
VERTEX
  8
piscina
 10
-9.420933
 20
38.693441
  0
VERTEX
  8
piscina
 10
-9.420935
 20
38.693430
  0
VERTEX
  8
piscina
 10
-9.420945
 20
38.693415
  0
VERTEX
  8
piscina
 10
-9.420957
 20
38.693402
  0
VERTEX
  8
piscina
 10
-9.420970
 20
38.693389
  0
VERTEX
  8
piscina
 10
-9.420985
 20
38.693377
  0
VERTEX
  8
piscina
 10
-9.421001
 20
38.693366
  0
VERTEX
  8
piscina
 10
-9.421019
 20
38.693357
  0
VERTEX
  8
piscina
 10
-9.421037
 20
38.693348
  0
VERTEX
  8
piscina
 10
-9.421057
 20
38.693342
  0
VERTEX
  8
piscina
 10
-9.421077
 20
38.693336
  0
VERTEX
  8
piscina
 10
-9.421097
 20
38.693333
  0
VERTEX
  8
piscina
 10
-9.421118
 20
38.693330
  0
VERTEX
  8
piscina
 10
-9.421137
 20
38.693330
  0
VERTEX
  8
piscina
 10
-9.421155
 20
38.693331
  0
VERTEX
  8
piscina
 10
-9.421173
 20
38.693334
  0
VERTEX
  8
piscina
 10
-9.421190
 20
38.693339
  0
VERTEX
  8
piscina
 10
-9.421206
 20
38.693347
  0
VERTEX
  8
piscina
 10
-9.421220
 20
38.693356
  0
VERTEX
  8
piscina
 10
-9.421233
 20
38.693366
  0
VERTEX
  8
piscina
 10
-9.421243
 20
38.693378
  0
VERTEX
  8
piscina
 10
-9.421252
 20
38.693391
  0
VERTEX
  8
piscina
 10
-9.421257
 20
38.693405
  0
VERTEX
  8
piscina
 10
-9.421260
 20
38.693419
  0
VERTEX
  8
piscina
 10
-9.421209
 20
38.693428
  0
VERTEX
  8
piscina
 10
-9.421209
 20
38.693428
  0
SEQEND
  0
POLYLINE
  8
piscina
  6
BYLAYER
 66
1
 70
1
 40
0.000000
 41
0.000000
  0
VERTEX
  8
piscina
 10
-9.422798
 20
38.690744
  0
VERTEX
  8
piscina
 10
-9.422814
 20
38.690746
  0
VERTEX
  8
piscina
 10
-9.422830
 20
38.690750
  0
VERTEX
  8
piscina
 10
-9.422845
 20
38.690757
  0
VERTEX
  8
piscina
 10
-9.422857
 20
38.690766
  0
VERTEX
  8
piscina
 10
-9.422867
 20
38.690777
  0
VERTEX
  8
piscina
 10
-9.422874
 20
38.690789
  0
VERTEX
  8
piscina
 10
-9.422878
 20
38.690802
  0
VERTEX
  8
piscina
 10
-9.422878
 20
38.690815
  0
VERTEX
  8
piscina
 10
-9.422875
 20
38.690828
  0
VERTEX
  8
piscina
 10
-9.422869
 20
38.690840
  0
VERTEX
  8
piscina
 10
-9.422860
 20
38.690851
  0
VERTEX
  8
piscina
 10
-9.422848
 20
38.690861
  0
VERTEX
  8
piscina
 10
-9.422834
 20
38.690868
  0
VERTEX
  8
piscina
 10
-9.422818
 20
38.690873
  0
VERTEX
  8
piscina
 10
-9.422802
 20
38.690876
  0
VERTEX
  8
piscina
 10
-9.422795
 20
38.690876
  0
VERTEX
  8
piscina
 10
-9.422778
 20
38.690875
  0
VERTEX
  8
piscina
 10
-9.422762
 20
38.690871
  0
VERTEX
  8
piscina
 10
-9.422747
 20
38.690865
  0
VERTEX
  8
piscina
 10
-9.422734
 20
38.690857
  0
VERTEX
  8
piscina
 10
-9.422723
 20
38.690846
  0
VERTEX
  8
piscina
 10
-9.422715
 20
38.690835
  0
VERTEX
  8
piscina
 10
-9.422711
 20
38.690822
  0
VERTEX
  8
piscina
 10
-9.422709
 20
38.690809
  0
VERTEX
  8
piscina
 10
-9.422711
 20
38.690796
  0
VERTEX
  8
piscina
 10
-9.422716
 20
38.690783
  0
VERTEX
  8
piscina
 10
-9.422725
 20
38.690772
  0
VERTEX
  8
piscina
 10
-9.422736
 20
38.690762
  0
VERTEX
  8
piscina
 10
-9.422749
 20
38.690754
  0
VERTEX
  8
piscina
 10
-9.422764
 20
38.690748
  0
VERTEX
  8
piscina
 10
-9.422781
 20
38.690744
  0
VERTEX
  8
piscina
 10
-9.422798
 20
38.690744
  0
VERTEX
  8
piscina
 10
-9.422798
 20
38.690744
  0
SEQEND
  0
POLYLINE
  8
piscina
  6
BYLAYER
 66
1
 70
1
 40
0.000000
 41
0.000000
  0
VERTEX
  8
piscina
 10
-9.421797
 20
38.690129
  0
VERTEX
  8
piscina
 10
-9.421840
 20
38.690185
  0
VERTEX
  8
piscina
 10
-9.421701
 20
38.690249
  0
VERTEX
  8
piscina
 10
-9.421659
 20
38.690192
  0
VERTEX
  8
piscina
 10
-9.421797
 20
38.690129
  0
VERTEX
  8
piscina
 10
-9.421797
 20
38.690129
  0
SEQEND
  0
POLYLINE
  8
piscina
  6
BYLAYER
 66
1
 70
1
 40
0.000000
 41
0.000000
  0
VERTEX
  8
piscina
 10
-9.422895
 20
38.690626
  0
VERTEX
  8
piscina
 10
-9.422902
 20
38.690627
  0
VERTEX
  8
piscina
 10
-9.422909
 20
38.690628
  0
VERTEX
  8
piscina
 10
-9.422915
 20
38.690631
  0
VERTEX
  8
piscina
 10
-9.422920
 20
38.690635
  0
VERTEX
  8
piscina
 10
-9.422925
 20
38.690640
  0
VERTEX
  8
piscina
 10
-9.422927
 20
38.690645
  0
VERTEX
  8
piscina
 10
-9.422929
 20
38.690651
  0
VERTEX
  8
piscina
 10
-9.422929
 20
38.690656
  0
VERTEX
  8
piscina
 10
-9.422928
 20
38.690662
  0
VERTEX
  8
piscina
 10
-9.422925
 20
38.690667
  0
VERTEX
  8
piscina
 10
-9.422921
 20
38.690672
  0
VERTEX
  8
piscina
 10
-9.422916
 20
38.690676
  0
VERTEX
  8
piscina
 10
-9.422910
 20
38.690679
  0
VERTEX
  8
piscina
 10
-9.422904
 20
38.690681
  0
VERTEX
  8
piscina
 10
-9.422897
 20
38.690682
  0
VERTEX
  8
piscina
 10
-9.422894
 20
38.690682
  0
VERTEX
  8
piscina
 10
-9.422886
 20
38.690682
  0
VERTEX
  8
piscina
 10
-9.422880
 20
38.690680
  0
VERTEX
  8
piscina
 10
-9.422873
 20
38.690678
  0
VERTEX
  8
piscina
 10
-9.422867
 20
38.690674
  0
VERTEX
  8
piscina
 10
-9.422863
 20
38.690670
  0
VERTEX
  8
piscina
 10
-9.422860
 20
38.690665
  0
VERTEX
  8
piscina
 10
-9.422858
 20
38.690659
  0
VERTEX
  8
piscina
 10
-9.422857
 20
38.690654
  0
VERTEX
  8
piscina
 10
-9.422858
 20
38.690648
  0
VERTEX
  8
piscina
 10
-9.422860
 20
38.690643
  0
VERTEX
  8
piscina
 10
-9.422864
 20
38.690638
  0
VERTEX
  8
piscina
 10
-9.422868
 20
38.690633
  0
VERTEX
  8
piscina
 10
-9.422874
 20
38.690630
  0
VERTEX
  8
piscina
 10
-9.422881
 20
38.690627
  0
VERTEX
  8
piscina
 10
-9.422887
 20
38.690626
  0
VERTEX
  8
piscina
 10
-9.422895
 20
38.690626
  0
VERTEX
  8
piscina
 10
-9.422895
 20
38.690626
  0
SEQEND
  0
POLYLINE
  8
piscina
  6
BYLAYER
 66
1
 70
1
 40
0.000000
 41
0.000000
  0
VERTEX
  8
piscina
 10
-9.424204
 20
38.690821
  0
VERTEX
  8
piscina
 10
-9.424088
 20
38.690806
  0
VERTEX
  8
piscina
 10
-9.424125
 20
38.690630
  0
VERTEX
  8
piscina
 10
-9.424238
 20
38.690642
  0
VERTEX
  8
piscina
 10
-9.424204
 20
38.690821
  0
VERTEX
  8
piscina
 10
-9.424204
 20
38.690821
  0
SEQEND
  0
POLYLINE
  8
piscina
  6
BYLAYER
 66
1
 70
1
 40
0.000000
 41
0.000000
  0
VERTEX
  8
piscina
 10
-9.438472
 20
38.696431
  0
VERTEX
  8
piscina
 10
-9.438413
 20
38.696532
  0
VERTEX
  8
piscina
 10
-9.438339
 20
38.696504
  0
VERTEX
  8
piscina
 10
-9.438304
 20
38.696516
  0
VERTEX
  8
piscina
 10
-9.438288
 20
38.696483
  0
VERTEX
  8
piscina
 10
-9.438218
 20
38.696462
  0
VERTEX
  8
piscina
 10
-9.438276
 20
38.696361
  0
VERTEX
  8
piscina
 10
-9.438472
 20
38.696431
  0
VERTEX
  8
piscina
 10
-9.438472
 20
38.696431
  0
SEQEND
  0
POLYLINE
  8
piscina
  6
BYLAYER
 66
1
 70
1
 40
0.000000
 41
0.000000
  0
VERTEX
  8
piscina
 10
-9.394756
 20
38.718362
  0
VERTEX
  8
piscina
 10
-9.394843
 20
38.718493
  0
VERTEX
  8
piscina
 10
-9.394755
 20
38.718529
  0
VERTEX
  8
piscina
 10
-9.394668
 20
38.718398
  0
VERTEX
  8
piscina
 10
-9.394756
 20
38.718362
  0
VERTEX
  8
piscina
 10
-9.394756
 20
38.718362
  0
SEQEND
  0
POLYLINE
  8
piscina
  6
BYLAYER
 66
1
 70
1
 40
0.000000
 41
0.000000
  0
VERTEX
  8
piscina
 10
-9.405957
 20
38.703987
  0
VERTEX
  8
piscina
 10
-9.405675
 20
38.704004
  0
VERTEX
  8
piscina
 10
-9.405665
 20
38.703896
  0
VERTEX
  8
piscina
 10
-9.405947
 20
38.703879
  0
VERTEX
  8
piscina
 10
-9.405957
 20
38.703987
  0
VERTEX
  8
piscina
 10
-9.405957
 20
38.703987
  0
SEQEND
  0
POLYLINE
  8
piscina
  6
BYLAYER
 66
1
 70
1
 40
0.000000
 41
0.000000
  0
VERTEX
  8
piscina
 10
-9.407925
 20
38.703656
  0
VERTEX
  8
piscina
 10
-9.407873
 20
38.703672
  0
VERTEX
  8
piscina
 10
-9.407862
 20
38.703694
  0
VERTEX
  8
piscina
 10
-9.407735
 20
38.703729
  0
VERTEX
  8
piscina
 10
-9.407726
 20
38.703726
  0
VERTEX
  8
piscina
 10
-9.407708
 20
38.703680
  0
VERTEX
  8
piscina
 10
-9.407720
 20
38.703659
  0
VERTEX
  8
piscina
 10
-9.407847
 20
38.703622
  0
VERTEX
  8
piscina
 10
-9.407863
 20
38.703645
  0
VERTEX
  8
piscina
 10
-9.407874
 20
38.703642
  0
VERTEX
  8
piscina
 10
-9.407875
 20
38.703613
  0
VERTEX
  8
piscina
 10
-9.407905
 20
38.703605
  0
VERTEX
  8
piscina
 10
-9.407925
 20
38.703656
  0
VERTEX
  8
piscina
 10
-9.407925
 20
38.703656
  0
SEQEND
  0
POLYLINE
  8
piscina
  6
BYLAYER
 66
1
 70
1
 40
0.000000
 41
0.000000
  0
VERTEX
  8
piscina
 10
-9.417325
 20
38.699721
  0
VERTEX
  8
piscina
 10
-9.417316
 20
38.699727
  0
VERTEX
  8
piscina
 10
-9.417307
 20
38.699734
  0
VERTEX
  8
piscina
 10
-9.417296
 20
38.699739
  0
VERTEX
  8
piscina
 10
-9.417285
 20
38.699741
  0
VERTEX
  8
piscina
 10
-9.417275
 20
38.699739
  0
VERTEX
  8
piscina
 10
-9.417268
 20
38.699734
  0
VERTEX
  8
piscina
 10
-9.417264
 20
38.699727
  0
VERTEX
  8
piscina
 10
-9.417264
 20
38.699718
  0
VERTEX
  8
piscina
 10
-9.417266
 20
38.699709
  0
VERTEX
  8
piscina
 10
-9.417271
 20
38.699700
  0
VERTEX
  8
piscina
 10
-9.417285
 20
38.699685
  0
VERTEX
  8
piscina
 10
-9.417306
 20
38.699672
  0
VERTEX
  8
piscina
 10
-9.417334
 20
38.699661
  0
VERTEX
  8
piscina
 10
-9.417346
 20
38.699661
  0
VERTEX
  8
piscina
 10
-9.417355
 20
38.699662
  0
VERTEX
  8
piscina
 10
-9.417362
 20
38.699670
  0
VERTEX
  8
piscina
 10
-9.417362
 20
38.699683
  0
VERTEX
  8
piscina
 10
-9.417359
 20
38.699692
  0
VERTEX
  8
piscina
 10
-9.417353
 20
38.699701
  0
VERTEX
  8
piscina
 10
-9.417344
 20
38.699708
  0
VERTEX
  8
piscina
 10
-9.417325
 20
38.699721
  0
VERTEX
  8
piscina
 10
-9.417325
 20
38.699721
  0
SEQEND
  0
POLYLINE
  8
piscina
  6
BYLAYER
 66
1
 70
1
 40
0.000000
 41
0.000000
  0
VERTEX
  8
piscina
 10
-9.401713
 20
38.703349
  0
VERTEX
  8
piscina
 10
-9.401703
 20
38.703376
  0
VERTEX
  8
piscina
 10
-9.401696
 20
38.703380
  0
VERTEX
  8
piscina
 10
-9.401689
 20
38.703384
  0
VERTEX
  8
piscina
 10
-9.401680
 20
38.703387
  0
VERTEX
  8
piscina
 10
-9.401672
 20
38.703388
  0
VERTEX
  8
piscina
 10
-9.401663
 20
38.703389
  0
VERTEX
  8
piscina
 10
-9.401654
 20
38.703388
  0
VERTEX
  8
piscina
 10
-9.401646
 20
38.703386
  0
VERTEX
  8
piscina
 10
-9.401638
 20
38.703383
  0
VERTEX
  8
piscina
 10
-9.401630
 20
38.703379
  0
VERTEX
  8
piscina
 10
-9.401624
 20
38.703374
  0
VERTEX
  8
piscina
 10
-9.401619
 20
38.703369
  0
VERTEX
  8
piscina
 10
-9.401612
 20
38.703367
  0
VERTEX
  8
piscina
 10
-9.401606
 20
38.703365
  0
VERTEX
  8
piscina
 10
-9.401599
 20
38.703364
  0
VERTEX
  8
piscina
 10
-9.401592
 20
38.703364
  0
VERTEX
  8
piscina
 10
-9.401585
 20
38.703364
  0
VERTEX
  8
piscina
 10
-9.401578
 20
38.703364
  0
VERTEX
  8
piscina
 10
-9.401571
 20
38.703364
  0
VERTEX
  8
piscina
 10
-9.401565
 20
38.703365
  0
VERTEX
  8
piscina
 10
-9.401558
 20
38.703366
  0
VERTEX
  8
piscina
 10
-9.401551
 20
38.703368
  0
VERTEX
  8
piscina
 10
-9.401545
 20
38.703370
  0
VERTEX
  8
piscina
 10
-9.401537
 20
38.703372
  0
VERTEX
  8
piscina
 10
-9.401528
 20
38.703372
  0
VERTEX
  8
piscina
 10
-9.401519
 20
38.703371
  0
VERTEX
  8
piscina
 10
-9.401511
 20
38.703369
  0
VERTEX
  8
piscina
 10
-9.401504
 20
38.703365
  0
VERTEX
  8
piscina
 10
-9.401498
 20
38.703360
  0
VERTEX
  8
piscina
 10
-9.401494
 20
38.703354
  0
VERTEX
  8
piscina
 10
-9.401491
 20
38.703348
  0
VERTEX
  8
piscina
 10
-9.401490
 20
38.703341
  0
VERTEX
  8
piscina
 10
-9.401490
 20
38.703334
  0
VERTEX
  8
piscina
 10
-9.401493
 20
38.703328
  0
VERTEX
  8
piscina
 10
-9.401497
 20
38.703322
  0
VERTEX
  8
piscina
 10
-9.401503
 20
38.703317
  0
VERTEX
  8
piscina
 10
-9.401510
 20
38.703313
  0
VERTEX
  8
piscina
 10
-9.401518
 20
38.703310
  0
VERTEX
  8
piscina
 10
-9.401624
 20
38.703325
  0
VERTEX
  8
piscina
 10
-9.401690
 20
38.703344
  0
VERTEX
  8
piscina
 10
-9.401713
 20
38.703349
  0
VERTEX
  8
piscina
 10
-9.401713
 20
38.703349
  0
SEQEND
  0
POLYLINE
  8
piscina
  6
BYLAYER
 66
1
 70
1
 40
0.000000
 41
0.000000
  0
VERTEX
  8
piscina
 10
-9.395140
 20
38.705457
  0
VERTEX
  8
piscina
 10
-9.395146
 20
38.705460
  0
VERTEX
  8
piscina
 10
-9.395152
 20
38.705459
  0
VERTEX
  8
piscina
 10
-9.395159
 20
38.705459
  0
VERTEX
  8
piscina
 10
-9.395166
 20
38.705460
  0
VERTEX
  8
piscina
 10
-9.395173
 20
38.705461
  0
VERTEX
  8
piscina
 10
-9.395179
 20
38.705464
  0
VERTEX
  8
piscina
 10
-9.395185
 20
38.705468
  0
VERTEX
  8
piscina
 10
-9.395189
 20
38.705472
  0
VERTEX
  8
piscina
 10
-9.395193
 20
38.705477
  0
VERTEX
  8
piscina
 10
-9.395195
 20
38.705482
  0
VERTEX
  8
piscina
 10
-9.395196
 20
38.705487
  0
VERTEX
  8
piscina
 10
-9.395196
 20
38.705493
  0
VERTEX
  8
piscina
 10
-9.395203
 20
38.705498
  0
VERTEX
  8
piscina
 10
-9.395104
 20
38.705593
  0
VERTEX
  8
piscina
 10
-9.395095
 20
38.705587
  0
VERTEX
  8
piscina
 10
-9.395089
 20
38.705589
  0
VERTEX
  8
piscina
 10
-9.395083
 20
38.705589
  0
VERTEX
  8
piscina
 10
-9.395076
 20
38.705588
  0
VERTEX
  8
piscina
 10
-9.395070
 20
38.705587
  0
VERTEX
  8
piscina
 10
-9.395064
 20
38.705584
  0
VERTEX
  8
piscina
 10
-9.395059
 20
38.705581
  0
VERTEX
  8
piscina
 10
-9.395055
 20
38.705577
  0
VERTEX
  8
piscina
 10
-9.395052
 20
38.705573
  0
VERTEX
  8
piscina
 10
-9.395050
 20
38.705568
  0
VERTEX
  8
piscina
 10
-9.395049
 20
38.705563
  0
VERTEX
  8
piscina
 10
-9.395050
 20
38.705558
  0
VERTEX
  8
piscina
 10
-9.395044
 20
38.705554
  0
VERTEX
  8
piscina
 10
-9.395140
 20
38.705457
  0
VERTEX
  8
piscina
 10
-9.395140
 20
38.705457
  0
SEQEND
  0
POLYLINE
  8
piscina
  6
BYLAYER
 66
1
 70
1
 40
0.000000
 41
0.000000
  0
VERTEX
  8
piscina
 10
-9.401141
 20
38.703342
  0
VERTEX
  8
piscina
 10
-9.401051
 20
38.703335
  0
VERTEX
  8
piscina
 10
-9.401049
 20
38.703287
  0
VERTEX
  8
piscina
 10
-9.401029
 20
38.703287
  0
VERTEX
  8
piscina
 10
-9.401026
 20
38.703322
  0
VERTEX
  8
piscina
 10
-9.400733
 20
38.703300
  0
VERTEX
  8
piscina
 10
-9.400738
 20
38.703253
  0
VERTEX
  8
piscina
 10
-9.400763
 20
38.703253
  0
VERTEX
  8
piscina
 10
-9.400783
 20
38.703193
  0
VERTEX
  8
piscina
 10
-9.400788
 20
38.703190
  0
VERTEX
  8
piscina
 10
-9.400792
 20
38.703187
  0
VERTEX
  8
piscina
 10
-9.400797
 20
38.703185
  0
VERTEX
  8
piscina
 10
-9.400803
 20
38.703183
  0
VERTEX
  8
piscina
 10
-9.400809
 20
38.703182
  0
VERTEX
  8
piscina
 10
-9.400814
 20
38.703182
  0
VERTEX
  8
piscina
 10
-9.400820
 20
38.703182
  0
VERTEX
  8
piscina
 10
-9.400826
 20
38.703183
  0
VERTEX
  8
piscina
 10
-9.400832
 20
38.703184
  0
VERTEX
  8
piscina
 10
-9.400837
 20
38.703186
  0
VERTEX
  8
piscina
 10
-9.400842
 20
38.703188
  0
VERTEX
  8
piscina
 10
-9.400951
 20
38.703233
  0
VERTEX
  8
piscina
 10
-9.400969
 20
38.703232
  0
VERTEX
  8
piscina
 10
-9.400978
 20
38.703231
  0
VERTEX
  8
piscina
 10
-9.400995
 20
38.703230
  0
VERTEX
  8
piscina
 10
-9.401147
 20
38.703271
  0
VERTEX
  8
piscina
 10
-9.401141
 20
38.703342
  0
VERTEX
  8
piscina
 10
-9.401141
 20
38.703342
  0
SEQEND
  0
POLYLINE
  8
piscina
  6
BYLAYER
 66
1
 70
1
 40
0.000000
 41
0.000000
  0
VERTEX
  8
piscina
 10
-9.396983
 20
38.705078
  0
VERTEX
  8
piscina
 10
-9.396921
 20
38.705201
  0
VERTEX
  8
piscina
 10
-9.396622
 20
38.705141
  0
VERTEX
  8
piscina
 10
-9.396639
 20
38.705003
  0
VERTEX
  8
piscina
 10
-9.396644
 20
38.705005
  0
VERTEX
  8
piscina
 10
-9.396648
 20
38.705005
  0
VERTEX
  8
piscina
 10
-9.396653
 20
38.705005
  0
VERTEX
  8
piscina
 10
-9.396658
 20
38.705005
  0
VERTEX
  8
piscina
 10
-9.396663
 20
38.705003
  0
VERTEX
  8
piscina
 10
-9.396667
 20
38.705002
  0
VERTEX
  8
piscina
 10
-9.396671
 20
38.704999
  0
VERTEX
  8
piscina
 10
-9.396674
 20
38.704997
  0
VERTEX
  8
piscina
 10
-9.396677
 20
38.704993
  0
VERTEX
  8
piscina
 10
-9.396679
 20
38.704990
  0
VERTEX
  8
piscina
 10
-9.396680
 20
38.704986
  0
VERTEX
  8
piscina
 10
-9.396688
 20
38.704987
  0
VERTEX
  8
piscina
 10
-9.396696
 20
38.704988
  0
VERTEX
  8
piscina
 10
-9.396704
 20
38.704988
  0
VERTEX
  8
piscina
 10
-9.396712
 20
38.704988
  0
VERTEX
  8
piscina
 10
-9.396720
 20
38.704988
  0
VERTEX
  8
piscina
 10
-9.396727
 20
38.704987
  0
VERTEX
  8
piscina
 10
-9.396735
 20
38.704987
  0
VERTEX
  8
piscina
 10
-9.396743
 20
38.704986
  0
VERTEX
  8
piscina
 10
-9.396751
 20
38.704984
  0
VERTEX
  8
piscina
 10
-9.396758
 20
38.704983
  0
VERTEX
  8
piscina
 10
-9.396766
 20
38.704981
  0
VERTEX
  8
piscina
 10
-9.396782
 20
38.704979
  0
VERTEX
  8
piscina
 10
-9.396798
 20
38.704979
  0
VERTEX
  8
piscina
 10
-9.396814
 20
38.704980
  0
VERTEX
  8
piscina
 10
-9.396829
 20
38.704982
  0
VERTEX
  8
piscina
 10
-9.396845
 20
38.704986
  0
VERTEX
  8
piscina
 10
-9.396859
 20
38.704990
  0
VERTEX
  8
piscina
 10
-9.396874
 20
38.704996
  0
VERTEX
  8
piscina
 10
-9.396887
 20
38.705003
  0
VERTEX
  8
piscina
 10
-9.396900
 20
38.705010
  0
VERTEX
  8
piscina
 10
-9.396911
 20
38.705019
  0
VERTEX
  8
piscina
 10
-9.396922
 20
38.705028
  0
VERTEX
  8
piscina
 10
-9.396925
 20
38.705031
  0
VERTEX
  8
piscina
 10
-9.396928
 20
38.705033
  0
VERTEX
  8
piscina
 10
-9.396931
 20
38.705036
  0
VERTEX
  8
piscina
 10
-9.396935
 20
38.705038
  0
VERTEX
  8
piscina
 10
-9.396939
 20
38.705039
  0
VERTEX
  8
piscina
 10
-9.396943
 20
38.705041
  0
VERTEX
  8
piscina
 10
-9.396947
 20
38.705042
  0
VERTEX
  8
piscina
 10
-9.396952
 20
38.705043
  0
VERTEX
  8
piscina
 10
-9.396956
 20
38.705043
  0
VERTEX
  8
piscina
 10
-9.396960
 20
38.705044
  0
VERTEX
  8
piscina
 10
-9.396965
 20
38.705044
  0
VERTEX
  8
piscina
 10
-9.396963
 20
38.705047
  0
VERTEX
  8
piscina
 10
-9.396962
 20
38.705050
  0
VERTEX
  8
piscina
 10
-9.396961
 20
38.705053
  0
VERTEX
  8
piscina
 10
-9.396961
 20
38.705056
  0
VERTEX
  8
piscina
 10
-9.396961
 20
38.705060
  0
VERTEX
  8
piscina
 10
-9.396963
 20
38.705063
  0
VERTEX
  8
piscina
 10
-9.396964
 20
38.705066
  0
VERTEX
  8
piscina
 10
-9.396967
 20
38.705068
  0
VERTEX
  8
piscina
 10
-9.396970
 20
38.705071
  0
VERTEX
  8
piscina
 10
-9.396973
 20
38.705073
  0
VERTEX
  8
piscina
 10
-9.396977
 20
38.705074
  0
VERTEX
  8
piscina
 10
-9.396983
 20
38.705078
  0
VERTEX
  8
piscina
 10
-9.396983
 20
38.705078
  0
SEQEND
  0
POLYLINE
  8
piscina
  6
BYLAYER
 66
1
 70
1
 40
0.000000
 41
0.000000
  0
VERTEX
  8
piscina
 10
-9.392973
 20
38.715110
  0
VERTEX
  8
piscina
 10
-9.392979
 20
38.715252
  0
VERTEX
  8
piscina
 10
-9.392890
 20
38.715254
  0
VERTEX
  8
piscina
 10
-9.392884
 20
38.715113
  0
VERTEX
  8
piscina
 10
-9.392973
 20
38.715110
  0
VERTEX
  8
piscina
 10
-9.392973
 20
38.715110
  0
SEQEND
  0
POLYLINE
  8
piscina
  6
BYLAYER
 66
1
 70
1
 40
0.000000
 41
0.000000
  0
VERTEX
  8
piscina
 10
-9.401264
 20
38.709041
  0
VERTEX
  8
piscina
 10
-9.401236
 20
38.709059
  0
VERTEX
  8
piscina
 10
-9.401175
 20
38.709042
  0
VERTEX
  8
piscina
 10
-9.401162
 20
38.709012
  0
VERTEX
  8
piscina
 10
-9.401186
 20
38.708953
  0
VERTEX
  8
piscina
 10
-9.401360
 20
38.709001
  0
VERTEX
  8
piscina
 10
-9.401340
 20
38.709046
  0
VERTEX
  8
piscina
 10
-9.401326
 20
38.709056
  0
VERTEX
  8
piscina
 10
-9.401264
 20
38.709041
  0
VERTEX
  8
piscina
 10
-9.401264
 20
38.709041
  0
SEQEND
  0
POLYLINE
  8
piscina
  6
BYLAYER
 66
1
 70
1
 40
0.000000
 41
0.000000
  0
VERTEX
  8
piscina
 10
-9.343396
 20
38.685675
  0
VERTEX
  8
piscina
 10
-9.343333
 20
38.685720
  0
VERTEX
  8
piscina
 10
-9.343253
 20
38.685698
  0
VERTEX
  8
piscina
 10
-9.343229
 20
38.685634
  0
VERTEX
  8
piscina
 10
-9.343287
 20
38.685592
  0
VERTEX
  8
piscina
 10
-9.343373
 20
38.685608
  0
VERTEX
  8
piscina
 10
-9.343396
 20
38.685675
  0
VERTEX
  8
piscina
 10
-9.343396
 20
38.685675
  0
SEQEND
  0
POLYLINE
  8
piscina
  6
BYLAYER
 66
1
 70
1
 40
0.000000
 41
0.000000
  0
VERTEX
  8
piscina
 10
-9.343208
 20
38.685581
  0
VERTEX
  8
piscina
 10
-9.343182
 20
38.685603
  0
VERTEX
  8
piscina
 10
-9.343143
 20
38.685593
  0
VERTEX
  8
piscina
 10
-9.343134
 20
38.685565
  0
VERTEX
  8
piscina
 10
-9.343161
 20
38.685544
  0
VERTEX
  8
piscina
 10
-9.343197
 20
38.685549
  0
VERTEX
  8
piscina
 10
-9.343208
 20
38.685581
  0
VERTEX
  8
piscina
 10
-9.343208
 20
38.685581
  0
SEQEND
  0
POLYLINE
  8
piscina
  6
BYLAYER
 66
1
 70
1
 40
0.000000
 41
0.000000
  0
VERTEX
  8
piscina
 10
-9.340200
 20
38.686986
  0
VERTEX
  8
piscina
 10
-9.340179
 20
38.687067
  0
VERTEX
  8
piscina
 10
-9.340113
 20
38.687057
  0
VERTEX
  8
piscina
 10
-9.340134
 20
38.686976
  0
VERTEX
  8
piscina
 10
-9.340200
 20
38.686986
  0
VERTEX
  8
piscina
 10
-9.340200
 20
38.686986
  0
SEQEND
  0
POLYLINE
  8
piscina
  6
BYLAYER
 66
1
 70
1
 40
0.000000
 41
0.000000
  0
VERTEX
  8
piscina
 10
-9.340085
 20
38.686173
  0
VERTEX
  8
piscina
 10
-9.339974
 20
38.686157
  0
VERTEX
  8
piscina
 10
-9.339981
 20
38.686116
  0
VERTEX
  8
piscina
 10
-9.340037
 20
38.686123
  0
VERTEX
  8
piscina
 10
-9.340047
 20
38.686123
  0
VERTEX
  8
piscina
 10
-9.340056
 20
38.686122
  0
VERTEX
  8
piscina
 10
-9.340068
 20
38.686116
  0
VERTEX
  8
piscina
 10
-9.340076
 20
38.686111
  0
VERTEX
  8
piscina
 10
-9.340096
 20
38.686130
  0
VERTEX
  8
piscina
 10
-9.340085
 20
38.686173
  0
VERTEX
  8
piscina
 10
-9.340085
 20
38.686173
  0
SEQEND
  0
POLYLINE
  8
piscina
  6
BYLAYER
 66
1
 70
1
 40
0.000000
 41
0.000000
  0
VERTEX
  8
piscina
 10
-9.341847
 20
38.683152
  0
VERTEX
  8
piscina
 10
-9.341736
 20
38.683127
  0
VERTEX
  8
piscina
 10
-9.341718
 20
38.683116
  0
VERTEX
  8
piscina
 10
-9.341706
 20
38.683100
  0
VERTEX
  8
piscina
 10
-9.341703
 20
38.683082
  0
VERTEX
  8
piscina
 10
-9.341708
 20
38.683065
  0
VERTEX
  8
piscina
 10
-9.341720
 20
38.683051
  0
VERTEX
  8
piscina
 10
-9.341729
 20
38.683039
  0
VERTEX
  8
piscina
 10
-9.341757
 20
38.683033
  0
VERTEX
  8
piscina
 10
-9.341802
 20
38.683033
  0
VERTEX
  8
piscina
 10
-9.341876
 20
38.683036
  0
VERTEX
  8
piscina
 10
-9.341912
 20
38.683052
  0
VERTEX
  8
piscina
 10
-9.341927
 20
38.683071
  0
VERTEX
  8
piscina
 10
-9.341932
 20
38.683086
  0
VERTEX
  8
piscina
 10
-9.341930
 20
38.683103
  0
VERTEX
  8
piscina
 10
-9.341914
 20
38.683128
  0
VERTEX
  8
piscina
 10
-9.341905
 20
38.683134
  0
VERTEX
  8
piscina
 10
-9.341890
 20
38.683146
  0
VERTEX
  8
piscina
 10
-9.341865
 20
38.683152
  0
VERTEX
  8
piscina
 10
-9.341847
 20
38.683152
  0
VERTEX
  8
piscina
 10
-9.341847
 20
38.683152
  0
SEQEND
  0
POLYLINE
  8
piscina
  6
BYLAYER
 66
1
 70
1
 40
0.000000
 41
0.000000
  0
VERTEX
  8
piscina
 10
-9.343692
 20
38.686788
  0
VERTEX
  8
piscina
 10
-9.343578
 20
38.686790
  0
VERTEX
  8
piscina
 10
-9.343577
 20
38.686784
  0
VERTEX
  8
piscina
 10
-9.343564
 20
38.686779
  0
VERTEX
  8
piscina
 10
-9.343558
 20
38.686776
  0
VERTEX
  8
piscina
 10
-9.343556
 20
38.686771
  0
VERTEX
  8
piscina
 10
-9.343556
 20
38.686763
  0
VERTEX
  8
piscina
 10
-9.343557
 20
38.686755
  0
VERTEX
  8
piscina
 10
-9.343562
 20
38.686751
  0
VERTEX
  8
piscina
 10
-9.343577
 20
38.686748
  0
VERTEX
  8
piscina
 10
-9.343576
 20
38.686741
  0
VERTEX
  8
piscina
 10
-9.343689
 20
38.686740
  0
VERTEX
  8
piscina
 10
-9.343692
 20
38.686788
  0
VERTEX
  8
piscina
 10
-9.343692
 20
38.686788
  0
SEQEND
  0
POLYLINE
  8
piscina
  6
BYLAYER
 66
1
 70
1
 40
0.000000
 41
0.000000
  0
VERTEX
  8
piscina
 10
-9.343506
 20
38.686724
  0
VERTEX
  8
piscina
 10
-9.343497
 20
38.686722
  0
VERTEX
  8
piscina
 10
-9.343493
 20
38.686719
  0
VERTEX
  8
piscina
 10
-9.343490
 20
38.686709
  0
VERTEX
  8
piscina
 10
-9.343490
 20
38.686701
  0
VERTEX
  8
piscina
 10
-9.343492
 20
38.686695
  0
VERTEX
  8
piscina
 10
-9.343499
 20
38.686690
  0
VERTEX
  8
piscina
 10
-9.343508
 20
38.686690
  0
VERTEX
  8
piscina
 10
-9.343516
 20
38.686694
  0
VERTEX
  8
piscina
 10
-9.343520
 20
38.686704
  0
VERTEX
  8
piscina
 10
-9.343519
 20
38.686714
  0
VERTEX
  8
piscina
 10
-9.343517
 20
38.686721
  0
VERTEX
  8
piscina
 10
-9.343513
 20
38.686724
  0
VERTEX
  8
piscina
 10
-9.343506
 20
38.686724
  0
VERTEX
  8
piscina
 10
-9.343506
 20
38.686724
  0
SEQEND
  0
ENDSEC
  0
EOF
