  0
SECTION
  2
HEADER
  9
$LTSCALE
 40
1.000000
  9
$LUNITS
 70
2
  9
$LUPREC
 70
4
  9
$AUNITS
 70
1
  9
$AUPREC
 70
4
  9
$FILLMODE
 70
1
  0
ENDSEC
  0
SECTION
  2
TABLES
  0
TABLE
  2
VPORT
 70
0
  0
ENDTAB
  0
TABLE
  2
LTYPE
 70
1
  0
LTYPE
  2
CONTINUOUS
 70
64
  3
Solid line
 72
65
 73
0
 40
0.000000
  0
ENDTAB
  0
TABLE
  2
LAYER
 70
1
  0
LAYER
  2
0
 62
1
  6
CONTINUOUS
 70
64
  0
ENDTAB
  0
TABLE
  2
STYLE
 70
1
  0
STYLE
  2
STANDARD
 70
64
 40
0.000000
 41
1.000000
 50
0.000000
 71
0
 42
2.000000
  3
txt
  4

  0
ENDTAB
  0
TABLE
  2
VIEW
 70
0
  0
ENDTAB
  0
TABLE
  2
UCS
 70
0
  0
ENDTAB
  0
TABLE
  2
APPID
 70
0
  0
ENDTAB
  0
TABLE
  2
DIMSTYLE
 70
1
  0
DIMSTYLE
  2
STANDARD
 70
0
  3

  4

  5

  6

  7

 40
1.000000
 41
3.000000
 42
2.500000
 43
10.000000
 44
2.500000
 45
0.000000
 46
1.250000
 47
0.000000
 48
0.000000
140
3.000000
141
-3.000000
142
0.000000
143
0.039000
144
1.000000
145
1.500000
146
0.750000
147
1.500000
 71
0
 72
0
 73
0
 74
0
 75
0
 76
0
 77
0
 78
0
170
0
171
0
172
0
173
0
174
0
175
0
176
0
177
0
178
0
  0
ENDTAB
  0
ENDSEC
  0
SECTION
  2
ENTITIES
  0
POLYLINE
  8
equipamentos
  6
BYLAYER
 66
1
 70
1
 40
0.000000
 41
0.000000
  0
VERTEX
  8
equipamentos
 10
-9.356546
 20
38.694603
  0
VERTEX
  8
equipamentos
 10
-9.356749
 20
38.694546
  0
VERTEX
  8
equipamentos
 10
-9.356759
 20
38.694544
  0
VERTEX
  8
equipamentos
 10
-9.356768
 20
38.694541
  0
VERTEX
  8
equipamentos
 10
-9.356778
 20
38.694539
  0
VERTEX
  8
equipamentos
 10
-9.356788
 20
38.694537
  0
VERTEX
  8
equipamentos
 10
-9.356798
 20
38.694535
  0
VERTEX
  8
equipamentos
 10
-9.356807
 20
38.694533
  0
VERTEX
  8
equipamentos
 10
-9.356817
 20
38.694531
  0
VERTEX
  8
equipamentos
 10
-9.356827
 20
38.694530
  0
VERTEX
  8
equipamentos
 10
-9.356837
 20
38.694528
  0
VERTEX
  8
equipamentos
 10
-9.356847
 20
38.694527
  0
VERTEX
  8
equipamentos
 10
-9.356857
 20
38.694525
  0
VERTEX
  8
equipamentos
 10
-9.356867
 20
38.694524
  0
VERTEX
  8
equipamentos
 10
-9.356877
 20
38.694523
  0
VERTEX
  8
equipamentos
 10
-9.356887
 20
38.694523
  0
VERTEX
  8
equipamentos
 10
-9.356897
 20
38.694522
  0
VERTEX
  8
equipamentos
 10
-9.356907
 20
38.694521
  0
VERTEX
  8
equipamentos
 10
-9.356917
 20
38.694521
  0
VERTEX
  8
equipamentos
 10
-9.356927
 20
38.694521
  0
VERTEX
  8
equipamentos
 10
-9.356937
 20
38.694520
  0
VERTEX
  8
equipamentos
 10
-9.356947
 20
38.694520
  0
VERTEX
  8
equipamentos
 10
-9.356957
 20
38.694521
  0
VERTEX
  8
equipamentos
 10
-9.356967
 20
38.694521
  0
VERTEX
  8
equipamentos
 10
-9.356977
 20
38.694521
  0
VERTEX
  8
equipamentos
 10
-9.356987
 20
38.694522
  0
VERTEX
  8
equipamentos
 10
-9.356997
 20
38.694522
  0
VERTEX
  8
equipamentos
 10
-9.357007
 20
38.694523
  0
VERTEX
  8
equipamentos
 10
-9.357017
 20
38.694524
  0
VERTEX
  8
equipamentos
 10
-9.357027
 20
38.694525
  0
VERTEX
  8
equipamentos
 10
-9.357037
 20
38.694527
  0
VERTEX
  8
equipamentos
 10
-9.359395
 20
38.694836
  0
VERTEX
  8
equipamentos
 10
-9.359406
 20
38.694838
  0
VERTEX
  8
equipamentos
 10
-9.359417
 20
38.694839
  0
VERTEX
  8
equipamentos
 10
-9.359428
 20
38.694841
  0
VERTEX
  8
equipamentos
 10
-9.359438
 20
38.694843
  0
VERTEX
  8
equipamentos
 10
-9.359449
 20
38.694846
  0
VERTEX
  8
equipamentos
 10
-9.359460
 20
38.694848
  0
VERTEX
  8
equipamentos
 10
-9.359471
 20
38.694850
  0
VERTEX
  8
equipamentos
 10
-9.359481
 20
38.694853
  0
VERTEX
  8
equipamentos
 10
-9.359492
 20
38.694856
  0
VERTEX
  8
equipamentos
 10
-9.359502
 20
38.694859
  0
VERTEX
  8
equipamentos
 10
-9.359513
 20
38.694862
  0
VERTEX
  8
equipamentos
 10
-9.359523
 20
38.694865
  0
VERTEX
  8
equipamentos
 10
-9.359533
 20
38.694869
  0
VERTEX
  8
equipamentos
 10
-9.359543
 20
38.694873
  0
VERTEX
  8
equipamentos
 10
-9.359553
 20
38.694876
  0
VERTEX
  8
equipamentos
 10
-9.359563
 20
38.694880
  0
VERTEX
  8
equipamentos
 10
-9.359573
 20
38.694884
  0
VERTEX
  8
equipamentos
 10
-9.359583
 20
38.694889
  0
VERTEX
  8
equipamentos
 10
-9.359593
 20
38.694893
  0
VERTEX
  8
equipamentos
 10
-9.359602
 20
38.694898
  0
VERTEX
  8
equipamentos
 10
-9.359612
 20
38.694902
  0
VERTEX
  8
equipamentos
 10
-9.359621
 20
38.694907
  0
VERTEX
  8
equipamentos
 10
-9.359630
 20
38.694912
  0
VERTEX
  8
equipamentos
 10
-9.359639
 20
38.694917
  0
VERTEX
  8
equipamentos
 10
-9.359648
 20
38.694922
  0
VERTEX
  8
equipamentos
 10
-9.359657
 20
38.694928
  0
VERTEX
  8
equipamentos
 10
-9.359666
 20
38.694933
  0
VERTEX
  8
equipamentos
 10
-9.359674
 20
38.694939
  0
VERTEX
  8
equipamentos
 10
-9.359683
 20
38.694945
  0
VERTEX
  8
equipamentos
 10
-9.359815
 20
38.695038
  0
VERTEX
  8
equipamentos
 10
-9.360468
 20
38.695523
  0
VERTEX
  8
equipamentos
 10
-9.360500
 20
38.695545
  0
VERTEX
  8
equipamentos
 10
-9.361101
 20
38.696028
  0
VERTEX
  8
equipamentos
 10
-9.361104
 20
38.696031
  0
VERTEX
  8
equipamentos
 10
-9.361107
 20
38.696033
  0
VERTEX
  8
equipamentos
 10
-9.361110
 20
38.696035
  0
VERTEX
  8
equipamentos
 10
-9.361112
 20
38.696038
  0
VERTEX
  8
equipamentos
 10
-9.361115
 20
38.696040
  0
VERTEX
  8
equipamentos
 10
-9.361118
 20
38.696042
  0
VERTEX
  8
equipamentos
 10
-9.361120
 20
38.696044
  0
VERTEX
  8
equipamentos
 10
-9.361123
 20
38.696047
  0
VERTEX
  8
equipamentos
 10
-9.361125
 20
38.696049
  0
VERTEX
  8
equipamentos
 10
-9.361128
 20
38.696052
  0
VERTEX
  8
equipamentos
 10
-9.361131
 20
38.696054
  0
VERTEX
  8
equipamentos
 10
-9.361133
 20
38.696056
  0
VERTEX
  8
equipamentos
 10
-9.361136
 20
38.696059
  0
VERTEX
  8
equipamentos
 10
-9.361138
 20
38.696061
  0
VERTEX
  8
equipamentos
 10
-9.361141
 20
38.696064
  0
VERTEX
  8
equipamentos
 10
-9.361143
 20
38.696066
  0
VERTEX
  8
equipamentos
 10
-9.361146
 20
38.696068
  0
VERTEX
  8
equipamentos
 10
-9.361148
 20
38.696071
  0
VERTEX
  8
equipamentos
 10
-9.361150
 20
38.696073
  0
VERTEX
  8
equipamentos
 10
-9.361153
 20
38.696076
  0
VERTEX
  8
equipamentos
 10
-9.361155
 20
38.696078
  0
VERTEX
  8
equipamentos
 10
-9.361157
 20
38.696081
  0
VERTEX
  8
equipamentos
 10
-9.361160
 20
38.696083
  0
VERTEX
  8
equipamentos
 10
-9.361162
 20
38.696086
  0
VERTEX
  8
equipamentos
 10
-9.361164
 20
38.696089
  0
VERTEX
  8
equipamentos
 10
-9.361166
 20
38.696091
  0
VERTEX
  8
equipamentos
 10
-9.361168
 20
38.696094
  0
VERTEX
  8
equipamentos
 10
-9.361171
 20
38.696096
  0
VERTEX
  8
equipamentos
 10
-9.361173
 20
38.696099
  0
VERTEX
  8
equipamentos
 10
-9.361347
 20
38.696310
  0
VERTEX
  8
equipamentos
 10
-9.361348
 20
38.696313
  0
VERTEX
  8
equipamentos
 10
-9.361350
 20
38.696315
  0
VERTEX
  8
equipamentos
 10
-9.361352
 20
38.696317
  0
VERTEX
  8
equipamentos
 10
-9.361353
 20
38.696319
  0
VERTEX
  8
equipamentos
 10
-9.361355
 20
38.696321
  0
VERTEX
  8
equipamentos
 10
-9.361357
 20
38.696323
  0
VERTEX
  8
equipamentos
 10
-9.361358
 20
38.696325
  0
VERTEX
  8
equipamentos
 10
-9.361360
 20
38.696327
  0
VERTEX
  8
equipamentos
 10
-9.361361
 20
38.696329
  0
VERTEX
  8
equipamentos
 10
-9.361363
 20
38.696332
  0
VERTEX
  8
equipamentos
 10
-9.361365
 20
38.696334
  0
VERTEX
  8
equipamentos
 10
-9.361366
 20
38.696336
  0
VERTEX
  8
equipamentos
 10
-9.361368
 20
38.696338
  0
VERTEX
  8
equipamentos
 10
-9.361369
 20
38.696340
  0
VERTEX
  8
equipamentos
 10
-9.361371
 20
38.696342
  0
VERTEX
  8
equipamentos
 10
-9.361372
 20
38.696345
  0
VERTEX
  8
equipamentos
 10
-9.361374
 20
38.696347
  0
VERTEX
  8
equipamentos
 10
-9.361375
 20
38.696349
  0
VERTEX
  8
equipamentos
 10
-9.361376
 20
38.696351
  0
VERTEX
  8
equipamentos
 10
-9.361378
 20
38.696353
  0
VERTEX
  8
equipamentos
 10
-9.361379
 20
38.696356
  0
VERTEX
  8
equipamentos
 10
-9.361381
 20
38.696358
  0
VERTEX
  8
equipamentos
 10
-9.361382
 20
38.696360
  0
VERTEX
  8
equipamentos
 10
-9.361383
 20
38.696362
  0
VERTEX
  8
equipamentos
 10
-9.361385
 20
38.696365
  0
VERTEX
  8
equipamentos
 10
-9.361386
 20
38.696367
  0
VERTEX
  8
equipamentos
 10
-9.361387
 20
38.696369
  0
VERTEX
  8
equipamentos
 10
-9.361389
 20
38.696371
  0
VERTEX
  8
equipamentos
 10
-9.361390
 20
38.696374
  0
VERTEX
  8
equipamentos
 10
-9.361394
 20
38.696381
  0
VERTEX
  8
equipamentos
 10
-9.361395
 20
38.696383
  0
VERTEX
  8
equipamentos
 10
-9.361396
 20
38.696385
  0
VERTEX
  8
equipamentos
 10
-9.361397
 20
38.696387
  0
VERTEX
  8
equipamentos
 10
-9.361398
 20
38.696389
  0
VERTEX
  8
equipamentos
 10
-9.361399
 20
38.696391
  0
VERTEX
  8
equipamentos
 10
-9.361400
 20
38.696393
  0
VERTEX
  8
equipamentos
 10
-9.361401
 20
38.696395
  0
VERTEX
  8
equipamentos
 10
-9.361402
 20
38.696397
  0
VERTEX
  8
equipamentos
 10
-9.361403
 20
38.696399
  0
VERTEX
  8
equipamentos
 10
-9.361404
 20
38.696401
  0
VERTEX
  8
equipamentos
 10
-9.361405
 20
38.696403
  0
VERTEX
  8
equipamentos
 10
-9.361406
 20
38.696405
  0
VERTEX
  8
equipamentos
 10
-9.361407
 20
38.696407
  0
VERTEX
  8
equipamentos
 10
-9.361408
 20
38.696409
  0
VERTEX
  8
equipamentos
 10
-9.361409
 20
38.696411
  0
VERTEX
  8
equipamentos
 10
-9.361410
 20
38.696413
  0
VERTEX
  8
equipamentos
 10
-9.361411
 20
38.696415
  0
VERTEX
  8
equipamentos
 10
-9.361412
 20
38.696417
  0
VERTEX
  8
equipamentos
 10
-9.361413
 20
38.696419
  0
VERTEX
  8
equipamentos
 10
-9.361413
 20
38.696421
  0
VERTEX
  8
equipamentos
 10
-9.361414
 20
38.696423
  0
VERTEX
  8
equipamentos
 10
-9.361415
 20
38.696425
  0
VERTEX
  8
equipamentos
 10
-9.361416
 20
38.696427
  0
VERTEX
  8
equipamentos
 10
-9.361417
 20
38.696429
  0
VERTEX
  8
equipamentos
 10
-9.361417
 20
38.696431
  0
VERTEX
  8
equipamentos
 10
-9.361418
 20
38.696433
  0
VERTEX
  8
equipamentos
 10
-9.361419
 20
38.696435
  0
VERTEX
  8
equipamentos
 10
-9.361420
 20
38.696437
  0
VERTEX
  8
equipamentos
 10
-9.361421
 20
38.696439
  0
VERTEX
  8
equipamentos
 10
-9.361426
 20
38.696454
  0
VERTEX
  8
equipamentos
 10
-9.361741
 20
38.696806
  0
VERTEX
  8
equipamentos
 10
-9.361748
 20
38.696814
  0
VERTEX
  8
equipamentos
 10
-9.361754
 20
38.696822
  0
VERTEX
  8
equipamentos
 10
-9.361761
 20
38.696830
  0
VERTEX
  8
equipamentos
 10
-9.361767
 20
38.696838
  0
VERTEX
  8
equipamentos
 10
-9.361773
 20
38.696846
  0
VERTEX
  8
equipamentos
 10
-9.361779
 20
38.696855
  0
VERTEX
  8
equipamentos
 10
-9.361784
 20
38.696863
  0
VERTEX
  8
equipamentos
 10
-9.361790
 20
38.696872
  0
VERTEX
  8
equipamentos
 10
-9.361795
 20
38.696881
  0
VERTEX
  8
equipamentos
 10
-9.361799
 20
38.696889
  0
VERTEX
  8
equipamentos
 10
-9.361804
 20
38.696898
  0
VERTEX
  8
equipamentos
 10
-9.361808
 20
38.696907
  0
VERTEX
  8
equipamentos
 10
-9.361813
 20
38.696916
  0
VERTEX
  8
equipamentos
 10
-9.361816
 20
38.696925
  0
VERTEX
  8
equipamentos
 10
-9.361820
 20
38.696934
  0
VERTEX
  8
equipamentos
 10
-9.361824
 20
38.696943
  0
VERTEX
  8
equipamentos
 10
-9.361827
 20
38.696953
  0
VERTEX
  8
equipamentos
 10
-9.361830
 20
38.696962
  0
VERTEX
  8
equipamentos
 10
-9.361832
 20
38.696971
  0
VERTEX
  8
equipamentos
 10
-9.361835
 20
38.696980
  0
VERTEX
  8
equipamentos
 10
-9.361837
 20
38.696990
  0
VERTEX
  8
equipamentos
 10
-9.361839
 20
38.696999
  0
VERTEX
  8
equipamentos
 10
-9.361840
 20
38.697009
  0
VERTEX
  8
equipamentos
 10
-9.361842
 20
38.697018
  0
VERTEX
  8
equipamentos
 10
-9.361843
 20
38.697028
  0
VERTEX
  8
equipamentos
 10
-9.361844
 20
38.697037
  0
VERTEX
  8
equipamentos
 10
-9.361844
 20
38.697047
  0
VERTEX
  8
equipamentos
 10
-9.361845
 20
38.697056
  0
VERTEX
  8
equipamentos
 10
-9.361845
 20
38.697066
  0
VERTEX
  8
equipamentos
 10
-9.361843
 20
38.697443
  0
VERTEX
  8
equipamentos
 10
-9.361843
 20
38.697444
  0
VERTEX
  8
equipamentos
 10
-9.361843
 20
38.697445
  0
VERTEX
  8
equipamentos
 10
-9.361843
 20
38.697446
  0
VERTEX
  8
equipamentos
 10
-9.361843
 20
38.697447
  0
VERTEX
  8
equipamentos
 10
-9.361843
 20
38.697448
  0
VERTEX
  8
equipamentos
 10
-9.361843
 20
38.697449
  0
VERTEX
  8
equipamentos
 10
-9.361843
 20
38.697450
  0
VERTEX
  8
equipamentos
 10
-9.361843
 20
38.697451
  0
VERTEX
  8
equipamentos
 10
-9.361843
 20
38.697452
  0
VERTEX
  8
equipamentos
 10
-9.361843
 20
38.697453
  0
VERTEX
  8
equipamentos
 10
-9.361843
 20
38.697454
  0
VERTEX
  8
equipamentos
 10
-9.361843
 20
38.697455
  0
VERTEX
  8
equipamentos
 10
-9.361843
 20
38.697456
  0
VERTEX
  8
equipamentos
 10
-9.361843
 20
38.697457
  0
VERTEX
  8
equipamentos
 10
-9.361843
 20
38.697458
  0
VERTEX
  8
equipamentos
 10
-9.361843
 20
38.697459
  0
VERTEX
  8
equipamentos
 10
-9.361843
 20
38.697460
  0
VERTEX
  8
equipamentos
 10
-9.361843
 20
38.697461
  0
VERTEX
  8
equipamentos
 10
-9.361843
 20
38.697462
  0
VERTEX
  8
equipamentos
 10
-9.361843
 20
38.697463
  0
VERTEX
  8
equipamentos
 10
-9.361843
 20
38.697464
  0
VERTEX
  8
equipamentos
 10
-9.361842
 20
38.697465
  0
VERTEX
  8
equipamentos
 10
-9.361842
 20
38.697466
  0
VERTEX
  8
equipamentos
 10
-9.361842
 20
38.697467
  0
VERTEX
  8
equipamentos
 10
-9.361842
 20
38.697469
  0
VERTEX
  8
equipamentos
 10
-9.361842
 20
38.697470
  0
VERTEX
  8
equipamentos
 10
-9.361842
 20
38.697470
  0
VERTEX
  8
equipamentos
 10
-9.361842
 20
38.697471
  0
VERTEX
  8
equipamentos
 10
-9.361842
 20
38.697473
  0
VERTEX
  8
equipamentos
 10
-9.361789
 20
38.698077
  0
VERTEX
  8
equipamentos
 10
-9.361786
 20
38.698101
  0
VERTEX
  8
equipamentos
 10
-9.361782
 20
38.698124
  0
VERTEX
  8
equipamentos
 10
-9.361776
 20
38.698148
  0
VERTEX
  8
equipamentos
 10
-9.361768
 20
38.698170
  0
VERTEX
  8
equipamentos
 10
-9.361759
 20
38.698193
  0
VERTEX
  8
equipamentos
 10
-9.361749
 20
38.698215
  0
VERTEX
  8
equipamentos
 10
-9.361737
 20
38.698237
  0
VERTEX
  8
equipamentos
 10
-9.361723
 20
38.698258
  0
VERTEX
  8
equipamentos
 10
-9.361708
 20
38.698279
  0
VERTEX
  8
equipamentos
 10
-9.361692
 20
38.698299
  0
VERTEX
  8
equipamentos
 10
-9.361674
 20
38.698318
  0
VERTEX
  8
equipamentos
 10
-9.361655
 20
38.698337
  0
VERTEX
  8
equipamentos
 10
-9.361635
 20
38.698354
  0
VERTEX
  8
equipamentos
 10
-9.361614
 20
38.698371
  0
VERTEX
  8
equipamentos
 10
-9.361592
 20
38.698387
  0
VERTEX
  8
equipamentos
 10
-9.361568
 20
38.698402
  0
VERTEX
  8
equipamentos
 10
-9.361544
 20
38.698416
  0
VERTEX
  8
equipamentos
 10
-9.361519
 20
38.698429
  0
VERTEX
  8
equipamentos
 10
-9.361493
 20
38.698441
  0
VERTEX
  8
equipamentos
 10
-9.361466
 20
38.698452
  0
VERTEX
  8
equipamentos
 10
-9.361438
 20
38.698462
  0
VERTEX
  8
equipamentos
 10
-9.361410
 20
38.698470
  0
VERTEX
  8
equipamentos
 10
-9.361381
 20
38.698478
  0
VERTEX
  8
equipamentos
 10
-9.361352
 20
38.698484
  0
VERTEX
  8
equipamentos
 10
-9.361323
 20
38.698489
  0
VERTEX
  8
equipamentos
 10
-9.361293
 20
38.698493
  0
VERTEX
  8
equipamentos
 10
-9.361263
 20
38.698495
  0
VERTEX
  8
equipamentos
 10
-9.361232
 20
38.698497
  0
VERTEX
  8
equipamentos
 10
-9.361202
 20
38.698497
  0
VERTEX
  8
equipamentos
 10
-9.360852
 20
38.698490
  0
VERTEX
  8
equipamentos
 10
-9.360695
 20
38.698482
  0
VERTEX
  8
equipamentos
 10
-9.360685
 20
38.698481
  0
VERTEX
  8
equipamentos
 10
-9.360674
 20
38.698480
  0
VERTEX
  8
equipamentos
 10
-9.360664
 20
38.698479
  0
VERTEX
  8
equipamentos
 10
-9.360653
 20
38.698478
  0
VERTEX
  8
equipamentos
 10
-9.360643
 20
38.698477
  0
VERTEX
  8
equipamentos
 10
-9.360633
 20
38.698476
  0
VERTEX
  8
equipamentos
 10
-9.360623
 20
38.698474
  0
VERTEX
  8
equipamentos
 10
-9.360612
 20
38.698472
  0
VERTEX
  8
equipamentos
 10
-9.360602
 20
38.698470
  0
VERTEX
  8
equipamentos
 10
-9.360592
 20
38.698469
  0
VERTEX
  8
equipamentos
 10
-9.360582
 20
38.698466
  0
VERTEX
  8
equipamentos
 10
-9.360572
 20
38.698464
  0
VERTEX
  8
equipamentos
 10
-9.360562
 20
38.698462
  0
VERTEX
  8
equipamentos
 10
-9.360552
 20
38.698459
  0
VERTEX
  8
equipamentos
 10
-9.360542
 20
38.698457
  0
VERTEX
  8
equipamentos
 10
-9.360532
 20
38.698454
  0
VERTEX
  8
equipamentos
 10
-9.360522
 20
38.698451
  0
VERTEX
  8
equipamentos
 10
-9.360513
 20
38.698448
  0
VERTEX
  8
equipamentos
 10
-9.360503
 20
38.698445
  0
VERTEX
  8
equipamentos
 10
-9.360494
 20
38.698441
  0
VERTEX
  8
equipamentos
 10
-9.360484
 20
38.698438
  0
VERTEX
  8
equipamentos
 10
-9.360475
 20
38.698434
  0
VERTEX
  8
equipamentos
 10
-9.360465
 20
38.698430
  0
VERTEX
  8
equipamentos
 10
-9.360456
 20
38.698426
  0
VERTEX
  8
equipamentos
 10
-9.360447
 20
38.698422
  0
VERTEX
  8
equipamentos
 10
-9.360438
 20
38.698418
  0
VERTEX
  8
equipamentos
 10
-9.360429
 20
38.698414
  0
VERTEX
  8
equipamentos
 10
-9.360420
 20
38.698409
  0
VERTEX
  8
equipamentos
 10
-9.360412
 20
38.698405
  0
VERTEX
  8
equipamentos
 10
-9.360151
 20
38.698266
  0
VERTEX
  8
equipamentos
 10
-9.360033
 20
38.698205
  0
VERTEX
  8
equipamentos
 10
-9.359882
 20
38.698136
  0
VERTEX
  8
equipamentos
 10
-9.359881
 20
38.698136
  0
VERTEX
  8
equipamentos
 10
-9.359880
 20
38.698135
  0
VERTEX
  8
equipamentos
 10
-9.359880
 20
38.698135
  0
VERTEX
  8
equipamentos
 10
-9.359879
 20
38.698134
  0
VERTEX
  8
equipamentos
 10
-9.359878
 20
38.698134
  0
VERTEX
  8
equipamentos
 10
-9.359877
 20
38.698133
  0
VERTEX
  8
equipamentos
 10
-9.359876
 20
38.698133
  0
VERTEX
  8
equipamentos
 10
-9.359875
 20
38.698133
  0
VERTEX
  8
equipamentos
 10
-9.359874
 20
38.698132
  0
VERTEX
  8
equipamentos
 10
-9.359873
 20
38.698132
  0
VERTEX
  8
equipamentos
 10
-9.359873
 20
38.698131
  0
VERTEX
  8
equipamentos
 10
-9.359872
 20
38.698131
  0
VERTEX
  8
equipamentos
 10
-9.359871
 20
38.698131
  0
VERTEX
  8
equipamentos
 10
-9.359870
 20
38.698130
  0
VERTEX
  8
equipamentos
 10
-9.359869
 20
38.698130
  0
VERTEX
  8
equipamentos
 10
-9.359868
 20
38.698129
  0
VERTEX
  8
equipamentos
 10
-9.359867
 20
38.698129
  0
VERTEX
  8
equipamentos
 10
-9.359866
 20
38.698128
  0
VERTEX
  8
equipamentos
 10
-9.359866
 20
38.698128
  0
VERTEX
  8
equipamentos
 10
-9.359865
 20
38.698128
  0
VERTEX
  8
equipamentos
 10
-9.359864
 20
38.698127
  0
VERTEX
  8
equipamentos
 10
-9.359863
 20
38.698127
  0
VERTEX
  8
equipamentos
 10
-9.359862
 20
38.698126
  0
VERTEX
  8
equipamentos
 10
-9.359861
 20
38.698126
  0
VERTEX
  8
equipamentos
 10
-9.359860
 20
38.698125
  0
VERTEX
  8
equipamentos
 10
-9.359860
 20
38.698125
  0
VERTEX
  8
equipamentos
 10
-9.359859
 20
38.698125
  0
VERTEX
  8
equipamentos
 10
-9.359858
 20
38.698124
  0
VERTEX
  8
equipamentos
 10
-9.359857
 20
38.698124
  0
VERTEX
  8
equipamentos
 10
-9.359001
 20
38.697686
  0
VERTEX
  8
equipamentos
 10
-9.358728
 20
38.697580
  0
VERTEX
  8
equipamentos
 10
-9.358679
 20
38.697585
  0
VERTEX
  8
equipamentos
 10
-9.358355
 20
38.697622
  0
VERTEX
  8
equipamentos
 10
-9.358202
 20
38.697639
  0
VERTEX
  8
equipamentos
 10
-9.358000
 20
38.697661
  0
VERTEX
  8
equipamentos
 10
-9.357621
 20
38.697707
  0
VERTEX
  8
equipamentos
 10
-9.357601
 20
38.697709
  0
VERTEX
  8
equipamentos
 10
-9.357581
 20
38.697710
  0
VERTEX
  8
equipamentos
 10
-9.357562
 20
38.697711
  0
VERTEX
  8
equipamentos
 10
-9.357542
 20
38.697712
  0
VERTEX
  8
equipamentos
 10
-9.357522
 20
38.697712
  0
VERTEX
  8
equipamentos
 10
-9.357502
 20
38.697711
  0
VERTEX
  8
equipamentos
 10
-9.357482
 20
38.697710
  0
VERTEX
  8
equipamentos
 10
-9.357462
 20
38.697708
  0
VERTEX
  8
equipamentos
 10
-9.357443
 20
38.697706
  0
VERTEX
  8
equipamentos
 10
-9.357423
 20
38.697703
  0
VERTEX
  8
equipamentos
 10
-9.357404
 20
38.697700
  0
VERTEX
  8
equipamentos
 10
-9.357385
 20
38.697696
  0
VERTEX
  8
equipamentos
 10
-9.357365
 20
38.697692
  0
VERTEX
  8
equipamentos
 10
-9.357347
 20
38.697687
  0
VERTEX
  8
equipamentos
 10
-9.357328
 20
38.697682
  0
VERTEX
  8
equipamentos
 10
-9.357309
 20
38.697676
  0
VERTEX
  8
equipamentos
 10
-9.357291
 20
38.697670
  0
VERTEX
  8
equipamentos
 10
-9.357273
 20
38.697663
  0
VERTEX
  8
equipamentos
 10
-9.357256
 20
38.697656
  0
VERTEX
  8
equipamentos
 10
-9.357239
 20
38.697648
  0
VERTEX
  8
equipamentos
 10
-9.357222
 20
38.697640
  0
VERTEX
  8
equipamentos
 10
-9.357205
 20
38.697631
  0
VERTEX
  8
equipamentos
 10
-9.357189
 20
38.697622
  0
VERTEX
  8
equipamentos
 10
-9.357173
 20
38.697612
  0
VERTEX
  8
equipamentos
 10
-9.357158
 20
38.697602
  0
VERTEX
  8
equipamentos
 10
-9.357143
 20
38.697592
  0
VERTEX
  8
equipamentos
 10
-9.357129
 20
38.697581
  0
VERTEX
  8
equipamentos
 10
-9.357115
 20
38.697570
  0
VERTEX
  8
equipamentos
 10
-9.357102
 20
38.697558
  0
VERTEX
  8
equipamentos
 10
-9.356928
 20
38.697606
  0
VERTEX
  8
equipamentos
 10
-9.356795
 20
38.697650
  0
VERTEX
  8
equipamentos
 10
-9.356766
 20
38.697659
  0
VERTEX
  8
equipamentos
 10
-9.356736
 20
38.697667
  0
VERTEX
  8
equipamentos
 10
-9.356705
 20
38.697674
  0
VERTEX
  8
equipamentos
 10
-9.356674
 20
38.697679
  0
VERTEX
  8
equipamentos
 10
-9.356642
 20
38.697683
  0
VERTEX
  8
equipamentos
 10
-9.356611
 20
38.697685
  0
VERTEX
  8
equipamentos
 10
-9.356579
 20
38.697686
  0
VERTEX
  8
equipamentos
 10
-9.356547
 20
38.697686
  0
VERTEX
  8
equipamentos
 10
-9.356515
 20
38.697684
  0
VERTEX
  8
equipamentos
 10
-9.356484
 20
38.697681
  0
VERTEX
  8
equipamentos
 10
-9.356453
 20
38.697676
  0
VERTEX
  8
equipamentos
 10
-9.356422
 20
38.697671
  0
VERTEX
  8
equipamentos
 10
-9.356391
 20
38.697663
  0
VERTEX
  8
equipamentos
 10
-9.356361
 20
38.697655
  0
VERTEX
  8
equipamentos
 10
-9.356332
 20
38.697645
  0
VERTEX
  8
equipamentos
 10
-9.356304
 20
38.697634
  0
VERTEX
  8
equipamentos
 10
-9.356276
 20
38.697622
  0
VERTEX
  8
equipamentos
 10
-9.356249
 20
38.697609
  0
VERTEX
  8
equipamentos
 10
-9.356223
 20
38.697594
  0
VERTEX
  8
equipamentos
 10
-9.356198
 20
38.697579
  0
VERTEX
  8
equipamentos
 10
-9.356175
 20
38.697562
  0
VERTEX
  8
equipamentos
 10
-9.356153
 20
38.697544
  0
VERTEX
  8
equipamentos
 10
-9.356131
 20
38.697526
  0
VERTEX
  8
equipamentos
 10
-9.356112
 20
38.697506
  0
VERTEX
  8
equipamentos
 10
-9.356093
 20
38.697486
  0
VERTEX
  8
equipamentos
 10
-9.356076
 20
38.697465
  0
VERTEX
  8
equipamentos
 10
-9.356061
 20
38.697443
  0
VERTEX
  8
equipamentos
 10
-9.356047
 20
38.697421
  0
VERTEX
  8
equipamentos
 10
-9.356035
 20
38.697398
  0
VERTEX
  8
equipamentos
 10
-9.356011
 20
38.697349
  0
VERTEX
  8
equipamentos
 10
-9.356001
 20
38.697326
  0
VERTEX
  8
equipamentos
 10
-9.355992
 20
38.697303
  0
VERTEX
  8
equipamentos
 10
-9.355985
 20
38.697279
  0
VERTEX
  8
equipamentos
 10
-9.355979
 20
38.697255
  0
VERTEX
  8
equipamentos
 10
-9.355975
 20
38.697231
  0
VERTEX
  8
equipamentos
 10
-9.355973
 20
38.697206
  0
VERTEX
  8
equipamentos
 10
-9.355973
 20
38.697182
  0
VERTEX
  8
equipamentos
 10
-9.355974
 20
38.697158
  0
VERTEX
  8
equipamentos
 10
-9.355977
 20
38.697133
  0
VERTEX
  8
equipamentos
 10
-9.355981
 20
38.697109
  0
VERTEX
  8
equipamentos
 10
-9.355987
 20
38.697085
  0
VERTEX
  8
equipamentos
 10
-9.355995
 20
38.697062
  0
VERTEX
  8
equipamentos
 10
-9.356005
 20
38.697039
  0
VERTEX
  8
equipamentos
 10
-9.356016
 20
38.697016
  0
VERTEX
  8
equipamentos
 10
-9.356028
 20
38.696993
  0
VERTEX
  8
equipamentos
 10
-9.356042
 20
38.696972
  0
VERTEX
  8
equipamentos
 10
-9.356058
 20
38.696951
  0
VERTEX
  8
equipamentos
 10
-9.356075
 20
38.696930
  0
VERTEX
  8
equipamentos
 10
-9.356094
 20
38.696911
  0
VERTEX
  8
equipamentos
 10
-9.356113
 20
38.696892
  0
VERTEX
  8
equipamentos
 10
-9.356134
 20
38.696874
  0
VERTEX
  8
equipamentos
 10
-9.356157
 20
38.696857
  0
VERTEX
  8
equipamentos
 10
-9.356180
 20
38.696841
  0
VERTEX
  8
equipamentos
 10
-9.356205
 20
38.696826
  0
VERTEX
  8
equipamentos
 10
-9.356230
 20
38.696812
  0
VERTEX
  8
equipamentos
 10
-9.356256
 20
38.696799
  0
VERTEX
  8
equipamentos
 10
-9.356284
 20
38.696787
  0
VERTEX
  8
equipamentos
 10
-9.356312
 20
38.696776
  0
VERTEX
  8
equipamentos
 10
-9.356341
 20
38.696767
  0
VERTEX
  8
equipamentos
 10
-9.356381
 20
38.696755
  0
VERTEX
  8
equipamentos
 10
-9.356429
 20
38.696701
  0
VERTEX
  8
equipamentos
 10
-9.356510
 20
38.696618
  0
VERTEX
  8
equipamentos
 10
-9.356513
 20
38.696615
  0
VERTEX
  8
equipamentos
 10
-9.356517
 20
38.696612
  0
VERTEX
  8
equipamentos
 10
-9.356520
 20
38.696609
  0
VERTEX
  8
equipamentos
 10
-9.356523
 20
38.696606
  0
VERTEX
  8
equipamentos
 10
-9.356526
 20
38.696603
  0
VERTEX
  8
equipamentos
 10
-9.356530
 20
38.696599
  0
VERTEX
  8
equipamentos
 10
-9.356533
 20
38.696596
  0
VERTEX
  8
equipamentos
 10
-9.356537
 20
38.696593
  0
VERTEX
  8
equipamentos
 10
-9.356540
 20
38.696590
  0
VERTEX
  8
equipamentos
 10
-9.356544
 20
38.696587
  0
VERTEX
  8
equipamentos
 10
-9.356547
 20
38.696584
  0
VERTEX
  8
equipamentos
 10
-9.356551
 20
38.696581
  0
VERTEX
  8
equipamentos
 10
-9.356554
 20
38.696579
  0
VERTEX
  8
equipamentos
 10
-9.356558
 20
38.696576
  0
VERTEX
  8
equipamentos
 10
-9.356562
 20
38.696573
  0
VERTEX
  8
equipamentos
 10
-9.356565
 20
38.696570
  0
VERTEX
  8
equipamentos
 10
-9.356569
 20
38.696567
  0
VERTEX
  8
equipamentos
 10
-9.356573
 20
38.696564
  0
VERTEX
  8
equipamentos
 10
-9.356577
 20
38.696562
  0
VERTEX
  8
equipamentos
 10
-9.356581
 20
38.696559
  0
VERTEX
  8
equipamentos
 10
-9.356585
 20
38.696556
  0
VERTEX
  8
equipamentos
 10
-9.356589
 20
38.696553
  0
VERTEX
  8
equipamentos
 10
-9.356592
 20
38.696551
  0
VERTEX
  8
equipamentos
 10
-9.356596
 20
38.696548
  0
VERTEX
  8
equipamentos
 10
-9.356600
 20
38.696546
  0
VERTEX
  8
equipamentos
 10
-9.356604
 20
38.696543
  0
VERTEX
  8
equipamentos
 10
-9.356609
 20
38.696541
  0
VERTEX
  8
equipamentos
 10
-9.356613
 20
38.696538
  0
VERTEX
  8
equipamentos
 10
-9.356617
 20
38.696536
  0
VERTEX
  8
equipamentos
 10
-9.356534
 20
38.696363
  0
VERTEX
  8
equipamentos
 10
-9.356530
 20
38.696354
  0
VERTEX
  8
equipamentos
 10
-9.356526
 20
38.696345
  0
VERTEX
  8
equipamentos
 10
-9.356523
 20
38.696337
  0
VERTEX
  8
equipamentos
 10
-9.356519
 20
38.696328
  0
VERTEX
  8
equipamentos
 10
-9.356516
 20
38.696319
  0
VERTEX
  8
equipamentos
 10
-9.356513
 20
38.696310
  0
VERTEX
  8
equipamentos
 10
-9.356511
 20
38.696300
  0
VERTEX
  8
equipamentos
 10
-9.356508
 20
38.696291
  0
VERTEX
  8
equipamentos
 10
-9.356506
 20
38.696282
  0
VERTEX
  8
equipamentos
 10
-9.356504
 20
38.696273
  0
VERTEX
  8
equipamentos
 10
-9.356503
 20
38.696264
  0
VERTEX
  8
equipamentos
 10
-9.356501
 20
38.696254
  0
VERTEX
  8
equipamentos
 10
-9.356500
 20
38.696245
  0
VERTEX
  8
equipamentos
 10
-9.356499
 20
38.696236
  0
VERTEX
  8
equipamentos
 10
-9.356498
 20
38.696227
  0
VERTEX
  8
equipamentos
 10
-9.356498
 20
38.696217
  0
VERTEX
  8
equipamentos
 10
-9.356498
 20
38.696208
  0
VERTEX
  8
equipamentos
 10
-9.356498
 20
38.696199
  0
VERTEX
  8
equipamentos
 10
-9.356498
 20
38.696189
  0
VERTEX
  8
equipamentos
 10
-9.356499
 20
38.696180
  0
VERTEX
  8
equipamentos
 10
-9.356499
 20
38.696171
  0
VERTEX
  8
equipamentos
 10
-9.356500
 20
38.696161
  0
VERTEX
  8
equipamentos
 10
-9.356502
 20
38.696152
  0
VERTEX
  8
equipamentos
 10
-9.356503
 20
38.696143
  0
VERTEX
  8
equipamentos
 10
-9.356505
 20
38.696134
  0
VERTEX
  8
equipamentos
 10
-9.356507
 20
38.696124
  0
VERTEX
  8
equipamentos
 10
-9.356509
 20
38.696115
  0
VERTEX
  8
equipamentos
 10
-9.356512
 20
38.696106
  0
VERTEX
  8
equipamentos
 10
-9.356514
 20
38.696097
  0
VERTEX
  8
equipamentos
 10
-9.356508
 20
38.696092
  0
VERTEX
  8
equipamentos
 10
-9.356502
 20
38.696088
  0
VERTEX
  8
equipamentos
 10
-9.356496
 20
38.696083
  0
VERTEX
  8
equipamentos
 10
-9.356490
 20
38.696078
  0
VERTEX
  8
equipamentos
 10
-9.356484
 20
38.696073
  0
VERTEX
  8
equipamentos
 10
-9.356479
 20
38.696068
  0
VERTEX
  8
equipamentos
 10
-9.356473
 20
38.696062
  0
VERTEX
  8
equipamentos
 10
-9.356467
 20
38.696057
  0
VERTEX
  8
equipamentos
 10
-9.356462
 20
38.696052
  0
VERTEX
  8
equipamentos
 10
-9.356456
 20
38.696046
  0
VERTEX
  8
equipamentos
 10
-9.356451
 20
38.696041
  0
VERTEX
  8
equipamentos
 10
-9.356446
 20
38.696035
  0
VERTEX
  8
equipamentos
 10
-9.356441
 20
38.696030
  0
VERTEX
  8
equipamentos
 10
-9.356436
 20
38.696024
  0
VERTEX
  8
equipamentos
 10
-9.356431
 20
38.696019
  0
VERTEX
  8
equipamentos
 10
-9.356426
 20
38.696013
  0
VERTEX
  8
equipamentos
 10
-9.356422
 20
38.696007
  0
VERTEX
  8
equipamentos
 10
-9.356417
 20
38.696001
  0
VERTEX
  8
equipamentos
 10
-9.356413
 20
38.695995
  0
VERTEX
  8
equipamentos
 10
-9.356409
 20
38.695989
  0
VERTEX
  8
equipamentos
 10
-9.356405
 20
38.695983
  0
VERTEX
  8
equipamentos
 10
-9.356401
 20
38.695977
  0
VERTEX
  8
equipamentos
 10
-9.356397
 20
38.695971
  0
VERTEX
  8
equipamentos
 10
-9.356393
 20
38.695965
  0
VERTEX
  8
equipamentos
 10
-9.356389
 20
38.695959
  0
VERTEX
  8
equipamentos
 10
-9.356386
 20
38.695953
  0
VERTEX
  8
equipamentos
 10
-9.356382
 20
38.695946
  0
VERTEX
  8
equipamentos
 10
-9.356379
 20
38.695940
  0
VERTEX
  8
equipamentos
 10
-9.356376
 20
38.695934
  0
VERTEX
  8
equipamentos
 10
-9.356353
 20
38.695888
  0
VERTEX
  8
equipamentos
 10
-9.356272
 20
38.695744
  0
VERTEX
  8
equipamentos
 10
-9.356178
 20
38.695549
  0
VERTEX
  8
equipamentos
 10
-9.356084
 20
38.695358
  0
VERTEX
  8
equipamentos
 10
-9.356046
 20
38.695287
  0
VERTEX
  8
equipamentos
 10
-9.356045
 20
38.695284
  0
VERTEX
  8
equipamentos
 10
-9.356043
 20
38.695281
  0
VERTEX
  8
equipamentos
 10
-9.356042
 20
38.695279
  0
VERTEX
  8
equipamentos
 10
-9.356041
 20
38.695276
  0
VERTEX
  8
equipamentos
 10
-9.356039
 20
38.695273
  0
VERTEX
  8
equipamentos
 10
-9.356038
 20
38.695271
  0
VERTEX
  8
equipamentos
 10
-9.356037
 20
38.695268
  0
VERTEX
  8
equipamentos
 10
-9.356036
 20
38.695265
  0
VERTEX
  8
equipamentos
 10
-9.356034
 20
38.695262
  0
VERTEX
  8
equipamentos
 10
-9.356033
 20
38.695260
  0
VERTEX
  8
equipamentos
 10
-9.356032
 20
38.695257
  0
VERTEX
  8
equipamentos
 10
-9.356032
 20
38.695257
  0
VERTEX
  8
equipamentos
 10
-9.356031
 20
38.695254
  0
VERTEX
  8
equipamentos
 10
-9.356030
 20
38.695251
  0
VERTEX
  8
equipamentos
 10
-9.356028
 20
38.695249
  0
VERTEX
  8
equipamentos
 10
-9.356027
 20
38.695246
  0
VERTEX
  8
equipamentos
 10
-9.356026
 20
38.695243
  0
VERTEX
  8
equipamentos
 10
-9.356025
 20
38.695240
  0
VERTEX
  8
equipamentos
 10
-9.356024
 20
38.695237
  0
VERTEX
  8
equipamentos
 10
-9.356023
 20
38.695235
  0
VERTEX
  8
equipamentos
 10
-9.356022
 20
38.695232
  0
VERTEX
  8
equipamentos
 10
-9.356021
 20
38.695229
  0
VERTEX
  8
equipamentos
 10
-9.356020
 20
38.695226
  0
VERTEX
  8
equipamentos
 10
-9.356019
 20
38.695223
  0
VERTEX
  8
equipamentos
 10
-9.356019
 20
38.695221
  0
VERTEX
  8
equipamentos
 10
-9.356018
 20
38.695218
  0
VERTEX
  8
equipamentos
 10
-9.356017
 20
38.695215
  0
VERTEX
  8
equipamentos
 10
-9.356016
 20
38.695212
  0
VERTEX
  8
equipamentos
 10
-9.356015
 20
38.695209
  0
VERTEX
  8
equipamentos
 10
-9.356014
 20
38.695206
  0
VERTEX
  8
equipamentos
 10
-9.356012
 20
38.695197
  0
VERTEX
  8
equipamentos
 10
-9.356011
 20
38.695193
  0
VERTEX
  8
equipamentos
 10
-9.356010
 20
38.695189
  0
VERTEX
  8
equipamentos
 10
-9.356009
 20
38.695185
  0
VERTEX
  8
equipamentos
 10
-9.356008
 20
38.695181
  0
VERTEX
  8
equipamentos
 10
-9.356007
 20
38.695177
  0
VERTEX
  8
equipamentos
 10
-9.356006
 20
38.695173
  0
VERTEX
  8
equipamentos
 10
-9.356006
 20
38.695169
  0
VERTEX
  8
equipamentos
 10
-9.356005
 20
38.695165
  0
VERTEX
  8
equipamentos
 10
-9.356004
 20
38.695161
  0
VERTEX
  8
equipamentos
 10
-9.356004
 20
38.695157
  0
VERTEX
  8
equipamentos
 10
-9.356003
 20
38.695153
  0
VERTEX
  8
equipamentos
 10
-9.356002
 20
38.695149
  0
VERTEX
  8
equipamentos
 10
-9.356002
 20
38.695145
  0
VERTEX
  8
equipamentos
 10
-9.356001
 20
38.695141
  0
VERTEX
  8
equipamentos
 10
-9.356001
 20
38.695137
  0
VERTEX
  8
equipamentos
 10
-9.356001
 20
38.695133
  0
VERTEX
  8
equipamentos
 10
-9.356000
 20
38.695129
  0
VERTEX
  8
equipamentos
 10
-9.356000
 20
38.695125
  0
VERTEX
  8
equipamentos
 10
-9.356000
 20
38.695121
  0
VERTEX
  8
equipamentos
 10
-9.356000
 20
38.695117
  0
VERTEX
  8
equipamentos
 10
-9.356000
 20
38.695113
  0
VERTEX
  8
equipamentos
 10
-9.356000
 20
38.695108
  0
VERTEX
  8
equipamentos
 10
-9.356000
 20
38.695104
  0
VERTEX
  8
equipamentos
 10
-9.356000
 20
38.695100
  0
VERTEX
  8
equipamentos
 10
-9.356000
 20
38.695096
  0
VERTEX
  8
equipamentos
 10
-9.356000
 20
38.695092
  0
VERTEX
  8
equipamentos
 10
-9.356000
 20
38.695088
  0
VERTEX
  8
equipamentos
 10
-9.356000
 20
38.695084
  0
VERTEX
  8
equipamentos
 10
-9.356000
 20
38.695080
  0
VERTEX
  8
equipamentos
 10
-9.356001
 20
38.695069
  0
VERTEX
  8
equipamentos
 10
-9.356002
 20
38.695061
  0
VERTEX
  8
equipamentos
 10
-9.356003
 20
38.695052
  0
VERTEX
  8
equipamentos
 10
-9.356004
 20
38.695043
  0
VERTEX
  8
equipamentos
 10
-9.356005
 20
38.695035
  0
VERTEX
  8
equipamentos
 10
-9.356007
 20
38.695026
  0
VERTEX
  8
equipamentos
 10
-9.356009
 20
38.695018
  0
VERTEX
  8
equipamentos
 10
-9.356011
 20
38.695009
  0
VERTEX
  8
equipamentos
 10
-9.356013
 20
38.695001
  0
VERTEX
  8
equipamentos
 10
-9.356015
 20
38.694992
  0
VERTEX
  8
equipamentos
 10
-9.356018
 20
38.694984
  0
VERTEX
  8
equipamentos
 10
-9.356021
 20
38.694975
  0
VERTEX
  8
equipamentos
 10
-9.356024
 20
38.694967
  0
VERTEX
  8
equipamentos
 10
-9.356027
 20
38.694959
  0
VERTEX
  8
equipamentos
 10
-9.356030
 20
38.694951
  0
VERTEX
  8
equipamentos
 10
-9.356034
 20
38.694942
  0
VERTEX
  8
equipamentos
 10
-9.356038
 20
38.694934
  0
VERTEX
  8
equipamentos
 10
-9.356042
 20
38.694926
  0
VERTEX
  8
equipamentos
 10
-9.356046
 20
38.694918
  0
VERTEX
  8
equipamentos
 10
-9.356051
 20
38.694910
  0
VERTEX
  8
equipamentos
 10
-9.356055
 20
38.694902
  0
VERTEX
  8
equipamentos
 10
-9.356060
 20
38.694894
  0
VERTEX
  8
equipamentos
 10
-9.356065
 20
38.694887
  0
VERTEX
  8
equipamentos
 10
-9.356070
 20
38.694879
  0
VERTEX
  8
equipamentos
 10
-9.356075
 20
38.694871
  0
VERTEX
  8
equipamentos
 10
-9.356081
 20
38.694864
  0
VERTEX
  8
equipamentos
 10
-9.356087
 20
38.694857
  0
VERTEX
  8
equipamentos
 10
-9.356093
 20
38.694849
  0
VERTEX
  8
equipamentos
 10
-9.356099
 20
38.694842
  0
VERTEX
  8
equipamentos
 10
-9.356105
 20
38.694835
  0
VERTEX
  8
equipamentos
 10
-9.356116
 20
38.694823
  0
VERTEX
  8
equipamentos
 10
-9.356121
 20
38.694818
  0
VERTEX
  8
equipamentos
 10
-9.356126
 20
38.694812
  0
VERTEX
  8
equipamentos
 10
-9.356131
 20
38.694807
  0
VERTEX
  8
equipamentos
 10
-9.356136
 20
38.694802
  0
VERTEX
  8
equipamentos
 10
-9.356141
 20
38.694797
  0
VERTEX
  8
equipamentos
 10
-9.356147
 20
38.694792
  0
VERTEX
  8
equipamentos
 10
-9.356153
 20
38.694786
  0
VERTEX
  8
equipamentos
 10
-9.356158
 20
38.694781
  0
VERTEX
  8
equipamentos
 10
-9.356164
 20
38.694777
  0
VERTEX
  8
equipamentos
 10
-9.356170
 20
38.694772
  0
VERTEX
  8
equipamentos
 10
-9.356176
 20
38.694767
  0
VERTEX
  8
equipamentos
 10
-9.356182
 20
38.694762
  0
VERTEX
  8
equipamentos
 10
-9.356188
 20
38.694757
  0
VERTEX
  8
equipamentos
 10
-9.356194
 20
38.694753
  0
VERTEX
  8
equipamentos
 10
-9.356200
 20
38.694748
  0
VERTEX
  8
equipamentos
 10
-9.356207
 20
38.694744
  0
VERTEX
  8
equipamentos
 10
-9.356213
 20
38.694740
  0
VERTEX
  8
equipamentos
 10
-9.356220
 20
38.694735
  0
VERTEX
  8
equipamentos
 10
-9.356226
 20
38.694731
  0
VERTEX
  8
equipamentos
 10
-9.356233
 20
38.694727
  0
VERTEX
  8
equipamentos
 10
-9.356240
 20
38.694723
  0
VERTEX
  8
equipamentos
 10
-9.356247
 20
38.694719
  0
VERTEX
  8
equipamentos
 10
-9.356254
 20
38.694715
  0
VERTEX
  8
equipamentos
 10
-9.356261
 20
38.694711
  0
VERTEX
  8
equipamentos
 10
-9.356268
 20
38.694707
  0
VERTEX
  8
equipamentos
 10
-9.356275
 20
38.694704
  0
VERTEX
  8
equipamentos
 10
-9.356282
 20
38.694700
  0
VERTEX
  8
equipamentos
 10
-9.356289
 20
38.694697
  0
VERTEX
  8
equipamentos
 10
-9.356297
 20
38.694693
  0
VERTEX
  8
equipamentos
 10
-9.356338
 20
38.694674
  0
VERTEX
  8
equipamentos
 10
-9.356342
 20
38.694673
  0
VERTEX
  8
equipamentos
 10
-9.356346
 20
38.694671
  0
VERTEX
  8
equipamentos
 10
-9.356350
 20
38.694669
  0
VERTEX
  8
equipamentos
 10
-9.356355
 20
38.694667
  0
VERTEX
  8
equipamentos
 10
-9.356359
 20
38.694665
  0
VERTEX
  8
equipamentos
 10
-9.356363
 20
38.694664
  0
VERTEX
  8
equipamentos
 10
-9.356367
 20
38.694662
  0
VERTEX
  8
equipamentos
 10
-9.356371
 20
38.694660
  0
VERTEX
  8
equipamentos
 10
-9.356376
 20
38.694659
  0
VERTEX
  8
equipamentos
 10
-9.356380
 20
38.694657
  0
VERTEX
  8
equipamentos
 10
-9.356384
 20
38.694656
  0
VERTEX
  8
equipamentos
 10
-9.356389
 20
38.694654
  0
VERTEX
  8
equipamentos
 10
-9.356393
 20
38.694652
  0
VERTEX
  8
equipamentos
 10
-9.356397
 20
38.694651
  0
VERTEX
  8
equipamentos
 10
-9.356402
 20
38.694649
  0
VERTEX
  8
equipamentos
 10
-9.356406
 20
38.694648
  0
VERTEX
  8
equipamentos
 10
-9.356411
 20
38.694647
  0
VERTEX
  8
equipamentos
 10
-9.356415
 20
38.694645
  0
VERTEX
  8
equipamentos
 10
-9.356419
 20
38.694644
  0
VERTEX
  8
equipamentos
 10
-9.356424
 20
38.694642
  0
VERTEX
  8
equipamentos
 10
-9.356428
 20
38.694641
  0
VERTEX
  8
equipamentos
 10
-9.356433
 20
38.694640
  0
VERTEX
  8
equipamentos
 10
-9.356437
 20
38.694639
  0
VERTEX
  8
equipamentos
 10
-9.356442
 20
38.694637
  0
VERTEX
  8
equipamentos
 10
-9.356446
 20
38.694636
  0
VERTEX
  8
equipamentos
 10
-9.356451
 20
38.694635
  0
VERTEX
  8
equipamentos
 10
-9.356455
 20
38.694634
  0
VERTEX
  8
equipamentos
 10
-9.356460
 20
38.694633
  0
VERTEX
  8
equipamentos
 10
-9.356465
 20
38.694632
  0
VERTEX
  8
equipamentos
 10
-9.356467
 20
38.694631
  0
VERTEX
  8
equipamentos
 10
-9.356470
 20
38.694629
  0
VERTEX
  8
equipamentos
 10
-9.356473
 20
38.694628
  0
VERTEX
  8
equipamentos
 10
-9.356475
 20
38.694627
  0
VERTEX
  8
equipamentos
 10
-9.356478
 20
38.694626
  0
VERTEX
  8
equipamentos
 10
-9.356481
 20
38.694625
  0
VERTEX
  8
equipamentos
 10
-9.356484
 20
38.694624
  0
VERTEX
  8
equipamentos
 10
-9.356487
 20
38.694623
  0
VERTEX
  8
equipamentos
 10
-9.356489
 20
38.694622
  0
VERTEX
  8
equipamentos
 10
-9.356492
 20
38.694621
  0
VERTEX
  8
equipamentos
 10
-9.356495
 20
38.694620
  0
VERTEX
  8
equipamentos
 10
-9.356498
 20
38.694619
  0
VERTEX
  8
equipamentos
 10
-9.356500
 20
38.694618
  0
VERTEX
  8
equipamentos
 10
-9.356503
 20
38.694617
  0
VERTEX
  8
equipamentos
 10
-9.356506
 20
38.694616
  0
VERTEX
  8
equipamentos
 10
-9.356509
 20
38.694615
  0
VERTEX
  8
equipamentos
 10
-9.356512
 20
38.694614
  0
VERTEX
  8
equipamentos
 10
-9.356515
 20
38.694613
  0
VERTEX
  8
equipamentos
 10
-9.356517
 20
38.694612
  0
VERTEX
  8
equipamentos
 10
-9.356520
 20
38.694611
  0
VERTEX
  8
equipamentos
 10
-9.356523
 20
38.694610
  0
VERTEX
  8
equipamentos
 10
-9.356526
 20
38.694609
  0
VERTEX
  8
equipamentos
 10
-9.356529
 20
38.694608
  0
VERTEX
  8
equipamentos
 10
-9.356532
 20
38.694607
  0
VERTEX
  8
equipamentos
 10
-9.356535
 20
38.694606
  0
VERTEX
  8
equipamentos
 10
-9.356538
 20
38.694606
  0
VERTEX
  8
equipamentos
 10
-9.356541
 20
38.694605
  0
VERTEX
  8
equipamentos
 10
-9.356544
 20
38.694604
  0
VERTEX
  8
equipamentos
 10
-9.356546
 20
38.694603
  0
SEQEND
  0
POLYLINE
  8
equipamentos
  6
BYLAYER
 66
1
 70
1
 40
0.000000
 41
0.000000
  0
VERTEX
  8
equipamentos
 10
-9.387220
 20
38.698855
  0
VERTEX
  8
equipamentos
 10
-9.384109
 20
38.699422
  0
VERTEX
  8
equipamentos
 10
-9.383462
 20
38.699251
  0
VERTEX
  8
equipamentos
 10
-9.382908
 20
38.699037
  0
VERTEX
  8
equipamentos
 10
-9.382916
 20
38.698996
  0
VERTEX
  8
equipamentos
 10
-9.382912
 20
38.698425
  0
VERTEX
  8
equipamentos
 10
-9.382900
 20
38.698378
  0
VERTEX
  8
equipamentos
 10
-9.382890
 20
38.698274
  0
VERTEX
  8
equipamentos
 10
-9.382909
 20
38.698192
  0
VERTEX
  8
equipamentos
 10
-9.382962
 20
38.698073
  0
VERTEX
  8
equipamentos
 10
-9.383013
 20
38.697999
  0
VERTEX
  8
equipamentos
 10
-9.382940
 20
38.697915
  0
VERTEX
  8
equipamentos
 10
-9.383073
 20
38.697817
  0
VERTEX
  8
equipamentos
 10
-9.383234
 20
38.697654
  0
VERTEX
  8
equipamentos
 10
-9.383247
 20
38.697672
  0
VERTEX
  8
equipamentos
 10
-9.383297
 20
38.697671
  0
VERTEX
  8
equipamentos
 10
-9.383553
 20
38.697755
  0
VERTEX
  8
equipamentos
 10
-9.383654
 20
38.697754
  0
VERTEX
  8
equipamentos
 10
-9.383649
 20
38.697791
  0
VERTEX
  8
equipamentos
 10
-9.383675
 20
38.697791
  0
VERTEX
  8
equipamentos
 10
-9.383713
 20
38.697802
  0
VERTEX
  8
equipamentos
 10
-9.383725
 20
38.697795
  0
VERTEX
  8
equipamentos
 10
-9.383746
 20
38.697831
  0
VERTEX
  8
equipamentos
 10
-9.383781
 20
38.697852
  0
VERTEX
  8
equipamentos
 10
-9.383801
 20
38.697826
  0
VERTEX
  8
equipamentos
 10
-9.383795
 20
38.697790
  0
VERTEX
  8
equipamentos
 10
-9.383806
 20
38.697776
  0
VERTEX
  8
equipamentos
 10
-9.383836
 20
38.697796
  0
VERTEX
  8
equipamentos
 10
-9.383853
 20
38.697787
  0
VERTEX
  8
equipamentos
 10
-9.383868
 20
38.697787
  0
VERTEX
  8
equipamentos
 10
-9.383874
 20
38.697814
  0
VERTEX
  8
equipamentos
 10
-9.383918
 20
38.697846
  0
VERTEX
  8
equipamentos
 10
-9.383951
 20
38.697834
  0
VERTEX
  8
equipamentos
 10
-9.383920
 20
38.697784
  0
VERTEX
  8
equipamentos
 10
-9.383964
 20
38.697769
  0
VERTEX
  8
equipamentos
 10
-9.384002
 20
38.697764
  0
VERTEX
  8
equipamentos
 10
-9.384017
 20
38.697785
  0
VERTEX
  8
equipamentos
 10
-9.384041
 20
38.697808
  0
VERTEX
  8
equipamentos
 10
-9.384067
 20
38.697816
  0
VERTEX
  8
equipamentos
 10
-9.384077
 20
38.697855
  0
VERTEX
  8
equipamentos
 10
-9.384118
 20
38.697857
  0
VERTEX
  8
equipamentos
 10
-9.384153
 20
38.697871
  0
VERTEX
  8
equipamentos
 10
-9.384154
 20
38.697919
  0
VERTEX
  8
equipamentos
 10
-9.384183
 20
38.697939
  0
VERTEX
  8
equipamentos
 10
-9.384247
 20
38.697934
  0
VERTEX
  8
equipamentos
 10
-9.384307
 20
38.698002
  0
VERTEX
  8
equipamentos
 10
-9.384401
 20
38.698028
  0
VERTEX
  8
equipamentos
 10
-9.384407
 20
38.698049
  0
VERTEX
  8
equipamentos
 10
-9.384396
 20
38.698079
  0
VERTEX
  8
equipamentos
 10
-9.384428
 20
38.698099
  0
VERTEX
  8
equipamentos
 10
-9.384433
 20
38.698051
  0
VERTEX
  8
equipamentos
 10
-9.384468
 20
38.698050
  0
VERTEX
  8
equipamentos
 10
-9.384507
 20
38.698061
  0
VERTEX
  8
equipamentos
 10
-9.384552
 20
38.698148
  0
VERTEX
  8
equipamentos
 10
-9.384589
 20
38.698077
  0
VERTEX
  8
equipamentos
 10
-9.384653
 20
38.698087
  0
VERTEX
  8
equipamentos
 10
-9.384671
 20
38.698126
  0
VERTEX
  8
equipamentos
 10
-9.384725
 20
38.698174
  0
VERTEX
  8
equipamentos
 10
-9.384714
 20
38.698206
  0
VERTEX
  8
equipamentos
 10
-9.384769
 20
38.698214
  0
VERTEX
  8
equipamentos
 10
-9.384805
 20
38.698253
  0
VERTEX
  8
equipamentos
 10
-9.384834
 20
38.698257
  0
VERTEX
  8
equipamentos
 10
-9.384866
 20
38.698236
  0
VERTEX
  8
equipamentos
 10
-9.384913
 20
38.698215
  0
VERTEX
  8
equipamentos
 10
-9.384945
 20
38.698235
  0
VERTEX
  8
equipamentos
 10
-9.384951
 20
38.698253
  0
VERTEX
  8
equipamentos
 10
-9.384922
 20
38.698261
  0
VERTEX
  8
equipamentos
 10
-9.384893
 20
38.698256
  0
VERTEX
  8
equipamentos
 10
-9.384878
 20
38.698257
  0
VERTEX
  8
equipamentos
 10
-9.384876
 20
38.698270
  0
VERTEX
  8
equipamentos
 10
-9.384917
 20
38.698316
  0
VERTEX
  8
equipamentos
 10
-9.385012
 20
38.698404
  0
VERTEX
  8
equipamentos
 10
-9.385145
 20
38.698455
  0
VERTEX
  8
equipamentos
 10
-9.385348
 20
38.698552
  0
VERTEX
  8
equipamentos
 10
-9.385603
 20
38.698622
  0
VERTEX
  8
equipamentos
 10
-9.386043
 20
38.698734
  0
VERTEX
  8
equipamentos
 10
-9.387004
 20
38.698825
  0
VERTEX
  8
equipamentos
 10
-9.387077
 20
38.698867
  0
VERTEX
  8
equipamentos
 10
-9.387155
 20
38.698782
  0
VERTEX
  8
equipamentos
 10
-9.387205
 20
38.698816
  0
VERTEX
  8
equipamentos
 10
-9.387220
 20
38.698855
  0
SEQEND
  0
POLYLINE
  8
equipamentos
  6
BYLAYER
 66
1
 70
1
 40
0.000000
 41
0.000000
  0
VERTEX
  8
equipamentos
 10
-9.326824
 20
38.675399
  0
VERTEX
  8
equipamentos
 10
-9.326769
 20
38.672099
  0
VERTEX
  8
equipamentos
 10
-9.326887
 20
38.672187
  0
VERTEX
  8
equipamentos
 10
-9.326998
 20
38.672280
  0
VERTEX
  8
equipamentos
 10
-9.327102
 20
38.672379
  0
VERTEX
  8
equipamentos
 10
-9.327199
 20
38.672481
  0
VERTEX
  8
equipamentos
 10
-9.327289
 20
38.672588
  0
VERTEX
  8
equipamentos
 10
-9.327370
 20
38.672699
  0
VERTEX
  8
equipamentos
 10
-9.327443
 20
38.672813
  0
VERTEX
  8
equipamentos
 10
-9.327508
 20
38.672930
  0
VERTEX
  8
equipamentos
 10
-9.327565
 20
38.673050
  0
VERTEX
  8
equipamentos
 10
-9.327612
 20
38.673172
  0
VERTEX
  8
equipamentos
 10
-9.327651
 20
38.673296
  0
VERTEX
  8
equipamentos
 10
-9.327681
 20
38.673422
  0
VERTEX
  8
equipamentos
 10
-9.327701
 20
38.673548
  0
VERTEX
  8
equipamentos
 10
-9.327713
 20
38.673676
  0
VERTEX
  8
equipamentos
 10
-9.327715
 20
38.673804
  0
VERTEX
  8
equipamentos
 10
-9.327708
 20
38.673931
  0
VERTEX
  8
equipamentos
 10
-9.327691
 20
38.674058
  0
VERTEX
  8
equipamentos
 10
-9.327666
 20
38.674185
  0
VERTEX
  8
equipamentos
 10
-9.327631
 20
38.674309
  0
VERTEX
  8
equipamentos
 10
-9.327588
 20
38.674432
  0
VERTEX
  8
equipamentos
 10
-9.327535
 20
38.674553
  0
VERTEX
  8
equipamentos
 10
-9.327474
 20
38.674672
  0
VERTEX
  8
equipamentos
 10
-9.327405
 20
38.674787
  0
VERTEX
  8
equipamentos
 10
-9.327327
 20
38.674900
  0
VERTEX
  8
equipamentos
 10
-9.327241
 20
38.675008
  0
VERTEX
  8
equipamentos
 10
-9.327148
 20
38.675113
  0
VERTEX
  8
equipamentos
 10
-9.327047
 20
38.675213
  0
VERTEX
  8
equipamentos
 10
-9.326939
 20
38.675309
  0
VERTEX
  8
equipamentos
 10
-9.326824
 20
38.675399
  0
SEQEND
  0
POLYLINE
  8
equipamentos
  6
BYLAYER
 66
1
 70
1
 40
0.000000
 41
0.000000
  0
VERTEX
  8
equipamentos
 10
-9.342997
 20
38.681623
  0
VERTEX
  8
equipamentos
 10
-9.327003
 20
38.689082
  0
VERTEX
  8
equipamentos
 10
-9.326942
 20
38.688918
  0
VERTEX
  8
equipamentos
 10
-9.326782
 20
38.688604
  0
VERTEX
  8
equipamentos
 10
-9.326668
 20
38.688377
  0
VERTEX
  8
equipamentos
 10
-9.326697
 20
38.688374
  0
VERTEX
  8
equipamentos
 10
-9.326613
 20
38.688167
  0
VERTEX
  8
equipamentos
 10
-9.325298
 20
38.688198
  0
VERTEX
  8
equipamentos
 10
-9.325149
 20
38.687783
  0
VERTEX
  8
equipamentos
 10
-9.325041
 20
38.687428
  0
VERTEX
  8
equipamentos
 10
-9.324980
 20
38.687203
  0
VERTEX
  8
equipamentos
 10
-9.324886
 20
38.686850
  0
VERTEX
  8
equipamentos
 10
-9.324747
 20
38.686341
  0
VERTEX
  8
equipamentos
 10
-9.324692
 20
38.686163
  0
VERTEX
  8
equipamentos
 10
-9.324657
 20
38.685945
  0
VERTEX
  8
equipamentos
 10
-9.324592
 20
38.685621
  0
VERTEX
  8
equipamentos
 10
-9.324553
 20
38.685321
  0
VERTEX
  8
equipamentos
 10
-9.324513
 20
38.685007
  0
VERTEX
  8
equipamentos
 10
-9.324455
 20
38.684649
  0
VERTEX
  8
equipamentos
 10
-9.324471
 20
38.684442
  0
VERTEX
  8
equipamentos
 10
-9.324482
 20
38.684241
  0
VERTEX
  8
equipamentos
 10
-9.324485
 20
38.683949
  0
VERTEX
  8
equipamentos
 10
-9.324480
 20
38.683671
  0
VERTEX
  8
equipamentos
 10
-9.324469
 20
38.683571
  0
VERTEX
  8
equipamentos
 10
-9.324327
 20
38.683591
  0
VERTEX
  8
equipamentos
 10
-9.324398
 20
38.683282
  0
VERTEX
  8
equipamentos
 10
-9.324419
 20
38.683168
  0
VERTEX
  8
equipamentos
 10
-9.324453
 20
38.683076
  0
VERTEX
  8
equipamentos
 10
-9.324491
 20
38.682995
  0
VERTEX
  8
equipamentos
 10
-9.324512
 20
38.682899
  0
VERTEX
  8
equipamentos
 10
-9.324536
 20
38.682773
  0
VERTEX
  8
equipamentos
 10
-9.324546
 20
38.682637
  0
VERTEX
  8
equipamentos
 10
-9.324536
 20
38.682498
  0
VERTEX
  8
equipamentos
 10
-9.324489
 20
38.682403
  0
VERTEX
  8
equipamentos
 10
-9.324412
 20
38.682279
  0
VERTEX
  8
equipamentos
 10
-9.324310
 20
38.682174
  0
VERTEX
  8
equipamentos
 10
-9.324177
 20
38.682072
  0
VERTEX
  8
equipamentos
 10
-9.324019
 20
38.681993
  0
VERTEX
  8
equipamentos
 10
-9.323836
 20
38.681925
  0
VERTEX
  8
equipamentos
 10
-9.323672
 20
38.681865
  0
VERTEX
  8
equipamentos
 10
-9.323561
 20
38.681816
  0
VERTEX
  8
equipamentos
 10
-9.323435
 20
38.681736
  0
VERTEX
  8
equipamentos
 10
-9.323370
 20
38.681678
  0
VERTEX
  8
equipamentos
 10
-9.323290
 20
38.681610
  0
VERTEX
  8
equipamentos
 10
-9.323239
 20
38.681540
  0
VERTEX
  8
equipamentos
 10
-9.323172
 20
38.681379
  0
VERTEX
  8
equipamentos
 10
-9.323138
 20
38.681235
  0
VERTEX
  8
equipamentos
 10
-9.323168
 20
38.681077
  0
VERTEX
  8
equipamentos
 10
-9.323198
 20
38.680961
  0
VERTEX
  8
equipamentos
 10
-9.323287
 20
38.680751
  0
VERTEX
  8
equipamentos
 10
-9.323412
 20
38.680451
  0
VERTEX
  8
equipamentos
 10
-9.323432
 20
38.680395
  0
VERTEX
  8
equipamentos
 10
-9.323618
 20
38.679704
  0
VERTEX
  8
equipamentos
 10
-9.323662
 20
38.679708
  0
VERTEX
  8
equipamentos
 10
-9.323730
 20
38.679715
  0
VERTEX
  8
equipamentos
 10
-9.323794
 20
38.679726
  0
VERTEX
  8
equipamentos
 10
-9.323831
 20
38.679731
  0
VERTEX
  8
equipamentos
 10
-9.323876
 20
38.679629
  0
VERTEX
  8
equipamentos
 10
-9.323911
 20
38.679501
  0
VERTEX
  8
equipamentos
 10
-9.324019
 20
38.679241
  0
VERTEX
  8
equipamentos
 10
-9.324075
 20
38.679112
  0
VERTEX
  8
equipamentos
 10
-9.324176
 20
38.678837
  0
VERTEX
  8
equipamentos
 10
-9.324255
 20
38.678640
  0
VERTEX
  8
equipamentos
 10
-9.324315
 20
38.678474
  0
VERTEX
  8
equipamentos
 10
-9.324421
 20
38.678273
  0
VERTEX
  8
equipamentos
 10
-9.324486
 20
38.678124
  0
VERTEX
  8
equipamentos
 10
-9.324555
 20
38.677924
  0
VERTEX
  8
equipamentos
 10
-9.324637
 20
38.677697
  0
VERTEX
  8
equipamentos
 10
-9.324720
 20
38.677468
  0
VERTEX
  8
equipamentos
 10
-9.324828
 20
38.677179
  0
VERTEX
  8
equipamentos
 10
-9.324838
 20
38.677080
  0
VERTEX
  8
equipamentos
 10
-9.325431
 20
38.677087
  0
VERTEX
  8
equipamentos
 10
-9.325857
 20
38.677083
  0
VERTEX
  8
equipamentos
 10
-9.326444
 20
38.677084
  0
VERTEX
  8
equipamentos
 10
-9.326532
 20
38.676834
  0
VERTEX
  8
equipamentos
 10
-9.326630
 20
38.676557
  0
VERTEX
  8
equipamentos
 10
-9.326797
 20
38.676067
  0
VERTEX
  8
equipamentos
 10
-9.326833
 20
38.675962
  0
VERTEX
  8
equipamentos
 10
-9.326915
 20
38.675989
  0
VERTEX
  8
equipamentos
 10
-9.326927
 20
38.676023
  0
VERTEX
  8
equipamentos
 10
-9.326966
 20
38.676031
  0
VERTEX
  8
equipamentos
 10
-9.327026
 20
38.676035
  0
VERTEX
  8
equipamentos
 10
-9.327076
 20
38.676039
  0
VERTEX
  8
equipamentos
 10
-9.327169
 20
38.676016
  0
VERTEX
  8
equipamentos
 10
-9.327273
 20
38.675959
  0
VERTEX
  8
equipamentos
 10
-9.327349
 20
38.675911
  0
VERTEX
  8
equipamentos
 10
-9.327425
 20
38.675884
  0
VERTEX
  8
equipamentos
 10
-9.327453
 20
38.675901
  0
VERTEX
  8
equipamentos
 10
-9.327454
 20
38.675953
  0
VERTEX
  8
equipamentos
 10
-9.327373
 20
38.676049
  0
VERTEX
  8
equipamentos
 10
-9.327374
 20
38.676109
  0
VERTEX
  8
equipamentos
 10
-9.327469
 20
38.676168
  0
VERTEX
  8
equipamentos
 10
-9.327612
 20
38.676214
  0
VERTEX
  8
equipamentos
 10
-9.327755
 20
38.676196
  0
VERTEX
  8
equipamentos
 10
-9.327793
 20
38.676152
  0
VERTEX
  8
equipamentos
 10
-9.327797
 20
38.676087
  0
VERTEX
  8
equipamentos
 10
-9.327835
 20
38.676044
  0
VERTEX
  8
equipamentos
 10
-9.327834
 20
38.676009
  0
VERTEX
  8
equipamentos
 10
-9.327845
 20
38.675988
  0
VERTEX
  8
equipamentos
 10
-9.327900
 20
38.675987
  0
VERTEX
  8
equipamentos
 10
-9.328049
 20
38.676033
  0
VERTEX
  8
equipamentos
 10
-9.328051
 20
38.676085
  0
VERTEX
  8
equipamentos
 10
-9.328053
 20
38.676123
  0
VERTEX
  8
equipamentos
 10
-9.328063
 20
38.676197
  0
VERTEX
  8
equipamentos
 10
-9.328092
 20
38.676265
  0
VERTEX
  8
equipamentos
 10
-9.328153
 20
38.676299
  0
VERTEX
  8
equipamentos
 10
-9.328280
 20
38.676337
  0
VERTEX
  8
equipamentos
 10
-9.328368
 20
38.676359
  0
VERTEX
  8
equipamentos
 10
-9.328395
 20
38.676358
  0
VERTEX
  8
equipamentos
 10
-9.328413
 20
38.676349
  0
VERTEX
  8
equipamentos
 10
-9.328435
 20
38.676341
  0
VERTEX
  8
equipamentos
 10
-9.328463
 20
38.676344
  0
VERTEX
  8
equipamentos
 10
-9.328477
 20
38.676354
  0
VERTEX
  8
equipamentos
 10
-9.328493
 20
38.676361
  0
VERTEX
  8
equipamentos
 10
-9.328515
 20
38.676363
  0
VERTEX
  8
equipamentos
 10
-9.328534
 20
38.676352
  0
VERTEX
  8
equipamentos
 10
-9.328543
 20
38.676335
  0
VERTEX
  8
equipamentos
 10
-9.328573
 20
38.676285
  0
VERTEX
  8
equipamentos
 10
-9.328596
 20
38.676249
  0
VERTEX
  8
equipamentos
 10
-9.328634
 20
38.676221
  0
VERTEX
  8
equipamentos
 10
-9.328672
 20
38.676217
  0
VERTEX
  8
equipamentos
 10
-9.328705
 20
38.676228
  0
VERTEX
  8
equipamentos
 10
-9.328743
 20
38.676250
  0
VERTEX
  8
equipamentos
 10
-9.328792
 20
38.676299
  0
VERTEX
  8
equipamentos
 10
-9.328823
 20
38.676330
  0
VERTEX
  8
equipamentos
 10
-9.328848
 20
38.676352
  0
VERTEX
  8
equipamentos
 10
-9.328890
 20
38.676373
  0
VERTEX
  8
equipamentos
 10
-9.328927
 20
38.676393
  0
VERTEX
  8
equipamentos
 10
-9.328945
 20
38.676408
  0
VERTEX
  8
equipamentos
 10
-9.328960
 20
38.676458
  0
VERTEX
  8
equipamentos
 10
-9.328955
 20
38.676508
  0
VERTEX
  8
equipamentos
 10
-9.328956
 20
38.676536
  0
VERTEX
  8
equipamentos
 10
-9.328951
 20
38.676556
  0
VERTEX
  8
equipamentos
 10
-9.328939
 20
38.676597
  0
VERTEX
  8
equipamentos
 10
-9.328935
 20
38.676634
  0
VERTEX
  8
equipamentos
 10
-9.328945
 20
38.676665
  0
VERTEX
  8
equipamentos
 10
-9.328972
 20
38.676687
  0
VERTEX
  8
equipamentos
 10
-9.329027
 20
38.676705
  0
VERTEX
  8
equipamentos
 10
-9.329081
 20
38.676728
  0
VERTEX
  8
equipamentos
 10
-9.329138
 20
38.676757
  0
VERTEX
  8
equipamentos
 10
-9.329173
 20
38.676781
  0
VERTEX
  8
equipamentos
 10
-9.329213
 20
38.676792
  0
VERTEX
  8
equipamentos
 10
-9.329242
 20
38.676796
  0
VERTEX
  8
equipamentos
 10
-9.329268
 20
38.676788
  0
VERTEX
  8
equipamentos
 10
-9.329299
 20
38.676767
  0
VERTEX
  8
equipamentos
 10
-9.329403
 20
38.676640
  0
VERTEX
  8
equipamentos
 10
-9.329442
 20
38.676614
  0
VERTEX
  8
equipamentos
 10
-9.329483
 20
38.676604
  0
VERTEX
  8
equipamentos
 10
-9.329549
 20
38.676604
  0
VERTEX
  8
equipamentos
 10
-9.329575
 20
38.676621
  0
VERTEX
  8
equipamentos
 10
-9.329596
 20
38.676651
  0
VERTEX
  8
equipamentos
 10
-9.329594
 20
38.676677
  0
VERTEX
  8
equipamentos
 10
-9.329597
 20
38.676719
  0
VERTEX
  8
equipamentos
 10
-9.329596
 20
38.676774
  0
VERTEX
  8
equipamentos
 10
-9.329598
 20
38.676798
  0
VERTEX
  8
equipamentos
 10
-9.329613
 20
38.676834
  0
VERTEX
  8
equipamentos
 10
-9.329630
 20
38.676889
  0
VERTEX
  8
equipamentos
 10
-9.329654
 20
38.676922
  0
VERTEX
  8
equipamentos
 10
-9.329680
 20
38.676946
  0
VERTEX
  8
equipamentos
 10
-9.329704
 20
38.676963
  0
VERTEX
  8
equipamentos
 10
-9.329729
 20
38.676964
  0
VERTEX
  8
equipamentos
 10
-9.329772
 20
38.676963
  0
VERTEX
  8
equipamentos
 10
-9.329807
 20
38.676970
  0
VERTEX
  8
equipamentos
 10
-9.329848
 20
38.676992
  0
VERTEX
  8
equipamentos
 10
-9.329870
 20
38.677010
  0
VERTEX
  8
equipamentos
 10
-9.329895
 20
38.677024
  0
VERTEX
  8
equipamentos
 10
-9.329921
 20
38.677034
  0
VERTEX
  8
equipamentos
 10
-9.329949
 20
38.677057
  0
VERTEX
  8
equipamentos
 10
-9.329967
 20
38.677084
  0
VERTEX
  8
equipamentos
 10
-9.329980
 20
38.677106
  0
VERTEX
  8
equipamentos
 10
-9.330012
 20
38.677152
  0
VERTEX
  8
equipamentos
 10
-9.330043
 20
38.677184
  0
VERTEX
  8
equipamentos
 10
-9.330077
 20
38.677217
  0
VERTEX
  8
equipamentos
 10
-9.330127
 20
38.677236
  0
VERTEX
  8
equipamentos
 10
-9.330184
 20
38.677259
  0
VERTEX
  8
equipamentos
 10
-9.330253
 20
38.677279
  0
VERTEX
  8
equipamentos
 10
-9.330296
 20
38.677294
  0
VERTEX
  8
equipamentos
 10
-9.330403
 20
38.677336
  0
VERTEX
  8
equipamentos
 10
-9.330448
 20
38.677362
  0
VERTEX
  8
equipamentos
 10
-9.330516
 20
38.677383
  0
VERTEX
  8
equipamentos
 10
-9.330563
 20
38.677404
  0
VERTEX
  8
equipamentos
 10
-9.330568
 20
38.677422
  0
VERTEX
  8
equipamentos
 10
-9.330552
 20
38.677441
  0
VERTEX
  8
equipamentos
 10
-9.330529
 20
38.677473
  0
VERTEX
  8
equipamentos
 10
-9.330535
 20
38.677498
  0
VERTEX
  8
equipamentos
 10
-9.330555
 20
38.677522
  0
VERTEX
  8
equipamentos
 10
-9.330583
 20
38.677548
  0
VERTEX
  8
equipamentos
 10
-9.330621
 20
38.677580
  0
VERTEX
  8
equipamentos
 10
-9.330680
 20
38.677611
  0
VERTEX
  8
equipamentos
 10
-9.330751
 20
38.677654
  0
VERTEX
  8
equipamentos
 10
-9.330791
 20
38.677674
  0
VERTEX
  8
equipamentos
 10
-9.330843
 20
38.677690
  0
VERTEX
  8
equipamentos
 10
-9.330888
 20
38.677699
  0
VERTEX
  8
equipamentos
 10
-9.330964
 20
38.677701
  0
VERTEX
  8
equipamentos
 10
-9.331014
 20
38.677697
  0
VERTEX
  8
equipamentos
 10
-9.331056
 20
38.677705
  0
VERTEX
  8
equipamentos
 10
-9.331112
 20
38.677718
  0
VERTEX
  8
equipamentos
 10
-9.331169
 20
38.677732
  0
VERTEX
  8
equipamentos
 10
-9.331266
 20
38.677744
  0
VERTEX
  8
equipamentos
 10
-9.331319
 20
38.677761
  0
VERTEX
  8
equipamentos
 10
-9.331405
 20
38.677798
  0
VERTEX
  8
equipamentos
 10
-9.331441
 20
38.677809
  0
VERTEX
  8
equipamentos
 10
-9.331541
 20
38.677846
  0
VERTEX
  8
equipamentos
 10
-9.331650
 20
38.677901
  0
VERTEX
  8
equipamentos
 10
-9.331846
 20
38.678008
  0
VERTEX
  8
equipamentos
 10
-9.332082
 20
38.678159
  0
VERTEX
  8
equipamentos
 10
-9.332159
 20
38.678187
  0
VERTEX
  8
equipamentos
 10
-9.332212
 20
38.678222
  0
VERTEX
  8
equipamentos
 10
-9.332445
 20
38.678421
  0
VERTEX
  8
equipamentos
 10
-9.332692
 20
38.678537
  0
VERTEX
  8
equipamentos
 10
-9.332852
 20
38.678587
  0
VERTEX
  8
equipamentos
 10
-9.333164
 20
38.678652
  0
VERTEX
  8
equipamentos
 10
-9.333357
 20
38.678762
  0
VERTEX
  8
equipamentos
 10
-9.333542
 20
38.678797
  0
VERTEX
  8
equipamentos
 10
-9.333683
 20
38.678829
  0
VERTEX
  8
equipamentos
 10
-9.333813
 20
38.678824
  0
VERTEX
  8
equipamentos
 10
-9.333923
 20
38.678812
  0
VERTEX
  8
equipamentos
 10
-9.334064
 20
38.678808
  0
VERTEX
  8
equipamentos
 10
-9.334239
 20
38.678866
  0
VERTEX
  8
equipamentos
 10
-9.334322
 20
38.678977
  0
VERTEX
  8
equipamentos
 10
-9.334397
 20
38.679014
  0
VERTEX
  8
equipamentos
 10
-9.334460
 20
38.679062
  0
VERTEX
  8
equipamentos
 10
-9.334503
 20
38.679139
  0
VERTEX
  8
equipamentos
 10
-9.334704
 20
38.679217
  0
VERTEX
  8
equipamentos
 10
-9.334834
 20
38.679268
  0
VERTEX
  8
equipamentos
 10
-9.335067
 20
38.679455
  0
VERTEX
  8
equipamentos
 10
-9.335221
 20
38.679508
  0
VERTEX
  8
equipamentos
 10
-9.335713
 20
38.679693
  0
VERTEX
  8
equipamentos
 10
-9.336284
 20
38.679814
  0
VERTEX
  8
equipamentos
 10
-9.336361
 20
38.679861
  0
VERTEX
  8
equipamentos
 10
-9.336562
 20
38.679904
  0
VERTEX
  8
equipamentos
 10
-9.336933
 20
38.680031
  0
VERTEX
  8
equipamentos
 10
-9.337081
 20
38.680057
  0
VERTEX
  8
equipamentos
 10
-9.337262
 20
38.680080
  0
VERTEX
  8
equipamentos
 10
-9.337470
 20
38.680138
  0
VERTEX
  8
equipamentos
 10
-9.337751
 20
38.680251
  0
VERTEX
  8
equipamentos
 10
-9.337885
 20
38.680296
  0
VERTEX
  8
equipamentos
 10
-9.338233
 20
38.680423
  0
VERTEX
  8
equipamentos
 10
-9.338592
 20
38.680524
  0
VERTEX
  8
equipamentos
 10
-9.338722
 20
38.680575
  0
VERTEX
  8
equipamentos
 10
-9.338937
 20
38.680636
  0
VERTEX
  8
equipamentos
 10
-9.339111
 20
38.680660
  0
VERTEX
  8
equipamentos
 10
-9.339358
 20
38.680731
  0
VERTEX
  8
equipamentos
 10
-9.339467
 20
38.680772
  0
VERTEX
  8
equipamentos
 10
-9.339752
 20
38.680854
  0
VERTEX
  8
equipamentos
 10
-9.339991
 20
38.680907
  0
VERTEX
  8
equipamentos
 10
-9.340563
 20
38.681084
  0
VERTEX
  8
equipamentos
 10
-9.340919
 20
38.681248
  0
VERTEX
  8
equipamentos
 10
-9.341039
 20
38.681305
  0
VERTEX
  8
equipamentos
 10
-9.341084
 20
38.681344
  0
VERTEX
  8
equipamentos
 10
-9.341229
 20
38.681353
  0
VERTEX
  8
equipamentos
 10
-9.341297
 20
38.681391
  0
VERTEX
  8
equipamentos
 10
-9.341346
 20
38.681444
  0
VERTEX
  8
equipamentos
 10
-9.341411
 20
38.681456
  0
VERTEX
  8
equipamentos
 10
-9.341535
 20
38.681453
  0
VERTEX
  8
equipamentos
 10
-9.341612
 20
38.681490
  0
VERTEX
  8
equipamentos
 10
-9.341684
 20
38.681544
  0
VERTEX
  8
equipamentos
 10
-9.341751
 20
38.681520
  0
VERTEX
  8
equipamentos
 10
-9.341774
 20
38.681500
  0
VERTEX
  8
equipamentos
 10
-9.341943
 20
38.681561
  0
VERTEX
  8
equipamentos
 10
-9.342108
 20
38.681539
  0
VERTEX
  8
equipamentos
 10
-9.342182
 20
38.681531
  0
VERTEX
  8
equipamentos
 10
-9.342515
 20
38.681568
  0
VERTEX
  8
equipamentos
 10
-9.342646
 20
38.681574
  0
VERTEX
  8
equipamentos
 10
-9.342786
 20
38.681679
  0
VERTEX
  8
equipamentos
 10
-9.342847
 20
38.681627
  0
VERTEX
  8
equipamentos
 10
-9.342965
 20
38.681619
  0
VERTEX
  8
equipamentos
 10
-9.342997
 20
38.681623
  0
SEQEND
  0
POLYLINE
  8
equipamentos
  6
BYLAYER
 66
1
 70
1
 40
0.000000
 41
0.000000
  0
VERTEX
  8
equipamentos
 10
-9.464826
 20
38.709700
  0
VERTEX
  8
equipamentos
 10
-9.448872
 20
38.695231
  0
VERTEX
  8
equipamentos
 10
-9.449032
 20
38.695190
  0
VERTEX
  8
equipamentos
 10
-9.449408
 20
38.695267
  0
VERTEX
  8
equipamentos
 10
-9.449623
 20
38.695213
  0
VERTEX
  8
equipamentos
 10
-9.449943
 20
38.695222
  0
VERTEX
  8
equipamentos
 10
-9.450188
 20
38.695203
  0
VERTEX
  8
equipamentos
 10
-9.450323
 20
38.695088
  0
VERTEX
  8
equipamentos
 10
-9.450459
 20
38.695018
  0
VERTEX
  8
equipamentos
 10
-9.450664
 20
38.694840
  0
VERTEX
  8
equipamentos
 10
-9.450740
 20
38.694897
  0
VERTEX
  8
equipamentos
 10
-9.450838
 20
38.694854
  0
VERTEX
  8
equipamentos
 10
-9.450985
 20
38.694914
  0
VERTEX
  8
equipamentos
 10
-9.451085
 20
38.694913
  0
VERTEX
  8
equipamentos
 10
-9.451362
 20
38.695082
  0
VERTEX
  8
equipamentos
 10
-9.451409
 20
38.695111
  0
VERTEX
  8
equipamentos
 10
-9.451445
 20
38.695072
  0
VERTEX
  8
equipamentos
 10
-9.451516
 20
38.695084
  0
VERTEX
  8
equipamentos
 10
-9.451582
 20
38.695064
  0
VERTEX
  8
equipamentos
 10
-9.451648
 20
38.695004
  0
VERTEX
  8
equipamentos
 10
-9.451702
 20
38.694987
  0
VERTEX
  8
equipamentos
 10
-9.451788
 20
38.694941
  0
VERTEX
  8
equipamentos
 10
-9.451762
 20
38.694869
  0
VERTEX
  8
equipamentos
 10
-9.451832
 20
38.694830
  0
VERTEX
  8
equipamentos
 10
-9.451939
 20
38.694802
  0
VERTEX
  8
equipamentos
 10
-9.451995
 20
38.694909
  0
VERTEX
  8
equipamentos
 10
-9.452106
 20
38.694856
  0
VERTEX
  8
equipamentos
 10
-9.452391
 20
38.694726
  0
VERTEX
  8
equipamentos
 10
-9.452617
 20
38.694788
  0
VERTEX
  8
equipamentos
 10
-9.452626
 20
38.694843
  0
VERTEX
  8
equipamentos
 10
-9.452547
 20
38.694854
  0
VERTEX
  8
equipamentos
 10
-9.452615
 20
38.694935
  0
VERTEX
  8
equipamentos
 10
-9.453014
 20
38.694937
  0
VERTEX
  8
equipamentos
 10
-9.453111
 20
38.694981
  0
VERTEX
  8
equipamentos
 10
-9.453231
 20
38.694970
  0
VERTEX
  8
equipamentos
 10
-9.453328
 20
38.695021
  0
VERTEX
  8
equipamentos
 10
-9.453411
 20
38.695020
  0
VERTEX
  8
equipamentos
 10
-9.453430
 20
38.694955
  0
VERTEX
  8
equipamentos
 10
-9.453567
 20
38.694950
  0
VERTEX
  8
equipamentos
 10
-9.453504
 20
38.694869
  0
VERTEX
  8
equipamentos
 10
-9.453572
 20
38.694777
  0
VERTEX
  8
equipamentos
 10
-9.453622
 20
38.694744
  0
VERTEX
  8
equipamentos
 10
-9.453676
 20
38.694763
  0
VERTEX
  8
equipamentos
 10
-9.453673
 20
38.694819
  0
VERTEX
  8
equipamentos
 10
-9.453728
 20
38.694857
  0
VERTEX
  8
equipamentos
 10
-9.453794
 20
38.694833
  0
VERTEX
  8
equipamentos
 10
-9.453659
 20
38.694737
  0
VERTEX
  8
equipamentos
 10
-9.453579
 20
38.694657
  0
VERTEX
  8
equipamentos
 10
-9.453552
 20
38.694563
  0
VERTEX
  8
equipamentos
 10
-9.453568
 20
38.694549
  0
VERTEX
  8
equipamentos
 10
-9.453636
 20
38.694594
  0
VERTEX
  8
equipamentos
 10
-9.453641
 20
38.694662
  0
VERTEX
  8
equipamentos
 10
-9.453717
 20
38.694711
  0
VERTEX
  8
equipamentos
 10
-9.453898
 20
38.694849
  0
VERTEX
  8
equipamentos
 10
-9.453944
 20
38.694884
  0
VERTEX
  8
equipamentos
 10
-9.453981
 20
38.694835
  0
VERTEX
  8
equipamentos
 10
-9.454014
 20
38.694808
  0
VERTEX
  8
equipamentos
 10
-9.454013
 20
38.694753
  0
VERTEX
  8
equipamentos
 10
-9.454095
 20
38.694713
  0
VERTEX
  8
equipamentos
 10
-9.454078
 20
38.694690
  0
VERTEX
  8
equipamentos
 10
-9.454144
 20
38.694657
  0
VERTEX
  8
equipamentos
 10
-9.454236
 20
38.694708
  0
VERTEX
  8
equipamentos
 10
-9.454179
 20
38.694770
  0
VERTEX
  8
equipamentos
 10
-9.454230
 20
38.694809
  0
VERTEX
  8
equipamentos
 10
-9.454267
 20
38.694799
  0
VERTEX
  8
equipamentos
 10
-9.454313
 20
38.694821
  0
VERTEX
  8
equipamentos
 10
-9.454330
 20
38.694818
  0
VERTEX
  8
equipamentos
 10
-9.454396
 20
38.694827
  0
VERTEX
  8
equipamentos
 10
-9.454520
 20
38.694776
  0
VERTEX
  8
equipamentos
 10
-9.454557
 20
38.694740
  0
VERTEX
  8
equipamentos
 10
-9.454628
 20
38.694775
  0
VERTEX
  8
equipamentos
 10
-9.454580
 20
38.694864
  0
VERTEX
  8
equipamentos
 10
-9.454667
 20
38.694850
  0
VERTEX
  8
equipamentos
 10
-9.454681
 20
38.694937
  0
VERTEX
  8
equipamentos
 10
-9.454781
 20
38.694930
  0
VERTEX
  8
equipamentos
 10
-9.454792
 20
38.694845
  0
VERTEX
  8
equipamentos
 10
-9.454853
 20
38.694779
  0
VERTEX
  8
equipamentos
 10
-9.454943
 20
38.694710
  0
VERTEX
  8
equipamentos
 10
-9.455196
 20
38.694658
  0
VERTEX
  8
equipamentos
 10
-9.455318
 20
38.694744
  0
VERTEX
  8
equipamentos
 10
-9.455593
 20
38.695025
  0
VERTEX
  8
equipamentos
 10
-9.455664
 20
38.695018
  0
VERTEX
  8
equipamentos
 10
-9.455691
 20
38.694920
  0
VERTEX
  8
equipamentos
 10
-9.455778
 20
38.694883
  0
VERTEX
  8
equipamentos
 10
-9.455832
 20
38.694924
  0
VERTEX
  8
equipamentos
 10
-9.455877
 20
38.694865
  0
VERTEX
  8
equipamentos
 10
-9.455960
 20
38.694855
  0
VERTEX
  8
equipamentos
 10
-9.455991
 20
38.694939
  0
VERTEX
  8
equipamentos
 10
-9.456061
 20
38.694932
  0
VERTEX
  8
equipamentos
 10
-9.456347
 20
38.695108
  0
VERTEX
  8
equipamentos
 10
-9.456400
 20
38.695061
  0
VERTEX
  8
equipamentos
 10
-9.456274
 20
38.694955
  0
VERTEX
  8
equipamentos
 10
-9.456165
 20
38.694921
  0
VERTEX
  8
equipamentos
 10
-9.456139
 20
38.694866
  0
VERTEX
  8
equipamentos
 10
-9.456138
 20
38.694800
  0
VERTEX
  8
equipamentos
 10
-9.456216
 20
38.694760
  0
VERTEX
  8
equipamentos
 10
-9.456267
 20
38.694835
  0
VERTEX
  8
equipamentos
 10
-9.456466
 20
38.694794
  0
VERTEX
  8
equipamentos
 10
-9.456562
 20
38.694825
  0
VERTEX
  8
equipamentos
 10
-9.456577
 20
38.694958
  0
VERTEX
  8
equipamentos
 10
-9.456606
 20
38.694958
  0
VERTEX
  8
equipamentos
 10
-9.456592
 20
38.694834
  0
VERTEX
  8
equipamentos
 10
-9.456624
 20
38.694766
  0
VERTEX
  8
equipamentos
 10
-9.456640
 20
38.694739
  0
VERTEX
  8
equipamentos
 10
-9.456703
 20
38.694775
  0
VERTEX
  8
equipamentos
 10
-9.456760
 20
38.694725
  0
VERTEX
  8
equipamentos
 10
-9.456831
 20
38.694753
  0
VERTEX
  8
equipamentos
 10
-9.456845
 20
38.694802
  0
VERTEX
  8
equipamentos
 10
-9.456796
 20
38.694852
  0
VERTEX
  8
equipamentos
 10
-9.456879
 20
38.694844
  0
VERTEX
  8
equipamentos
 10
-9.456942
 20
38.694915
  0
VERTEX
  8
equipamentos
 10
-9.456974
 20
38.694833
  0
VERTEX
  8
equipamentos
 10
-9.457134
 20
38.694923
  0
VERTEX
  8
equipamentos
 10
-9.457228
 20
38.694834
  0
VERTEX
  8
equipamentos
 10
-9.457302
 20
38.694833
  0
VERTEX
  8
equipamentos
 10
-9.457325
 20
38.694728
  0
VERTEX
  8
equipamentos
 10
-9.457409
 20
38.694731
  0
VERTEX
  8
equipamentos
 10
-9.457461
 20
38.694847
  0
VERTEX
  8
equipamentos
 10
-9.457482
 20
38.694899
  0
VERTEX
  8
equipamentos
 10
-9.457503
 20
38.694896
  0
VERTEX
  8
equipamentos
 10
-9.457502
 20
38.694837
  0
VERTEX
  8
equipamentos
 10
-9.457563
 20
38.694755
  0
VERTEX
  8
equipamentos
 10
-9.457624
 20
38.694702
  0
VERTEX
  8
equipamentos
 10
-9.457746
 20
38.694782
  0
VERTEX
  8
equipamentos
 10
-9.457791
 20
38.694726
  0
VERTEX
  8
equipamentos
 10
-9.457861
 20
38.694673
  0
VERTEX
  8
equipamentos
 10
-9.458439
 20
38.694712
  0
VERTEX
  8
equipamentos
 10
-9.458514
 20
38.694731
  0
VERTEX
  8
equipamentos
 10
-9.458521
 20
38.694832
  0
VERTEX
  8
equipamentos
 10
-9.458720
 20
38.694853
  0
VERTEX
  8
equipamentos
 10
-9.458788
 20
38.694901
  0
VERTEX
  8
equipamentos
 10
-9.458731
 20
38.694996
  0
VERTEX
  8
equipamentos
 10
-9.458778
 20
38.695028
  0
VERTEX
  8
equipamentos
 10
-9.458788
 20
38.695119
  0
VERTEX
  8
equipamentos
 10
-9.458859
 20
38.695118
  0
VERTEX
  8
equipamentos
 10
-9.458908
 20
38.695101
  0
VERTEX
  8
equipamentos
 10
-9.458902
 20
38.695026
  0
VERTEX
  8
equipamentos
 10
-9.458805
 20
38.694936
  0
VERTEX
  8
equipamentos
 10
-9.458813
 20
38.694881
  0
VERTEX
  8
equipamentos
 10
-9.458974
 20
38.694824
  0
VERTEX
  8
equipamentos
 10
-9.459095
 20
38.694842
  0
VERTEX
  8
equipamentos
 10
-9.459154
 20
38.694916
  0
VERTEX
  8
equipamentos
 10
-9.459040
 20
38.695028
  0
VERTEX
  8
equipamentos
 10
-9.459111
 20
38.695063
  0
VERTEX
  8
equipamentos
 10
-9.459264
 20
38.695022
  0
VERTEX
  8
equipamentos
 10
-9.459284
 20
38.694960
  0
VERTEX
  8
equipamentos
 10
-9.459486
 20
38.694867
  0
VERTEX
  8
equipamentos
 10
-9.459594
 20
38.694901
  0
VERTEX
  8
equipamentos
 10
-9.459872
 20
38.695055
  0
VERTEX
  8
equipamentos
 10
-9.459959
 20
38.695080
  0
VERTEX
  8
equipamentos
 10
-9.459984
 20
38.695050
  0
VERTEX
  8
equipamentos
 10
-9.460119
 20
38.695153
  0
VERTEX
  8
equipamentos
 10
-9.460169
 20
38.695152
  0
VERTEX
  8
equipamentos
 10
-9.460188
 20
38.695093
  0
VERTEX
  8
equipamentos
 10
-9.460263
 20
38.695086
  0
VERTEX
  8
equipamentos
 10
-9.460289
 20
38.695141
  0
VERTEX
  8
equipamentos
 10
-9.460393
 20
38.695130
  0
VERTEX
  8
equipamentos
 10
-9.460385
 20
38.695169
  0
VERTEX
  8
equipamentos
 10
-9.460335
 20
38.695157
  0
VERTEX
  8
equipamentos
 10
-9.460320
 20
38.695238
  0
VERTEX
  8
equipamentos
 10
-9.460375
 20
38.695293
  0
VERTEX
  8
equipamentos
 10
-9.460497
 20
38.695360
  0
VERTEX
  8
equipamentos
 10
-9.460601
 20
38.695405
  0
VERTEX
  8
equipamentos
 10
-9.460813
 20
38.695620
  0
VERTEX
  8
equipamentos
 10
-9.460863
 20
38.695620
  0
VERTEX
  8
equipamentos
 10
-9.460953
 20
38.695547
  0
VERTEX
  8
equipamentos
 10
-9.461020
 20
38.695530
  0
VERTEX
  8
equipamentos
 10
-9.461137
 20
38.695574
  0
VERTEX
  8
equipamentos
 10
-9.461205
 20
38.695655
  0
VERTEX
  8
equipamentos
 10
-9.461368
 20
38.695705
  0
VERTEX
  8
equipamentos
 10
-9.461537
 20
38.695870
  0
VERTEX
  8
equipamentos
 10
-9.461852
 20
38.696009
  0
VERTEX
  8
equipamentos
 10
-9.462139
 20
38.696241
  0
VERTEX
  8
equipamentos
 10
-9.462072
 20
38.696450
  0
VERTEX
  8
equipamentos
 10
-9.462303
 20
38.696591
  0
VERTEX
  8
equipamentos
 10
-9.462460
 20
38.696556
  0
VERTEX
  8
equipamentos
 10
-9.462412
 20
38.696394
  0
VERTEX
  8
equipamentos
 10
-9.462333
 20
38.696421
  0
VERTEX
  8
equipamentos
 10
-9.462303
 20
38.696369
  0
VERTEX
  8
equipamentos
 10
-9.462233
 20
38.696390
  0
VERTEX
  8
equipamentos
 10
-9.462219
 20
38.696325
  0
VERTEX
  8
equipamentos
 10
-9.462433
 20
38.696208
  0
VERTEX
  8
equipamentos
 10
-9.462609
 20
38.696255
  0
VERTEX
  8
equipamentos
 10
-9.462727
 20
38.696387
  0
VERTEX
  8
equipamentos
 10
-9.462878
 20
38.696447
  0
VERTEX
  8
equipamentos
 10
-9.462944
 20
38.696427
  0
VERTEX
  8
equipamentos
 10
-9.463100
 20
38.696503
  0
VERTEX
  8
equipamentos
 10
-9.463203
 20
38.696470
  0
VERTEX
  8
equipamentos
 10
-9.463460
 20
38.696675
  0
VERTEX
  8
equipamentos
 10
-9.463564
 20
38.696687
  0
VERTEX
  8
equipamentos
 10
-9.463566
 20
38.696795
  0
VERTEX
  8
equipamentos
 10
-9.463611
 20
38.696922
  0
VERTEX
  8
equipamentos
 10
-9.463581
 20
38.696986
  0
VERTEX
  8
equipamentos
 10
-9.463628
 20
38.697017
  0
VERTEX
  8
equipamentos
 10
-9.463716
 20
38.696931
  0
VERTEX
  8
equipamentos
 10
-9.464199
 20
38.697020
  0
VERTEX
  8
equipamentos
 10
-9.464392
 20
38.697003
  0
VERTEX
  8
equipamentos
 10
-9.464700
 20
38.697202
  0
VERTEX
  8
equipamentos
 10
-9.464871
 20
38.697412
  0
VERTEX
  8
equipamentos
 10
-9.465163
 20
38.697399
  0
VERTEX
  8
equipamentos
 10
-9.465239
 20
38.697488
  0
VERTEX
  8
equipamentos
 10
-9.465284
 20
38.697538
  0
VERTEX
  8
equipamentos
 10
-9.465339
 20
38.697518
  0
VERTEX
  8
equipamentos
 10
-9.465443
 20
38.697610
  0
VERTEX
  8
equipamentos
 10
-9.465584
 20
38.697664
  0
VERTEX
  8
equipamentos
 10
-9.465582
 20
38.697722
  0
VERTEX
  8
equipamentos
 10
-9.465628
 20
38.697717
  0
VERTEX
  8
equipamentos
 10
-9.465817
 20
38.697836
  0
VERTEX
  8
equipamentos
 10
-9.465825
 20
38.697926
  0
VERTEX
  8
equipamentos
 10
-9.465980
 20
38.698061
  0
VERTEX
  8
equipamentos
 10
-9.466091
 20
38.698047
  0
VERTEX
  8
equipamentos
 10
-9.466284
 20
38.698220
  0
VERTEX
  8
equipamentos
 10
-9.466251
 20
38.698272
  0
VERTEX
  8
equipamentos
 10
-9.466304
 20
38.698286
  0
VERTEX
  8
equipamentos
 10
-9.466381
 20
38.698266
  0
VERTEX
  8
equipamentos
 10
-9.466588
 20
38.698400
  0
VERTEX
  8
equipamentos
 10
-9.466795
 20
38.698682
  0
VERTEX
  8
equipamentos
 10
-9.467030
 20
38.699086
  0
VERTEX
  8
equipamentos
 10
-9.467143
 20
38.698970
  0
VERTEX
  8
equipamentos
 10
-9.467107
 20
38.698742
  0
VERTEX
  8
equipamentos
 10
-9.467175
 20
38.698702
  0
VERTEX
  8
equipamentos
 10
-9.467222
 20
38.698726
  0
VERTEX
  8
equipamentos
 10
-9.467286
 20
38.698679
  0
VERTEX
  8
equipamentos
 10
-9.467411
 20
38.698711
  0
VERTEX
  8
equipamentos
 10
-9.467424
 20
38.698736
  0
VERTEX
  8
equipamentos
 10
-9.467558
 20
38.698776
  0
VERTEX
  8
equipamentos
 10
-9.467574
 20
38.698814
  0
VERTEX
  8
equipamentos
 10
-9.467490
 20
38.698934
  0
VERTEX
  8
equipamentos
 10
-9.467570
 20
38.698941
  0
VERTEX
  8
equipamentos
 10
-9.467571
 20
38.698982
  0
VERTEX
  8
equipamentos
 10
-9.467939
 20
38.699212
  0
VERTEX
  8
equipamentos
 10
-9.468017
 20
38.699216
  0
VERTEX
  8
equipamentos
 10
-9.468057
 20
38.699200
  0
VERTEX
  8
equipamentos
 10
-9.468053
 20
38.699176
  0
VERTEX
  8
equipamentos
 10
-9.468181
 20
38.699177
  0
VERTEX
  8
equipamentos
 10
-9.468241
 20
38.699264
  0
VERTEX
  8
equipamentos
 10
-9.468277
 20
38.699339
  0
VERTEX
  8
equipamentos
 10
-9.468334
 20
38.699392
  0
VERTEX
  8
equipamentos
 10
-9.468390
 20
38.699413
  0
VERTEX
  8
equipamentos
 10
-9.468450
 20
38.699500
  0
VERTEX
  8
equipamentos
 10
-9.468504
 20
38.699521
  0
VERTEX
  8
equipamentos
 10
-9.468590
 20
38.699491
  0
VERTEX
  8
equipamentos
 10
-9.468614
 20
38.699452
  0
VERTEX
  8
equipamentos
 10
-9.468607
 20
38.699411
  0
VERTEX
  8
equipamentos
 10
-9.468576
 20
38.699382
  0
VERTEX
  8
equipamentos
 10
-9.468531
 20
38.699346
  0
VERTEX
  8
equipamentos
 10
-9.468494
 20
38.699363
  0
VERTEX
  8
equipamentos
 10
-9.468447
 20
38.699308
  0
VERTEX
  8
equipamentos
 10
-9.468424
 20
38.699262
  0
VERTEX
  8
equipamentos
 10
-9.468427
 20
38.699228
  0
VERTEX
  8
equipamentos
 10
-9.468470
 20
38.699220
  0
VERTEX
  8
equipamentos
 10
-9.468607
 20
38.699253
  0
VERTEX
  8
equipamentos
 10
-9.468666
 20
38.699242
  0
VERTEX
  8
equipamentos
 10
-9.468725
 20
38.699254
  0
VERTEX
  8
equipamentos
 10
-9.468776
 20
38.699316
  0
VERTEX
  8
equipamentos
 10
-9.468845
 20
38.699323
  0
VERTEX
  8
equipamentos
 10
-9.468928
 20
38.699322
  0
VERTEX
  8
equipamentos
 10
-9.468980
 20
38.699270
  0
VERTEX
  8
equipamentos
 10
-9.469067
 20
38.699245
  0
VERTEX
  8
equipamentos
 10
-9.469142
 20
38.699259
  0
VERTEX
  8
equipamentos
 10
-9.469245
 20
38.699318
  0
VERTEX
  8
equipamentos
 10
-9.469389
 20
38.699358
  0
VERTEX
  8
equipamentos
 10
-9.469498
 20
38.699376
  0
VERTEX
  8
equipamentos
 10
-9.469687
 20
38.699374
  0
VERTEX
  8
equipamentos
 10
-9.469778
 20
38.699410
  0
VERTEX
  8
equipamentos
 10
-9.469858
 20
38.699528
  0
VERTEX
  8
equipamentos
 10
-9.469865
 20
38.699586
  0
VERTEX
  8
equipamentos
 10
-9.469884
 20
38.699742
  0
VERTEX
  8
equipamentos
 10
-9.469932
 20
38.699807
  0
VERTEX
  8
equipamentos
 10
-9.470049
 20
38.699793
  0
VERTEX
  8
equipamentos
 10
-9.470137
 20
38.699831
  0
VERTEX
  8
equipamentos
 10
-9.470202
 20
38.699816
  0
VERTEX
  8
equipamentos
 10
-9.470324
 20
38.699858
  0
VERTEX
  8
equipamentos
 10
-9.470480
 20
38.699920
  0
VERTEX
  8
equipamentos
 10
-9.470721
 20
38.700041
  0
VERTEX
  8
equipamentos
 10
-9.470861
 20
38.700198
  0
VERTEX
  8
equipamentos
 10
-9.471110
 20
38.700231
  0
VERTEX
  8
equipamentos
 10
-9.471253
 20
38.700240
  0
VERTEX
  8
equipamentos
 10
-9.471570
 20
38.700384
  0
VERTEX
  8
equipamentos
 10
-9.471756
 20
38.700545
  0
VERTEX
  8
equipamentos
 10
-9.471805
 20
38.700528
  0
VERTEX
  8
equipamentos
 10
-9.471888
 20
38.700651
  0
VERTEX
  8
equipamentos
 10
-9.471928
 20
38.700648
  0
VERTEX
  8
equipamentos
 10
-9.471848
 20
38.700488
  0
VERTEX
  8
equipamentos
 10
-9.472021
 20
38.700440
  0
VERTEX
  8
equipamentos
 10
-9.472189
 20
38.700635
  0
VERTEX
  8
equipamentos
 10
-9.472266
 20
38.700775
  0
VERTEX
  8
equipamentos
 10
-9.472317
 20
38.700841
  0
VERTEX
  8
equipamentos
 10
-9.472421
 20
38.700932
  0
VERTEX
  8
equipamentos
 10
-9.472482
 20
38.701031
  0
VERTEX
  8
equipamentos
 10
-9.472513
 20
38.701031
  0
VERTEX
  8
equipamentos
 10
-9.472531
 20
38.700999
  0
VERTEX
  8
equipamentos
 10
-9.472564
 20
38.700947
  0
VERTEX
  8
equipamentos
 10
-9.472516
 20
38.700833
  0
VERTEX
  8
equipamentos
 10
-9.472546
 20
38.700809
  0
VERTEX
  8
equipamentos
 10
-9.472655
 20
38.700803
  0
VERTEX
  8
equipamentos
 10
-9.472725
 20
38.700880
  0
VERTEX
  8
equipamentos
 10
-9.472734
 20
38.700870
  0
VERTEX
  8
equipamentos
 10
-9.472732
 20
38.700785
  0
VERTEX
  8
equipamentos
 10
-9.472747
 20
38.700743
  0
VERTEX
  8
equipamentos
 10
-9.472843
 20
38.700737
  0
VERTEX
  8
equipamentos
 10
-9.472947
 20
38.700792
  0
VERTEX
  8
equipamentos
 10
-9.473019
 20
38.700832
  0
VERTEX
  8
equipamentos
 10
-9.473082
 20
38.700897
  0
VERTEX
  8
equipamentos
 10
-9.473129
 20
38.700924
  0
VERTEX
  8
equipamentos
 10
-9.473149
 20
38.701001
  0
VERTEX
  8
equipamentos
 10
-9.473197
 20
38.701040
  0
VERTEX
  8
equipamentos
 10
-9.473201
 20
38.701084
  0
VERTEX
  8
equipamentos
 10
-9.473238
 20
38.701083
  0
VERTEX
  8
equipamentos
 10
-9.473254
 20
38.701129
  0
VERTEX
  8
equipamentos
 10
-9.473301
 20
38.701109
  0
VERTEX
  8
equipamentos
 10
-9.473476
 20
38.701192
  0
VERTEX
  8
equipamentos
 10
-9.473471
 20
38.701231
  0
VERTEX
  8
equipamentos
 10
-9.473552
 20
38.701291
  0
VERTEX
  8
equipamentos
 10
-9.473627
 20
38.701320
  0
VERTEX
  8
equipamentos
 10
-9.473700
 20
38.701389
  0
VERTEX
  8
equipamentos
 10
-9.473684
 20
38.701497
  0
VERTEX
  8
equipamentos
 10
-9.473631
 20
38.701495
  0
VERTEX
  8
equipamentos
 10
-9.473685
 20
38.701574
  0
VERTEX
  8
equipamentos
 10
-9.473805
 20
38.701695
  0
VERTEX
  8
equipamentos
 10
-9.473818
 20
38.701690
  0
VERTEX
  8
equipamentos
 10
-9.473798
 20
38.701644
  0
VERTEX
  8
equipamentos
 10
-9.473822
 20
38.701612
  0
VERTEX
  8
equipamentos
 10
-9.473889
 20
38.701665
  0
VERTEX
  8
equipamentos
 10
-9.473979
 20
38.701685
  0
VERTEX
  8
equipamentos
 10
-9.474013
 20
38.701675
  0
VERTEX
  8
equipamentos
 10
-9.474026
 20
38.701719
  0
VERTEX
  8
equipamentos
 10
-9.474092
 20
38.701725
  0
VERTEX
  8
equipamentos
 10
-9.474183
 20
38.701817
  0
VERTEX
  8
equipamentos
 10
-9.474270
 20
38.701809
  0
VERTEX
  8
equipamentos
 10
-9.474344
 20
38.701927
  0
VERTEX
  8
equipamentos
 10
-9.474505
 20
38.701911
  0
VERTEX
  8
equipamentos
 10
-9.474573
 20
38.701907
  0
VERTEX
  8
equipamentos
 10
-9.474525
 20
38.701842
  0
VERTEX
  8
equipamentos
 10
-9.474491
 20
38.701680
  0
VERTEX
  8
equipamentos
 10
-9.474553
 20
38.701659
  0
VERTEX
  8
equipamentos
 10
-9.474616
 20
38.701700
  0
VERTEX
  8
equipamentos
 10
-9.474660
 20
38.701758
  0
VERTEX
  8
equipamentos
 10
-9.474658
 20
38.701790
  0
VERTEX
  8
equipamentos
 10
-9.474721
 20
38.701840
  0
VERTEX
  8
equipamentos
 10
-9.474761
 20
38.701844
  0
VERTEX
  8
equipamentos
 10
-9.474791
 20
38.701922
  0
VERTEX
  8
equipamentos
 10
-9.474841
 20
38.701921
  0
VERTEX
  8
equipamentos
 10
-9.474901
 20
38.701981
  0
VERTEX
  8
equipamentos
 10
-9.474837
 20
38.702033
  0
VERTEX
  8
equipamentos
 10
-9.474871
 20
38.702072
  0
VERTEX
  8
equipamentos
 10
-9.474918
 20
38.702069
  0
VERTEX
  8
equipamentos
 10
-9.474994
 20
38.702153
  0
VERTEX
  8
equipamentos
 10
-9.475001
 20
38.702185
  0
VERTEX
  8
equipamentos
 10
-9.475038
 20
38.702184
  0
VERTEX
  8
equipamentos
 10
-9.475098
 20
38.702213
  0
VERTEX
  8
equipamentos
 10
-9.475374
 20
38.702214
  0
VERTEX
  8
equipamentos
 10
-9.475320
 20
38.701991
  0
VERTEX
  8
equipamentos
 10
-9.475307
 20
38.701770
  0
VERTEX
  8
equipamentos
 10
-9.475277
 20
38.701646
  0
VERTEX
  8
equipamentos
 10
-9.475371
 20
38.701570
  0
VERTEX
  8
equipamentos
 10
-9.475597
 20
38.701682
  0
VERTEX
  8
equipamentos
 10
-9.475628
 20
38.701676
  0
VERTEX
  8
equipamentos
 10
-9.475635
 20
38.701708
  0
VERTEX
  8
equipamentos
 10
-9.475704
 20
38.701763
  0
VERTEX
  8
equipamentos
 10
-9.475757
 20
38.701767
  0
VERTEX
  8
equipamentos
 10
-9.475754
 20
38.701796
  0
VERTEX
  8
equipamentos
 10
-9.475824
 20
38.701839
  0
VERTEX
  8
equipamentos
 10
-9.475915
 20
38.701820
  0
VERTEX
  8
equipamentos
 10
-9.475937
 20
38.701791
  0
VERTEX
  8
equipamentos
 10
-9.475960
 20
38.701800
  0
VERTEX
  8
equipamentos
 10
-9.476146
 20
38.701682
  0
VERTEX
  8
equipamentos
 10
-9.476146
 20
38.701668
  0
VERTEX
  8
equipamentos
 10
-9.476194
 20
38.701672
  0
VERTEX
  8
equipamentos
 10
-9.476205
 20
38.701652
  0
VERTEX
  8
equipamentos
 10
-9.476256
 20
38.701614
  0
VERTEX
  8
equipamentos
 10
-9.476324
 20
38.701624
  0
VERTEX
  8
equipamentos
 10
-9.476376
 20
38.701643
  0
VERTEX
  8
equipamentos
 10
-9.476406
 20
38.701739
  0
VERTEX
  8
equipamentos
 10
-9.476416
 20
38.701797
  0
VERTEX
  8
equipamentos
 10
-9.476465
 20
38.701845
  0
VERTEX
  8
equipamentos
 10
-9.476551
 20
38.701867
  0
VERTEX
  8
equipamentos
 10
-9.476603
 20
38.701902
  0
VERTEX
  8
equipamentos
 10
-9.476614
 20
38.701884
  0
VERTEX
  8
equipamentos
 10
-9.476642
 20
38.701868
  0
VERTEX
  8
equipamentos
 10
-9.476685
 20
38.701903
  0
VERTEX
  8
equipamentos
 10
-9.476729
 20
38.701952
  0
VERTEX
  8
equipamentos
 10
-9.476769
 20
38.701951
  0
VERTEX
  8
equipamentos
 10
-9.476853
 20
38.702037
  0
VERTEX
  8
equipamentos
 10
-9.476905
 20
38.702059
  0
VERTEX
  8
equipamentos
 10
-9.476995
 20
38.702027
  0
VERTEX
  8
equipamentos
 10
-9.476994
 20
38.701975
  0
VERTEX
  8
equipamentos
 10
-9.476864
 20
38.701845
  0
VERTEX
  8
equipamentos
 10
-9.476860
 20
38.701792
  0
VERTEX
  8
equipamentos
 10
-9.476868
 20
38.701754
  0
VERTEX
  8
equipamentos
 10
-9.476907
 20
38.701751
  0
VERTEX
  8
equipamentos
 10
-9.476974
 20
38.701674
  0
VERTEX
  8
equipamentos
 10
-9.477071
 20
38.701651
  0
VERTEX
  8
equipamentos
 10
-9.477109
 20
38.701708
  0
VERTEX
  8
equipamentos
 10
-9.477169
 20
38.701730
  0
VERTEX
  8
equipamentos
 10
-9.477200
 20
38.701855
  0
VERTEX
  8
equipamentos
 10
-9.477271
 20
38.701870
  0
VERTEX
  8
equipamentos
 10
-9.477308
 20
38.701840
  0
VERTEX
  8
equipamentos
 10
-9.477359
 20
38.701848
  0
VERTEX
  8
equipamentos
 10
-9.477410
 20
38.701819
  0
VERTEX
  8
equipamentos
 10
-9.477470
 20
38.701838
  0
VERTEX
  8
equipamentos
 10
-9.477730
 20
38.702018
  0
VERTEX
  8
equipamentos
 10
-9.477719
 20
38.702047
  0
VERTEX
  8
equipamentos
 10
-9.477773
 20
38.702069
  0
VERTEX
  8
equipamentos
 10
-9.477863
 20
38.702108
  0
VERTEX
  8
equipamentos
 10
-9.477863
 20
38.702148
  0
VERTEX
  8
equipamentos
 10
-9.477981
 20
38.702230
  0
VERTEX
  8
equipamentos
 10
-9.478194
 20
38.702345
  0
VERTEX
  8
equipamentos
 10
-9.478236
 20
38.702443
  0
VERTEX
  8
equipamentos
 10
-9.478227
 20
38.702575
  0
VERTEX
  8
equipamentos
 10
-9.478286
 20
38.702677
  0
VERTEX
  8
equipamentos
 10
-9.478393
 20
38.702785
  0
VERTEX
  8
equipamentos
 10
-9.478488
 20
38.702842
  0
VERTEX
  8
equipamentos
 10
-9.478512
 20
38.702880
  0
VERTEX
  8
equipamentos
 10
-9.478328
 20
38.702947
  0
VERTEX
  8
equipamentos
 10
-9.478450
 20
38.703086
  0
VERTEX
  8
equipamentos
 10
-9.478492
 20
38.703067
  0
VERTEX
  8
equipamentos
 10
-9.478539
 20
38.703116
  0
VERTEX
  8
equipamentos
 10
-9.478499
 20
38.703136
  0
VERTEX
  8
equipamentos
 10
-9.478555
 20
38.703200
  0
VERTEX
  8
equipamentos
 10
-9.478674
 20
38.703210
  0
VERTEX
  8
equipamentos
 10
-9.478737
 20
38.703167
  0
VERTEX
  8
equipamentos
 10
-9.478935
 20
38.703285
  0
VERTEX
  8
equipamentos
 10
-9.478952
 20
38.703261
  0
VERTEX
  8
equipamentos
 10
-9.479088
 20
38.703368
  0
VERTEX
  8
equipamentos
 10
-9.479182
 20
38.703363
  0
VERTEX
  8
equipamentos
 10
-9.479229
 20
38.703324
  0
VERTEX
  8
equipamentos
 10
-9.479454
 20
38.703315
  0
VERTEX
  8
equipamentos
 10
-9.479659
 20
38.703435
  0
VERTEX
  8
equipamentos
 10
-9.479533
 20
38.703566
  0
VERTEX
  8
equipamentos
 10
-9.479494
 20
38.703754
  0
VERTEX
  8
equipamentos
 10
-9.479520
 20
38.703810
  0
VERTEX
  8
equipamentos
 10
-9.479462
 20
38.703873
  0
VERTEX
  8
equipamentos
 10
-9.479577
 20
38.703943
  0
VERTEX
  8
equipamentos
 10
-9.479640
 20
38.704098
  0
VERTEX
  8
equipamentos
 10
-9.479954
 20
38.704008
  0
VERTEX
  8
equipamentos
 10
-9.480254
 20
38.704053
  0
VERTEX
  8
equipamentos
 10
-9.480386
 20
38.703974
  0
VERTEX
  8
equipamentos
 10
-9.480453
 20
38.704027
  0
VERTEX
  8
equipamentos
 10
-9.480241
 20
38.704118
  0
VERTEX
  8
equipamentos
 10
-9.480268
 20
38.704198
  0
VERTEX
  8
equipamentos
 10
-9.480031
 20
38.704453
  0
VERTEX
  8
equipamentos
 10
-9.479711
 20
38.704566
  0
VERTEX
  8
equipamentos
 10
-9.479657
 20
38.704696
  0
VERTEX
  8
equipamentos
 10
-9.479706
 20
38.704776
  0
VERTEX
  8
equipamentos
 10
-9.479654
 20
38.704893
  0
VERTEX
  8
equipamentos
 10
-9.479725
 20
38.705030
  0
VERTEX
  8
equipamentos
 10
-9.479959
 20
38.705050
  0
VERTEX
  8
equipamentos
 10
-9.480244
 20
38.705042
  0
VERTEX
  8
equipamentos
 10
-9.480411
 20
38.704975
  0
VERTEX
  8
equipamentos
 10
-9.480479
 20
38.704959
  0
VERTEX
  8
equipamentos
 10
-9.480614
 20
38.705040
  0
VERTEX
  8
equipamentos
 10
-9.480639
 20
38.704977
  0
VERTEX
  8
equipamentos
 10
-9.480700
 20
38.704916
  0
VERTEX
  8
equipamentos
 10
-9.480849
 20
38.704961
  0
VERTEX
  8
equipamentos
 10
-9.481045
 20
38.705066
  0
VERTEX
  8
equipamentos
 10
-9.481093
 20
38.705200
  0
VERTEX
  8
equipamentos
 10
-9.481162
 20
38.705252
  0
VERTEX
  8
equipamentos
 10
-9.481204
 20
38.705230
  0
VERTEX
  8
equipamentos
 10
-9.481256
 20
38.705401
  0
VERTEX
  8
equipamentos
 10
-9.481350
 20
38.705393
  0
VERTEX
  8
equipamentos
 10
-9.481340
 20
38.705353
  0
VERTEX
  8
equipamentos
 10
-9.481400
 20
38.705348
  0
VERTEX
  8
equipamentos
 10
-9.481409
 20
38.705377
  0
VERTEX
  8
equipamentos
 10
-9.481461
 20
38.705376
  0
VERTEX
  8
equipamentos
 10
-9.481441
 20
38.705111
  0
VERTEX
  8
equipamentos
 10
-9.481568
 20
38.705038
  0
VERTEX
  8
equipamentos
 10
-9.481602
 20
38.705055
  0
VERTEX
  8
equipamentos
 10
-9.481635
 20
38.705131
  0
VERTEX
  8
equipamentos
 10
-9.481675
 20
38.705130
  0
VERTEX
  8
equipamentos
 10
-9.481676
 20
38.705180
  0
VERTEX
  8
equipamentos
 10
-9.481737
 20
38.705212
  0
VERTEX
  8
equipamentos
 10
-9.481828
 20
38.705267
  0
VERTEX
  8
equipamentos
 10
-9.481970
 20
38.705207
  0
VERTEX
  8
equipamentos
 10
-9.482019
 20
38.705236
  0
VERTEX
  8
equipamentos
 10
-9.482084
 20
38.705211
  0
VERTEX
  8
equipamentos
 10
-9.482146
 20
38.705208
  0
VERTEX
  8
equipamentos
 10
-9.482133
 20
38.705255
  0
VERTEX
  8
equipamentos
 10
-9.482181
 20
38.705254
  0
VERTEX
  8
equipamentos
 10
-9.482205
 20
38.705298
  0
VERTEX
  8
equipamentos
 10
-9.482279
 20
38.705277
  0
VERTEX
  8
equipamentos
 10
-9.482361
 20
38.705288
  0
VERTEX
  8
equipamentos
 10
-9.482511
 20
38.705206
  0
VERTEX
  8
equipamentos
 10
-9.482536
 20
38.705203
  0
VERTEX
  8
equipamentos
 10
-9.482580
 20
38.705245
  0
VERTEX
  8
equipamentos
 10
-9.482581
 20
38.705285
  0
VERTEX
  8
equipamentos
 10
-9.482494
 20
38.705346
  0
VERTEX
  8
equipamentos
 10
-9.482426
 20
38.705405
  0
VERTEX
  8
equipamentos
 10
-9.482392
 20
38.705381
  0
VERTEX
  8
equipamentos
 10
-9.482378
 20
38.705386
  0
VERTEX
  8
equipamentos
 10
-9.482387
 20
38.705412
  0
VERTEX
  8
equipamentos
 10
-9.482410
 20
38.705463
  0
VERTEX
  8
equipamentos
 10
-9.482420
 20
38.705503
  0
VERTEX
  8
equipamentos
 10
-9.482392
 20
38.705524
  0
VERTEX
  8
equipamentos
 10
-9.482393
 20
38.705629
  0
VERTEX
  8
equipamentos
 10
-9.482361
 20
38.705725
  0
VERTEX
  8
equipamentos
 10
-9.482304
 20
38.705794
  0
VERTEX
  8
equipamentos
 10
-9.482222
 20
38.705838
  0
VERTEX
  8
equipamentos
 10
-9.482275
 20
38.705885
  0
VERTEX
  8
equipamentos
 10
-9.482383
 20
38.705920
  0
VERTEX
  8
equipamentos
 10
-9.482465
 20
38.705904
  0
VERTEX
  8
equipamentos
 10
-9.482534
 20
38.705897
  0
VERTEX
  8
equipamentos
 10
-9.482552
 20
38.705944
  0
VERTEX
  8
equipamentos
 10
-9.482604
 20
38.705970
  0
VERTEX
  8
equipamentos
 10
-9.482624
 20
38.705961
  0
VERTEX
  8
equipamentos
 10
-9.482631
 20
38.705917
  0
VERTEX
  8
equipamentos
 10
-9.482710
 20
38.705895
  0
VERTEX
  8
equipamentos
 10
-9.482882
 20
38.705921
  0
VERTEX
  8
equipamentos
 10
-9.483006
 20
38.705941
  0
VERTEX
  8
equipamentos
 10
-9.483004
 20
38.705967
  0
VERTEX
  8
equipamentos
 10
-9.483048
 20
38.705965
  0
VERTEX
  8
equipamentos
 10
-9.483081
 20
38.705962
  0
VERTEX
  8
equipamentos
 10
-9.483081
 20
38.705962
  0
VERTEX
  8
equipamentos
 10
-9.483118
 20
38.705998
  0
VERTEX
  8
equipamentos
 10
-9.483126
 20
38.706013
  0
VERTEX
  8
equipamentos
 10
-9.483162
 20
38.705998
  0
VERTEX
  8
equipamentos
 10
-9.483214
 20
38.705989
  0
VERTEX
  8
equipamentos
 10
-9.483277
 20
38.706001
  0
VERTEX
  8
equipamentos
 10
-9.483289
 20
38.706031
  0
VERTEX
  8
equipamentos
 10
-9.483205
 20
38.706079
  0
VERTEX
  8
equipamentos
 10
-9.483203
 20
38.706120
  0
VERTEX
  8
equipamentos
 10
-9.483252
 20
38.706120
  0
VERTEX
  8
equipamentos
 10
-9.483279
 20
38.706074
  0
VERTEX
  8
equipamentos
 10
-9.483372
 20
38.706021
  0
VERTEX
  8
equipamentos
 10
-9.483438
 20
38.706014
  0
VERTEX
  8
equipamentos
 10
-9.483543
 20
38.706024
  0
VERTEX
  8
equipamentos
 10
-9.483593
 20
38.706053
  0
VERTEX
  8
equipamentos
 10
-9.483626
 20
38.706087
  0
VERTEX
  8
equipamentos
 10
-9.483589
 20
38.706131
  0
VERTEX
  8
equipamentos
 10
-9.483623
 20
38.706206
  0
VERTEX
  8
equipamentos
 10
-9.483573
 20
38.706336
  0
VERTEX
  8
equipamentos
 10
-9.483498
 20
38.706432
  0
VERTEX
  8
equipamentos
 10
-9.483348
 20
38.706549
  0
VERTEX
  8
equipamentos
 10
-9.483307
 20
38.706545
  0
VERTEX
  8
equipamentos
 10
-9.483294
 20
38.706566
  0
VERTEX
  8
equipamentos
 10
-9.483339
 20
38.706626
  0
VERTEX
  8
equipamentos
 10
-9.483406
 20
38.706682
  0
VERTEX
  8
equipamentos
 10
-9.483498
 20
38.706698
  0
VERTEX
  8
equipamentos
 10
-9.483558
 20
38.706704
  0
VERTEX
  8
equipamentos
 10
-9.483615
 20
38.706647
  0
VERTEX
  8
equipamentos
 10
-9.483681
 20
38.706642
  0
VERTEX
  8
equipamentos
 10
-9.483712
 20
38.706656
  0
VERTEX
  8
equipamentos
 10
-9.483763
 20
38.706628
  0
VERTEX
  8
equipamentos
 10
-9.483887
 20
38.706601
  0
VERTEX
  8
equipamentos
 10
-9.484174
 20
38.706757
  0
VERTEX
  8
equipamentos
 10
-9.484193
 20
38.706886
  0
VERTEX
  8
equipamentos
 10
-9.484223
 20
38.706895
  0
VERTEX
  8
equipamentos
 10
-9.484216
 20
38.706953
  0
VERTEX
  8
equipamentos
 10
-9.484249
 20
38.706953
  0
VERTEX
  8
equipamentos
 10
-9.484314
 20
38.706894
  0
VERTEX
  8
equipamentos
 10
-9.484341
 20
38.706839
  0
VERTEX
  8
equipamentos
 10
-9.484421
 20
38.706836
  0
VERTEX
  8
equipamentos
 10
-9.484429
 20
38.706864
  0
VERTEX
  8
equipamentos
 10
-9.484386
 20
38.706902
  0
VERTEX
  8
equipamentos
 10
-9.484497
 20
38.706924
  0
VERTEX
  8
equipamentos
 10
-9.484718
 20
38.706820
  0
VERTEX
  8
equipamentos
 10
-9.484798
 20
38.706815
  0
VERTEX
  8
equipamentos
 10
-9.484800
 20
38.706923
  0
VERTEX
  8
equipamentos
 10
-9.484726
 20
38.706969
  0
VERTEX
  8
equipamentos
 10
-9.484732
 20
38.707109
  0
VERTEX
  8
equipamentos
 10
-9.484774
 20
38.707148
  0
VERTEX
  8
equipamentos
 10
-9.484778
 20
38.707210
  0
VERTEX
  8
equipamentos
 10
-9.484745
 20
38.707234
  0
VERTEX
  8
equipamentos
 10
-9.484767
 20
38.707377
  0
VERTEX
  8
equipamentos
 10
-9.484726
 20
38.707390
  0
VERTEX
  8
equipamentos
 10
-9.484697
 20
38.707310
  0
VERTEX
  8
equipamentos
 10
-9.484646
 20
38.707384
  0
VERTEX
  8
equipamentos
 10
-9.484714
 20
38.707492
  0
VERTEX
  8
equipamentos
 10
-9.484791
 20
38.707497
  0
VERTEX
  8
equipamentos
 10
-9.484805
 20
38.707517
  0
VERTEX
  8
equipamentos
 10
-9.484737
 20
38.707545
  0
VERTEX
  8
equipamentos
 10
-9.484996
 20
38.707711
  0
VERTEX
  8
equipamentos
 10
-9.485134
 20
38.707713
  0
VERTEX
  8
equipamentos
 10
-9.485100
 20
38.707649
  0
VERTEX
  8
equipamentos
 10
-9.485158
 20
38.707620
  0
VERTEX
  8
equipamentos
 10
-9.485172
 20
38.707659
  0
VERTEX
  8
equipamentos
 10
-9.485352
 20
38.707547
  0
VERTEX
  8
equipamentos
 10
-9.485386
 20
38.707585
  0
VERTEX
  8
equipamentos
 10
-9.485498
 20
38.707569
  0
VERTEX
  8
equipamentos
 10
-9.485570
 20
38.707717
  0
VERTEX
  8
equipamentos
 10
-9.485522
 20
38.707804
  0
VERTEX
  8
equipamentos
 10
-9.485532
 20
38.707879
  0
VERTEX
  8
equipamentos
 10
-9.485467
 20
38.707945
  0
VERTEX
  8
equipamentos
 10
-9.485467
 20
38.708092
  0
VERTEX
  8
equipamentos
 10
-9.485434
 20
38.708118
  0
VERTEX
  8
equipamentos
 10
-9.485596
 20
38.708218
  0
VERTEX
  8
equipamentos
 10
-9.485660
 20
38.708124
  0
VERTEX
  8
equipamentos
 10
-9.485728
 20
38.708037
  0
VERTEX
  8
equipamentos
 10
-9.485755
 20
38.708000
  0
VERTEX
  8
equipamentos
 10
-9.485842
 20
38.707930
  0
VERTEX
  8
equipamentos
 10
-9.485863
 20
38.707895
  0
VERTEX
  8
equipamentos
 10
-9.485970
 20
38.707855
  0
VERTEX
  8
equipamentos
 10
-9.486022
 20
38.707861
  0
VERTEX
  8
equipamentos
 10
-9.486050
 20
38.707884
  0
VERTEX
  8
equipamentos
 10
-9.486022
 20
38.707999
  0
VERTEX
  8
equipamentos
 10
-9.486052
 20
38.708005
  0
VERTEX
  8
equipamentos
 10
-9.486023
 20
38.708064
  0
VERTEX
  8
equipamentos
 10
-9.486078
 20
38.708048
  0
VERTEX
  8
equipamentos
 10
-9.486125
 20
38.708063
  0
VERTEX
  8
equipamentos
 10
-9.486141
 20
38.708052
  0
VERTEX
  8
equipamentos
 10
-9.486198
 20
38.708120
  0
VERTEX
  8
equipamentos
 10
-9.486226
 20
38.708144
  0
VERTEX
  8
equipamentos
 10
-9.486239
 20
38.708236
  0
VERTEX
  8
equipamentos
 10
-9.486186
 20
38.708248
  0
VERTEX
  8
equipamentos
 10
-9.486065
 20
38.708243
  0
VERTEX
  8
equipamentos
 10
-9.486068
 20
38.708258
  0
VERTEX
  8
equipamentos
 10
-9.486189
 20
38.708269
  0
VERTEX
  8
equipamentos
 10
-9.486209
 20
38.708289
  0
VERTEX
  8
equipamentos
 10
-9.486169
 20
38.708358
  0
VERTEX
  8
equipamentos
 10
-9.486232
 20
38.708489
  0
VERTEX
  8
equipamentos
 10
-9.486219
 20
38.708535
  0
VERTEX
  8
equipamentos
 10
-9.486273
 20
38.708605
  0
VERTEX
  8
equipamentos
 10
-9.486274
 20
38.708638
  0
VERTEX
  8
equipamentos
 10
-9.486232
 20
38.708647
  0
VERTEX
  8
equipamentos
 10
-9.486096
 20
38.708577
  0
VERTEX
  8
equipamentos
 10
-9.486091
 20
38.708590
  0
VERTEX
  8
equipamentos
 10
-9.486102
 20
38.708620
  0
VERTEX
  8
equipamentos
 10
-9.486166
 20
38.708648
  0
VERTEX
  8
equipamentos
 10
-9.486099
 20
38.708717
  0
VERTEX
  8
equipamentos
 10
-9.486082
 20
38.708700
  0
VERTEX
  8
equipamentos
 10
-9.485976
 20
38.708807
  0
VERTEX
  8
equipamentos
 10
-9.485981
 20
38.708926
  0
VERTEX
  8
equipamentos
 10
-9.485988
 20
38.708980
  0
VERTEX
  8
equipamentos
 10
-9.485950
 20
38.709030
  0
VERTEX
  8
equipamentos
 10
-9.485923
 20
38.709048
  0
VERTEX
  8
equipamentos
 10
-9.485979
 20
38.709094
  0
VERTEX
  8
equipamentos
 10
-9.486003
 20
38.709060
  0
VERTEX
  8
equipamentos
 10
-9.486047
 20
38.709055
  0
VERTEX
  8
equipamentos
 10
-9.486142
 20
38.708952
  0
VERTEX
  8
equipamentos
 10
-9.486187
 20
38.708874
  0
VERTEX
  8
equipamentos
 10
-9.486236
 20
38.708850
  0
VERTEX
  8
equipamentos
 10
-9.486265
 20
38.708903
  0
VERTEX
  8
equipamentos
 10
-9.486273
 20
38.708920
  0
VERTEX
  8
equipamentos
 10
-9.486258
 20
38.708962
  0
VERTEX
  8
equipamentos
 10
-9.486375
 20
38.708921
  0
VERTEX
  8
equipamentos
 10
-9.486421
 20
38.709027
  0
VERTEX
  8
equipamentos
 10
-9.486359
 20
38.709049
  0
VERTEX
  8
equipamentos
 10
-9.486362
 20
38.709083
  0
VERTEX
  8
equipamentos
 10
-9.486299
 20
38.709099
  0
VERTEX
  8
equipamentos
 10
-9.486305
 20
38.709110
  0
VERTEX
  8
equipamentos
 10
-9.486371
 20
38.709096
  0
VERTEX
  8
equipamentos
 10
-9.486401
 20
38.709113
  0
VERTEX
  8
equipamentos
 10
-9.486448
 20
38.709268
  0
VERTEX
  8
equipamentos
 10
-9.486544
 20
38.709241
  0
VERTEX
  8
equipamentos
 10
-9.486556
 20
38.709286
  0
VERTEX
  8
equipamentos
 10
-9.486520
 20
38.709291
  0
VERTEX
  8
equipamentos
 10
-9.486546
 20
38.709345
  0
VERTEX
  8
equipamentos
 10
-9.486508
 20
38.709354
  0
VERTEX
  8
equipamentos
 10
-9.486514
 20
38.709380
  0
VERTEX
  8
equipamentos
 10
-9.486555
 20
38.709397
  0
VERTEX
  8
equipamentos
 10
-9.486542
 20
38.709421
  0
VERTEX
  8
equipamentos
 10
-9.486490
 20
38.709456
  0
VERTEX
  8
equipamentos
 10
-9.486474
 20
38.709475
  0
VERTEX
  8
equipamentos
 10
-9.486513
 20
38.709509
  0
VERTEX
  8
equipamentos
 10
-9.486509
 20
38.709577
  0
VERTEX
  8
equipamentos
 10
-9.486551
 20
38.709611
  0
VERTEX
  8
equipamentos
 10
-9.486540
 20
38.709634
  0
VERTEX
  8
equipamentos
 10
-9.486505
 20
38.709648
  0
VERTEX
  8
equipamentos
 10
-9.486464
 20
38.709648
  0
VERTEX
  8
equipamentos
 10
-9.486418
 20
38.709593
  0
VERTEX
  8
equipamentos
 10
-9.486383
 20
38.709589
  0
VERTEX
  8
equipamentos
 10
-9.486337
 20
38.709637
  0
VERTEX
  8
equipamentos
 10
-9.486276
 20
38.709644
  0
VERTEX
  8
equipamentos
 10
-9.486373
 20
38.709792
  0
VERTEX
  8
equipamentos
 10
-9.486296
 20
38.709812
  0
VERTEX
  8
equipamentos
 10
-9.486276
 20
38.709774
  0
VERTEX
  8
equipamentos
 10
-9.486254
 20
38.709780
  0
VERTEX
  8
equipamentos
 10
-9.486254
 20
38.709808
  0
VERTEX
  8
equipamentos
 10
-9.486168
 20
38.709887
  0
VERTEX
  8
equipamentos
 10
-9.486093
 20
38.709903
  0
VERTEX
  8
equipamentos
 10
-9.486027
 20
38.709889
  0
VERTEX
  8
equipamentos
 10
-9.486005
 20
38.709889
  0
VERTEX
  8
equipamentos
 10
-9.485958
 20
38.709868
  0
VERTEX
  8
equipamentos
 10
-9.485920
 20
38.709888
  0
VERTEX
  8
equipamentos
 10
-9.485874
 20
38.710128
  0
VERTEX
  8
equipamentos
 10
-9.485902
 20
38.710143
  0
VERTEX
  8
equipamentos
 10
-9.485941
 20
38.710140
  0
VERTEX
  8
equipamentos
 10
-9.486144
 20
38.710226
  0
VERTEX
  8
equipamentos
 10
-9.486194
 20
38.710250
  0
VERTEX
  8
equipamentos
 10
-9.486251
 20
38.710227
  0
VERTEX
  8
equipamentos
 10
-9.486279
 20
38.710242
  0
VERTEX
  8
equipamentos
 10
-9.486279
 20
38.710229
  0
VERTEX
  8
equipamentos
 10
-9.486214
 20
38.710176
  0
VERTEX
  8
equipamentos
 10
-9.486261
 20
38.710143
  0
VERTEX
  8
equipamentos
 10
-9.486345
 20
38.710107
  0
VERTEX
  8
equipamentos
 10
-9.486376
 20
38.710144
  0
VERTEX
  8
equipamentos
 10
-9.486317
 20
38.710192
  0
VERTEX
  8
equipamentos
 10
-9.486339
 20
38.710209
  0
VERTEX
  8
equipamentos
 10
-9.486391
 20
38.710165
  0
VERTEX
  8
equipamentos
 10
-9.486424
 20
38.710184
  0
VERTEX
  8
equipamentos
 10
-9.486460
 20
38.710175
  0
VERTEX
  8
equipamentos
 10
-9.486532
 20
38.710215
  0
VERTEX
  8
equipamentos
 10
-9.486536
 20
38.710256
  0
VERTEX
  8
equipamentos
 10
-9.486465
 20
38.710288
  0
VERTEX
  8
equipamentos
 10
-9.486415
 20
38.710292
  0
VERTEX
  8
equipamentos
 10
-9.486428
 20
38.710266
  0
VERTEX
  8
equipamentos
 10
-9.486385
 20
38.710288
  0
VERTEX
  8
equipamentos
 10
-9.486310
 20
38.710268
  0
VERTEX
  8
equipamentos
 10
-9.486296
 20
38.710266
  0
VERTEX
  8
equipamentos
 10
-9.486282
 20
38.710253
  0
VERTEX
  8
equipamentos
 10
-9.486288
 20
38.710296
  0
VERTEX
  8
equipamentos
 10
-9.486253
 20
38.710342
  0
VERTEX
  8
equipamentos
 10
-9.486228
 20
38.710448
  0
VERTEX
  8
equipamentos
 10
-9.486160
 20
38.710501
  0
VERTEX
  8
equipamentos
 10
-9.486113
 20
38.710497
  0
VERTEX
  8
equipamentos
 10
-9.486079
 20
38.710447
  0
VERTEX
  8
equipamentos
 10
-9.486029
 20
38.710454
  0
VERTEX
  8
equipamentos
 10
-9.486008
 20
38.710496
  0
VERTEX
  8
equipamentos
 10
-9.485978
 20
38.710505
  0
VERTEX
  8
equipamentos
 10
-9.485936
 20
38.710484
  0
VERTEX
  8
equipamentos
 10
-9.485893
 20
38.710512
  0
VERTEX
  8
equipamentos
 10
-9.485868
 20
38.710513
  0
VERTEX
  8
equipamentos
 10
-9.485851
 20
38.710478
  0
VERTEX
  8
equipamentos
 10
-9.485778
 20
38.710587
  0
VERTEX
  8
equipamentos
 10
-9.485777
 20
38.710656
  0
VERTEX
  8
equipamentos
 10
-9.485805
 20
38.710701
  0
VERTEX
  8
equipamentos
 10
-9.485847
 20
38.710720
  0
VERTEX
  8
equipamentos
 10
-9.485824
 20
38.710802
  0
VERTEX
  8
equipamentos
 10
-9.485841
 20
38.710832
  0
VERTEX
  8
equipamentos
 10
-9.485767
 20
38.710876
  0
VERTEX
  8
equipamentos
 10
-9.485765
 20
38.710896
  0
VERTEX
  8
equipamentos
 10
-9.485911
 20
38.710881
  0
VERTEX
  8
equipamentos
 10
-9.485991
 20
38.710904
  0
VERTEX
  8
equipamentos
 10
-9.486035
 20
38.710917
  0
VERTEX
  8
equipamentos
 10
-9.486047
 20
38.710953
  0
VERTEX
  8
equipamentos
 10
-9.486127
 20
38.710954
  0
VERTEX
  8
equipamentos
 10
-9.486137
 20
38.711054
  0
VERTEX
  8
equipamentos
 10
-9.486097
 20
38.711097
  0
VERTEX
  8
equipamentos
 10
-9.486061
 20
38.711128
  0
VERTEX
  8
equipamentos
 10
-9.486067
 20
38.711134
  0
VERTEX
  8
equipamentos
 10
-9.485991
 20
38.711178
  0
VERTEX
  8
equipamentos
 10
-9.485981
 20
38.711220
  0
VERTEX
  8
equipamentos
 10
-9.486024
 20
38.711323
  0
VERTEX
  8
equipamentos
 10
-9.486024
 20
38.711342
  0
VERTEX
  8
equipamentos
 10
-9.485986
 20
38.711351
  0
VERTEX
  8
equipamentos
 10
-9.485963
 20
38.711336
  0
VERTEX
  8
equipamentos
 10
-9.485936
 20
38.711330
  0
VERTEX
  8
equipamentos
 10
-9.485925
 20
38.711345
  0
VERTEX
  8
equipamentos
 10
-9.485948
 20
38.711367
  0
VERTEX
  8
equipamentos
 10
-9.485969
 20
38.711367
  0
VERTEX
  8
equipamentos
 10
-9.485989
 20
38.711386
  0
VERTEX
  8
equipamentos
 10
-9.485941
 20
38.711455
  0
VERTEX
  8
equipamentos
 10
-9.485954
 20
38.711593
  0
VERTEX
  8
equipamentos
 10
-9.485958
 20
38.711626
  0
VERTEX
  8
equipamentos
 10
-9.485926
 20
38.711672
  0
VERTEX
  8
equipamentos
 10
-9.485880
 20
38.711717
  0
VERTEX
  8
equipamentos
 10
-9.485859
 20
38.711763
  0
VERTEX
  8
equipamentos
 10
-9.485842
 20
38.711772
  0
VERTEX
  8
equipamentos
 10
-9.485873
 20
38.711821
  0
VERTEX
  8
equipamentos
 10
-9.485844
 20
38.711869
  0
VERTEX
  8
equipamentos
 10
-9.485850
 20
38.711914
  0
VERTEX
  8
equipamentos
 10
-9.485851
 20
38.711942
  0
VERTEX
  8
equipamentos
 10
-9.485879
 20
38.711987
  0
VERTEX
  8
equipamentos
 10
-9.485819
 20
38.712025
  0
VERTEX
  8
equipamentos
 10
-9.485728
 20
38.712006
  0
VERTEX
  8
equipamentos
 10
-9.485704
 20
38.712041
  0
VERTEX
  8
equipamentos
 10
-9.485670
 20
38.712016
  0
VERTEX
  8
equipamentos
 10
-9.485637
 20
38.712033
  0
VERTEX
  8
equipamentos
 10
-9.485601
 20
38.712004
  0
VERTEX
  8
equipamentos
 10
-9.485522
 20
38.712041
  0
VERTEX
  8
equipamentos
 10
-9.485348
 20
38.712045
  0
VERTEX
  8
equipamentos
 10
-9.485281
 20
38.712007
  0
VERTEX
  8
equipamentos
 10
-9.485223
 20
38.711963
  0
VERTEX
  8
equipamentos
 10
-9.485105
 20
38.712031
  0
VERTEX
  8
equipamentos
 10
-9.485015
 20
38.712034
  0
VERTEX
  8
equipamentos
 10
-9.484934
 20
38.712121
  0
VERTEX
  8
equipamentos
 10
-9.484965
 20
38.712179
  0
VERTEX
  8
equipamentos
 10
-9.484966
 20
38.712246
  0
VERTEX
  8
equipamentos
 10
-9.485044
 20
38.712260
  0
VERTEX
  8
equipamentos
 10
-9.485051
 20
38.712349
  0
VERTEX
  8
equipamentos
 10
-9.484890
 20
38.712426
  0
VERTEX
  8
equipamentos
 10
-9.484861
 20
38.712399
  0
VERTEX
  8
equipamentos
 10
-9.484820
 20
38.712419
  0
VERTEX
  8
equipamentos
 10
-9.484759
 20
38.712387
  0
VERTEX
  8
equipamentos
 10
-9.484741
 20
38.712601
  0
VERTEX
  8
equipamentos
 10
-9.484764
 20
38.712640
  0
VERTEX
  8
equipamentos
 10
-9.484671
 20
38.712695
  0
VERTEX
  8
equipamentos
 10
-9.484712
 20
38.712781
  0
VERTEX
  8
equipamentos
 10
-9.484721
 20
38.712830
  0
VERTEX
  8
equipamentos
 10
-9.484636
 20
38.712872
  0
VERTEX
  8
equipamentos
 10
-9.484629
 20
38.712926
  0
VERTEX
  8
equipamentos
 10
-9.484674
 20
38.712988
  0
VERTEX
  8
equipamentos
 10
-9.484705
 20
38.713046
  0
VERTEX
  8
equipamentos
 10
-9.484747
 20
38.713059
  0
VERTEX
  8
equipamentos
 10
-9.484749
 20
38.713149
  0
VERTEX
  8
equipamentos
 10
-9.484837
 20
38.713172
  0
VERTEX
  8
equipamentos
 10
-9.484934
 20
38.713152
  0
VERTEX
  8
equipamentos
 10
-9.484967
 20
38.713162
  0
VERTEX
  8
equipamentos
 10
-9.484985
 20
38.713123
  0
VERTEX
  8
equipamentos
 10
-9.485081
 20
38.713122
  0
VERTEX
  8
equipamentos
 10
-9.485164
 20
38.713091
  0
VERTEX
  8
equipamentos
 10
-9.485213
 20
38.713056
  0
VERTEX
  8
equipamentos
 10
-9.485216
 20
38.713060
  0
VERTEX
  8
equipamentos
 10
-9.485210
 20
38.713321
  0
VERTEX
  8
equipamentos
 10
-9.485180
 20
38.713378
  0
VERTEX
  8
equipamentos
 10
-9.485236
 20
38.713383
  0
VERTEX
  8
equipamentos
 10
-9.485236
 20
38.713403
  0
VERTEX
  8
equipamentos
 10
-9.485192
 20
38.713419
  0
VERTEX
  8
equipamentos
 10
-9.485148
 20
38.713395
  0
VERTEX
  8
equipamentos
 10
-9.485082
 20
38.713420
  0
VERTEX
  8
equipamentos
 10
-9.485017
 20
38.713477
  0
VERTEX
  8
equipamentos
 10
-9.484945
 20
38.713469
  0
VERTEX
  8
equipamentos
 10
-9.484912
 20
38.713351
  0
VERTEX
  8
equipamentos
 10
-9.484844
 20
38.713256
  0
VERTEX
  8
equipamentos
 10
-9.484759
 20
38.713257
  0
VERTEX
  8
equipamentos
 10
-9.484883
 20
38.713571
  0
VERTEX
  8
equipamentos
 10
-9.484892
 20
38.713595
  0
VERTEX
  8
equipamentos
 10
-9.484843
 20
38.713626
  0
VERTEX
  8
equipamentos
 10
-9.484825
 20
38.713708
  0
VERTEX
  8
equipamentos
 10
-9.484699
 20
38.713714
  0
VERTEX
  8
equipamentos
 10
-9.484699
 20
38.713752
  0
VERTEX
  8
equipamentos
 10
-9.484764
 20
38.713784
  0
VERTEX
  8
equipamentos
 10
-9.484768
 20
38.713868
  0
VERTEX
  8
equipamentos
 10
-9.484831
 20
38.713868
  0
VERTEX
  8
equipamentos
 10
-9.484818
 20
38.714032
  0
VERTEX
  8
equipamentos
 10
-9.484746
 20
38.714188
  0
VERTEX
  8
equipamentos
 10
-9.484737
 20
38.714275
  0
VERTEX
  8
equipamentos
 10
-9.484687
 20
38.714401
  0
VERTEX
  8
equipamentos
 10
-9.484609
 20
38.714501
  0
VERTEX
  8
equipamentos
 10
-9.484649
 20
38.714600
  0
VERTEX
  8
equipamentos
 10
-9.484594
 20
38.714713
  0
VERTEX
  8
equipamentos
 10
-9.484517
 20
38.714797
  0
VERTEX
  8
equipamentos
 10
-9.484422
 20
38.714804
  0
VERTEX
  8
equipamentos
 10
-9.484501
 20
38.714932
  0
VERTEX
  8
equipamentos
 10
-9.484363
 20
38.714888
  0
VERTEX
  8
equipamentos
 10
-9.484337
 20
38.714724
  0
VERTEX
  8
equipamentos
 10
-9.484264
 20
38.714769
  0
VERTEX
  8
equipamentos
 10
-9.484280
 20
38.714796
  0
VERTEX
  8
equipamentos
 10
-9.484283
 20
38.714817
  0
VERTEX
  8
equipamentos
 10
-9.484090
 20
38.714900
  0
VERTEX
  8
equipamentos
 10
-9.484044
 20
38.714938
  0
VERTEX
  8
equipamentos
 10
-9.484010
 20
38.714963
  0
VERTEX
  8
equipamentos
 10
-9.484008
 20
38.715002
  0
VERTEX
  8
equipamentos
 10
-9.483979
 20
38.715000
  0
VERTEX
  8
equipamentos
 10
-9.484013
 20
38.715019
  0
VERTEX
  8
equipamentos
 10
-9.484067
 20
38.715051
  0
VERTEX
  8
equipamentos
 10
-9.484141
 20
38.715116
  0
VERTEX
  8
equipamentos
 10
-9.484257
 20
38.715109
  0
VERTEX
  8
equipamentos
 10
-9.484247
 20
38.715144
  0
VERTEX
  8
equipamentos
 10
-9.484256
 20
38.715202
  0
VERTEX
  8
equipamentos
 10
-9.484254
 20
38.715237
  0
VERTEX
  8
equipamentos
 10
-9.484231
 20
38.715254
  0
VERTEX
  8
equipamentos
 10
-9.484282
 20
38.715308
  0
VERTEX
  8
equipamentos
 10
-9.484285
 20
38.715350
  0
VERTEX
  8
equipamentos
 10
-9.484247
 20
38.715387
  0
VERTEX
  8
equipamentos
 10
-9.484234
 20
38.715418
  0
VERTEX
  8
equipamentos
 10
-9.484208
 20
38.715421
  0
VERTEX
  8
equipamentos
 10
-9.484179
 20
38.715411
  0
VERTEX
  8
equipamentos
 10
-9.484131
 20
38.715408
  0
VERTEX
  8
equipamentos
 10
-9.484116
 20
38.715424
  0
VERTEX
  8
equipamentos
 10
-9.484072
 20
38.715447
  0
VERTEX
  8
equipamentos
 10
-9.484060
 20
38.715426
  0
VERTEX
  8
equipamentos
 10
-9.484120
 20
38.715383
  0
VERTEX
  8
equipamentos
 10
-9.484073
 20
38.715384
  0
VERTEX
  8
equipamentos
 10
-9.484003
 20
38.715425
  0
VERTEX
  8
equipamentos
 10
-9.483949
 20
38.715507
  0
VERTEX
  8
equipamentos
 10
-9.483873
 20
38.715637
  0
VERTEX
  8
equipamentos
 10
-9.483826
 20
38.715676
  0
VERTEX
  8
equipamentos
 10
-9.483755
 20
38.715696
  0
VERTEX
  8
equipamentos
 10
-9.483699
 20
38.715759
  0
VERTEX
  8
equipamentos
 10
-9.483658
 20
38.715809
  0
VERTEX
  8
equipamentos
 10
-9.483624
 20
38.715816
  0
VERTEX
  8
equipamentos
 10
-9.483583
 20
38.715772
  0
VERTEX
  8
equipamentos
 10
-9.483537
 20
38.715691
  0
VERTEX
  8
equipamentos
 10
-9.483510
 20
38.715635
  0
VERTEX
  8
equipamentos
 10
-9.483505
 20
38.715660
  0
VERTEX
  8
equipamentos
 10
-9.483557
 20
38.715743
  0
VERTEX
  8
equipamentos
 10
-9.483602
 20
38.715806
  0
VERTEX
  8
equipamentos
 10
-9.483646
 20
38.715858
  0
VERTEX
  8
equipamentos
 10
-9.483683
 20
38.715909
  0
VERTEX
  8
equipamentos
 10
-9.483663
 20
38.715939
  0
VERTEX
  8
equipamentos
 10
-9.483639
 20
38.715935
  0
VERTEX
  8
equipamentos
 10
-9.483633
 20
38.715910
  0
VERTEX
  8
equipamentos
 10
-9.483593
 20
38.715866
  0
VERTEX
  8
equipamentos
 10
-9.483593
 20
38.715882
  0
VERTEX
  8
equipamentos
 10
-9.483605
 20
38.715961
  0
VERTEX
  8
equipamentos
 10
-9.483588
 20
38.715999
  0
VERTEX
  8
equipamentos
 10
-9.483567
 20
38.716000
  0
VERTEX
  8
equipamentos
 10
-9.483543
 20
38.715996
  0
VERTEX
  8
equipamentos
 10
-9.483519
 20
38.715973
  0
VERTEX
  8
equipamentos
 10
-9.483485
 20
38.715977
  0
VERTEX
  8
equipamentos
 10
-9.483454
 20
38.715999
  0
VERTEX
  8
equipamentos
 10
-9.483454
 20
38.716015
  0
VERTEX
  8
equipamentos
 10
-9.483496
 20
38.716037
  0
VERTEX
  8
equipamentos
 10
-9.483494
 20
38.716060
  0
VERTEX
  8
equipamentos
 10
-9.483484
 20
38.716064
  0
VERTEX
  8
equipamentos
 10
-9.483452
 20
38.716071
  0
VERTEX
  8
equipamentos
 10
-9.483439
 20
38.716080
  0
VERTEX
  8
equipamentos
 10
-9.483440
 20
38.716102
  0
VERTEX
  8
equipamentos
 10
-9.483416
 20
38.716112
  0
VERTEX
  8
equipamentos
 10
-9.483372
 20
38.716120
  0
VERTEX
  8
equipamentos
 10
-9.483383
 20
38.716143
  0
VERTEX
  8
equipamentos
 10
-9.483433
 20
38.716146
  0
VERTEX
  8
equipamentos
 10
-9.483467
 20
38.716159
  0
VERTEX
  8
equipamentos
 10
-9.483465
 20
38.716190
  0
VERTEX
  8
equipamentos
 10
-9.483434
 20
38.716245
  0
VERTEX
  8
equipamentos
 10
-9.483401
 20
38.716293
  0
VERTEX
  8
equipamentos
 10
-9.483325
 20
38.716323
  0
VERTEX
  8
equipamentos
 10
-9.483226
 20
38.716373
  0
VERTEX
  8
equipamentos
 10
-9.483180
 20
38.716415
  0
VERTEX
  8
equipamentos
 10
-9.483154
 20
38.716447
  0
VERTEX
  8
equipamentos
 10
-9.483120
 20
38.716468
  0
VERTEX
  8
equipamentos
 10
-9.483073
 20
38.716469
  0
VERTEX
  8
equipamentos
 10
-9.483039
 20
38.716452
  0
VERTEX
  8
equipamentos
 10
-9.482999
 20
38.716429
  0
VERTEX
  8
equipamentos
 10
-9.482998
 20
38.716375
  0
VERTEX
  8
equipamentos
 10
-9.482999
 20
38.716315
  0
VERTEX
  8
equipamentos
 10
-9.482969
 20
38.716258
  0
VERTEX
  8
equipamentos
 10
-9.482947
 20
38.716204
  0
VERTEX
  8
equipamentos
 10
-9.482918
 20
38.716168
  0
VERTEX
  8
equipamentos
 10
-9.482914
 20
38.716123
  0
VERTEX
  8
equipamentos
 10
-9.482908
 20
38.716098
  0
VERTEX
  8
equipamentos
 10
-9.482885
 20
38.716091
  0
VERTEX
  8
equipamentos
 10
-9.482848
 20
38.716099
  0
VERTEX
  8
equipamentos
 10
-9.482812
 20
38.716130
  0
VERTEX
  8
equipamentos
 10
-9.482804
 20
38.716167
  0
VERTEX
  8
equipamentos
 10
-9.482834
 20
38.716360
  0
VERTEX
  8
equipamentos
 10
-9.482835
 20
38.716545
  0
VERTEX
  8
equipamentos
 10
-9.482802
 20
38.716578
  0
VERTEX
  8
equipamentos
 10
-9.482753
 20
38.716625
  0
VERTEX
  8
equipamentos
 10
-9.482661
 20
38.716661
  0
VERTEX
  8
equipamentos
 10
-9.482578
 20
38.716676
  0
VERTEX
  8
equipamentos
 10
-9.482446
 20
38.716675
  0
VERTEX
  8
equipamentos
 10
-9.482417
 20
38.716664
  0
VERTEX
  8
equipamentos
 10
-9.482366
 20
38.716632
  0
VERTEX
  8
equipamentos
 10
-9.482294
 20
38.716569
  0
VERTEX
  8
equipamentos
 10
-9.482235
 20
38.716483
  0
VERTEX
  8
equipamentos
 10
-9.482187
 20
38.716448
  0
VERTEX
  8
equipamentos
 10
-9.482136
 20
38.716402
  0
VERTEX
  8
equipamentos
 10
-9.482093
 20
38.716357
  0
VERTEX
  8
equipamentos
 10
-9.482061
 20
38.716328
  0
VERTEX
  8
equipamentos
 10
-9.482018
 20
38.716307
  0
VERTEX
  8
equipamentos
 10
-9.481968
 20
38.716312
  0
VERTEX
  8
equipamentos
 10
-9.481969
 20
38.716325
  0
VERTEX
  8
equipamentos
 10
-9.481990
 20
38.716342
  0
VERTEX
  8
equipamentos
 10
-9.482054
 20
38.716375
  0
VERTEX
  8
equipamentos
 10
-9.482145
 20
38.716443
  0
VERTEX
  8
equipamentos
 10
-9.482193
 20
38.716485
  0
VERTEX
  8
equipamentos
 10
-9.482225
 20
38.716548
  0
VERTEX
  8
equipamentos
 10
-9.482253
 20
38.716631
  0
VERTEX
  8
equipamentos
 10
-9.482251
 20
38.716654
  0
VERTEX
  8
equipamentos
 10
-9.482235
 20
38.716664
  0
VERTEX
  8
equipamentos
 10
-9.482209
 20
38.716645
  0
VERTEX
  8
equipamentos
 10
-9.482148
 20
38.716609
  0
VERTEX
  8
equipamentos
 10
-9.482108
 20
38.716584
  0
VERTEX
  8
equipamentos
 10
-9.482054
 20
38.716543
  0
VERTEX
  8
equipamentos
 10
-9.482025
 20
38.716545
  0
VERTEX
  8
equipamentos
 10
-9.482050
 20
38.716566
  0
VERTEX
  8
equipamentos
 10
-9.482132
 20
38.716623
  0
VERTEX
  8
equipamentos
 10
-9.482239
 20
38.716737
  0
VERTEX
  8
equipamentos
 10
-9.482264
 20
38.716783
  0
VERTEX
  8
equipamentos
 10
-9.482265
 20
38.716841
  0
VERTEX
  8
equipamentos
 10
-9.482242
 20
38.716888
  0
VERTEX
  8
equipamentos
 10
-9.482233
 20
38.716938
  0
VERTEX
  8
equipamentos
 10
-9.482268
 20
38.717008
  0
VERTEX
  8
equipamentos
 10
-9.482259
 20
38.717058
  0
VERTEX
  8
equipamentos
 10
-9.482278
 20
38.717129
  0
VERTEX
  8
equipamentos
 10
-9.482285
 20
38.717197
  0
VERTEX
  8
equipamentos
 10
-9.482270
 20
38.717231
  0
VERTEX
  8
equipamentos
 10
-9.482198
 20
38.717315
  0
VERTEX
  8
equipamentos
 10
-9.482144
 20
38.717393
  0
VERTEX
  8
equipamentos
 10
-9.482006
 20
38.717457
  0
VERTEX
  8
equipamentos
 10
-9.481973
 20
38.717515
  0
VERTEX
  8
equipamentos
 10
-9.481944
 20
38.717552
  0
VERTEX
  8
equipamentos
 10
-9.481824
 20
38.717567
  0
VERTEX
  8
equipamentos
 10
-9.481755
 20
38.717556
  0
VERTEX
  8
equipamentos
 10
-9.481704
 20
38.717491
  0
VERTEX
  8
equipamentos
 10
-9.481637
 20
38.717430
  0
VERTEX
  8
equipamentos
 10
-9.481583
 20
38.717334
  0
VERTEX
  8
equipamentos
 10
-9.481539
 20
38.717251
  0
VERTEX
  8
equipamentos
 10
-9.481488
 20
38.717206
  0
VERTEX
  8
equipamentos
 10
-9.481448
 20
38.717168
  0
VERTEX
  8
equipamentos
 10
-9.481379
 20
38.717139
  0
VERTEX
  8
equipamentos
 10
-9.481385
 20
38.717159
  0
VERTEX
  8
equipamentos
 10
-9.481422
 20
38.717191
  0
VERTEX
  8
equipamentos
 10
-9.481516
 20
38.717283
  0
VERTEX
  8
equipamentos
 10
-9.481678
 20
38.717507
  0
VERTEX
  8
equipamentos
 10
-9.481687
 20
38.717557
  0
VERTEX
  8
equipamentos
 10
-9.481679
 20
38.717576
  0
VERTEX
  8
equipamentos
 10
-9.481640
 20
38.717590
  0
VERTEX
  8
equipamentos
 10
-9.481587
 20
38.717560
  0
VERTEX
  8
equipamentos
 10
-9.481524
 20
38.717580
  0
VERTEX
  8
equipamentos
 10
-9.481496
 20
38.717604
  0
VERTEX
  8
equipamentos
 10
-9.481499
 20
38.717617
  0
VERTEX
  8
equipamentos
 10
-9.481520
 20
38.717626
  0
VERTEX
  8
equipamentos
 10
-9.481534
 20
38.717649
  0
VERTEX
  8
equipamentos
 10
-9.481464
 20
38.717724
  0
VERTEX
  8
equipamentos
 10
-9.481410
 20
38.717804
  0
VERTEX
  8
equipamentos
 10
-9.481387
 20
38.717837
  0
VERTEX
  8
equipamentos
 10
-9.481316
 20
38.717843
  0
VERTEX
  8
equipamentos
 10
-9.481262
 20
38.717875
  0
VERTEX
  8
equipamentos
 10
-9.481220
 20
38.717916
  0
VERTEX
  8
equipamentos
 10
-9.481171
 20
38.717949
  0
VERTEX
  8
equipamentos
 10
-9.481028
 20
38.718003
  0
VERTEX
  8
equipamentos
 10
-9.480967
 20
38.718021
  0
VERTEX
  8
equipamentos
 10
-9.480965
 20
38.718037
  0
VERTEX
  8
equipamentos
 10
-9.480984
 20
38.718048
  0
VERTEX
  8
equipamentos
 10
-9.481111
 20
38.718097
  0
VERTEX
  8
equipamentos
 10
-9.481148
 20
38.718108
  0
VERTEX
  8
equipamentos
 10
-9.481164
 20
38.718121
  0
VERTEX
  8
equipamentos
 10
-9.481164
 20
38.718135
  0
VERTEX
  8
equipamentos
 10
-9.481151
 20
38.718139
  0
VERTEX
  8
equipamentos
 10
-9.481090
 20
38.718134
  0
VERTEX
  8
equipamentos
 10
-9.481038
 20
38.718148
  0
VERTEX
  8
equipamentos
 10
-9.481007
 20
38.718173
  0
VERTEX
  8
equipamentos
 10
-9.481013
 20
38.718195
  0
VERTEX
  8
equipamentos
 10
-9.481034
 20
38.718218
  0
VERTEX
  8
equipamentos
 10
-9.481308
 20
38.718245
  0
VERTEX
  8
equipamentos
 10
-9.481260
 20
38.718350
  0
VERTEX
  8
equipamentos
 10
-9.481222
 20
38.718408
  0
VERTEX
  8
equipamentos
 10
-9.481162
 20
38.718448
  0
VERTEX
  8
equipamentos
 10
-9.481066
 20
38.718489
  0
VERTEX
  8
equipamentos
 10
-9.481011
 20
38.718542
  0
VERTEX
  8
equipamentos
 10
-9.480959
 20
38.718553
  0
VERTEX
  8
equipamentos
 10
-9.480895
 20
38.718540
  0
VERTEX
  8
equipamentos
 10
-9.480849
 20
38.718563
  0
VERTEX
  8
equipamentos
 10
-9.480816
 20
38.718620
  0
VERTEX
  8
equipamentos
 10
-9.480795
 20
38.718634
  0
VERTEX
  8
equipamentos
 10
-9.480771
 20
38.718634
  0
VERTEX
  8
equipamentos
 10
-9.480739
 20
38.718617
  0
VERTEX
  8
equipamentos
 10
-9.480718
 20
38.718629
  0
VERTEX
  8
equipamentos
 10
-9.480706
 20
38.718650
  0
VERTEX
  8
equipamentos
 10
-9.480677
 20
38.718676
  0
VERTEX
  8
equipamentos
 10
-9.480635
 20
38.718674
  0
VERTEX
  8
equipamentos
 10
-9.480635
 20
38.718674
  0
VERTEX
  8
equipamentos
 10
-9.480603
 20
38.718663
  0
VERTEX
  8
equipamentos
 10
-9.480574
 20
38.718654
  0
VERTEX
  8
equipamentos
 10
-9.480516
 20
38.718654
  0
VERTEX
  8
equipamentos
 10
-9.480475
 20
38.718691
  0
VERTEX
  8
equipamentos
 10
-9.480447
 20
38.718736
  0
VERTEX
  8
equipamentos
 10
-9.480459
 20
38.718808
  0
VERTEX
  8
equipamentos
 10
-9.480444
 20
38.718860
  0
VERTEX
  8
equipamentos
 10
-9.480408
 20
38.718883
  0
VERTEX
  8
equipamentos
 10
-9.480326
 20
38.718896
  0
VERTEX
  8
equipamentos
 10
-9.480263
 20
38.718879
  0
VERTEX
  8
equipamentos
 10
-9.480231
 20
38.718858
  0
VERTEX
  8
equipamentos
 10
-9.480173
 20
38.718867
  0
VERTEX
  8
equipamentos
 10
-9.480115
 20
38.718856
  0
VERTEX
  8
equipamentos
 10
-9.480063
 20
38.718870
  0
VERTEX
  8
equipamentos
 10
-9.479993
 20
38.718898
  0
VERTEX
  8
equipamentos
 10
-9.479967
 20
38.718935
  0
VERTEX
  8
equipamentos
 10
-9.479950
 20
38.719020
  0
VERTEX
  8
equipamentos
 10
-9.479948
 20
38.719068
  0
VERTEX
  8
equipamentos
 10
-9.479999
 20
38.719128
  0
VERTEX
  8
equipamentos
 10
-9.480016
 20
38.719187
  0
VERTEX
  8
equipamentos
 10
-9.480008
 20
38.719280
  0
VERTEX
  8
equipamentos
 10
-9.479972
 20
38.719321
  0
VERTEX
  8
equipamentos
 10
-9.479885
 20
38.719357
  0
VERTEX
  8
equipamentos
 10
-9.479831
 20
38.719398
  0
VERTEX
  8
equipamentos
 10
-9.479827
 20
38.719483
  0
VERTEX
  8
equipamentos
 10
-9.479835
 20
38.719614
  0
VERTEX
  8
equipamentos
 10
-9.479808
 20
38.719692
  0
VERTEX
  8
equipamentos
 10
-9.479685
 20
38.719732
  0
VERTEX
  8
equipamentos
 10
-9.479572
 20
38.719743
  0
VERTEX
  8
equipamentos
 10
-9.479503
 20
38.719732
  0
VERTEX
  8
equipamentos
 10
-9.479446
 20
38.719735
  0
VERTEX
  8
equipamentos
 10
-9.479375
 20
38.719761
  0
VERTEX
  8
equipamentos
 10
-9.479268
 20
38.719955
  0
VERTEX
  8
equipamentos
 10
-9.479071
 20
38.720253
  0
VERTEX
  8
equipamentos
 10
-9.478991
 20
38.720435
  0
VERTEX
  8
equipamentos
 10
-9.479025
 20
38.720597
  0
VERTEX
  8
equipamentos
 10
-9.479082
 20
38.720705
  0
VERTEX
  8
equipamentos
 10
-9.479083
 20
38.720753
  0
VERTEX
  8
equipamentos
 10
-9.479045
 20
38.720790
  0
VERTEX
  8
equipamentos
 10
-9.478959
 20
38.720872
  0
VERTEX
  8
equipamentos
 10
-9.478894
 20
38.721010
  0
VERTEX
  8
equipamentos
 10
-9.478841
 20
38.721165
  0
VERTEX
  8
equipamentos
 10
-9.478863
 20
38.721312
  0
VERTEX
  8
equipamentos
 10
-9.478874
 20
38.721378
  0
VERTEX
  8
equipamentos
 10
-9.478955
 20
38.721485
  0
VERTEX
  8
equipamentos
 10
-9.479012
 20
38.721567
  0
VERTEX
  8
equipamentos
 10
-9.479103
 20
38.721651
  0
VERTEX
  8
equipamentos
 10
-9.479210
 20
38.721737
  0
VERTEX
  8
equipamentos
 10
-9.479243
 20
38.721820
  0
VERTEX
  8
equipamentos
 10
-9.479252
 20
38.721873
  0
VERTEX
  8
equipamentos
 10
-9.479242
 20
38.721931
  0
VERTEX
  8
equipamentos
 10
-9.479254
 20
38.721982
  0
VERTEX
  8
equipamentos
 10
-9.479273
 20
38.722022
  0
VERTEX
  8
equipamentos
 10
-9.479269
 20
38.722072
  0
VERTEX
  8
equipamentos
 10
-9.479232
 20
38.722109
  0
VERTEX
  8
equipamentos
 10
-9.479186
 20
38.722139
  0
VERTEX
  8
equipamentos
 10
-9.479004
 20
38.722141
  0
VERTEX
  8
equipamentos
 10
-9.478947
 20
38.722157
  0
VERTEX
  8
equipamentos
 10
-9.478923
 20
38.722177
  0
VERTEX
  8
equipamentos
 10
-9.478840
 20
38.722238
  0
VERTEX
  8
equipamentos
 10
-9.478783
 20
38.722275
  0
VERTEX
  8
equipamentos
 10
-9.478747
 20
38.722295
  0
VERTEX
  8
equipamentos
 10
-9.478742
 20
38.722322
  0
VERTEX
  8
equipamentos
 10
-9.478748
 20
38.722360
  0
VERTEX
  8
equipamentos
 10
-9.478794
 20
38.722441
  0
VERTEX
  8
equipamentos
 10
-9.478848
 20
38.722498
  0
VERTEX
  8
equipamentos
 10
-9.478951
 20
38.722539
  0
VERTEX
  8
equipamentos
 10
-9.479005
 20
38.722581
  0
VERTEX
  8
equipamentos
 10
-9.479029
 20
38.722616
  0
VERTEX
  8
equipamentos
 10
-9.479029
 20
38.722647
  0
VERTEX
  8
equipamentos
 10
-9.479314
 20
38.722794
  0
VERTEX
  8
equipamentos
 10
-9.479386
 20
38.722845
  0
VERTEX
  8
equipamentos
 10
-9.479394
 20
38.722890
  0
VERTEX
  8
equipamentos
 10
-9.479400
 20
38.722932
  0
VERTEX
  8
equipamentos
 10
-9.479488
 20
38.722858
  0
VERTEX
  8
equipamentos
 10
-9.479580
 20
38.722830
  0
VERTEX
  8
equipamentos
 10
-9.479680
 20
38.722850
  0
VERTEX
  8
equipamentos
 10
-9.479749
 20
38.722872
  0
VERTEX
  8
equipamentos
 10
-9.479797
 20
38.722920
  0
VERTEX
  8
equipamentos
 10
-9.479809
 20
38.722964
  0
VERTEX
  8
equipamentos
 10
-9.479786
 20
38.723032
  0
VERTEX
  8
equipamentos
 10
-9.479722
 20
38.723095
  0
VERTEX
  8
equipamentos
 10
-9.479639
 20
38.723161
  0
VERTEX
  8
equipamentos
 10
-9.479595
 20
38.723220
  0
VERTEX
  8
equipamentos
 10
-9.479561
 20
38.723235
  0
VERTEX
  8
equipamentos
 10
-9.479498
 20
38.723252
  0
VERTEX
  8
equipamentos
 10
-9.479454
 20
38.723268
  0
VERTEX
  8
equipamentos
 10
-9.479435
 20
38.723274
  0
VERTEX
  8
equipamentos
 10
-9.479372
 20
38.723251
  0
VERTEX
  8
equipamentos
 10
-9.479338
 20
38.723252
  0
VERTEX
  8
equipamentos
 10
-9.479299
 20
38.723264
  0
VERTEX
  8
equipamentos
 10
-9.479148
 20
38.723381
  0
VERTEX
  8
equipamentos
 10
-9.479109
 20
38.723399
  0
VERTEX
  8
equipamentos
 10
-9.479080
 20
38.723398
  0
VERTEX
  8
equipamentos
 10
-9.479040
 20
38.723363
  0
VERTEX
  8
equipamentos
 10
-9.479003
 20
38.723344
  0
VERTEX
  8
equipamentos
 10
-9.478950
 20
38.723349
  0
VERTEX
  8
equipamentos
 10
-9.478919
 20
38.723368
  0
VERTEX
  8
equipamentos
 10
-9.478896
 20
38.723400
  0
VERTEX
  8
equipamentos
 10
-9.478860
 20
38.723441
  0
VERTEX
  8
equipamentos
 10
-9.478788
 20
38.723496
  0
VERTEX
  8
equipamentos
 10
-9.478659
 20
38.723532
  0
VERTEX
  8
equipamentos
 10
-9.478370
 20
38.723535
  0
VERTEX
  8
equipamentos
 10
-9.478186
 20
38.723533
  0
VERTEX
  8
equipamentos
 10
-9.478152
 20
38.723549
  0
VERTEX
  8
equipamentos
 10
-9.478086
 20
38.723531
  0
VERTEX
  8
equipamentos
 10
-9.478065
 20
38.723500
  0
VERTEX
  8
equipamentos
 10
-9.478043
 20
38.723489
  0
VERTEX
  8
equipamentos
 10
-9.478044
 20
38.723504
  0
VERTEX
  8
equipamentos
 10
-9.478018
 20
38.723528
  0
VERTEX
  8
equipamentos
 10
-9.477986
 20
38.723539
  0
VERTEX
  8
equipamentos
 10
-9.477931
 20
38.723532
  0
VERTEX
  8
equipamentos
 10
-9.477889
 20
38.723516
  0
VERTEX
  8
equipamentos
 10
-9.477865
 20
38.723523
  0
VERTEX
  8
equipamentos
 10
-9.477853
 20
38.723558
  0
VERTEX
  8
equipamentos
 10
-9.477843
 20
38.723597
  0
VERTEX
  8
equipamentos
 10
-9.477807
 20
38.723627
  0
VERTEX
  8
equipamentos
 10
-9.477765
 20
38.723750
  0
VERTEX
  8
equipamentos
 10
-9.477710
 20
38.723896
  0
VERTEX
  8
equipamentos
 10
-9.477689
 20
38.723927
  0
VERTEX
  8
equipamentos
 10
-9.477655
 20
38.723968
  0
VERTEX
  8
equipamentos
 10
-9.477637
 20
38.724034
  0
VERTEX
  8
equipamentos
 10
-9.477617
 20
38.724092
  0
VERTEX
  8
equipamentos
 10
-9.477607
 20
38.724115
  0
VERTEX
  8
equipamentos
 10
-9.477560
 20
38.724142
  0
VERTEX
  8
equipamentos
 10
-9.477529
 20
38.724158
  0
VERTEX
  8
equipamentos
 10
-9.477498
 20
38.724217
  0
VERTEX
  8
equipamentos
 10
-9.477448
 20
38.724294
  0
VERTEX
  8
equipamentos
 10
-9.477392
 20
38.724357
  0
VERTEX
  8
equipamentos
 10
-9.477328
 20
38.724396
  0
VERTEX
  8
equipamentos
 10
-9.477320
 20
38.724427
  0
VERTEX
  8
equipamentos
 10
-9.477303
 20
38.724481
  0
VERTEX
  8
equipamentos
 10
-9.477266
 20
38.724523
  0
VERTEX
  8
equipamentos
 10
-9.477204
 20
38.724556
  0
VERTEX
  8
equipamentos
 10
-9.477186
 20
38.724590
  0
VERTEX
  8
equipamentos
 10
-9.477182
 20
38.724634
  0
VERTEX
  8
equipamentos
 10
-9.477215
 20
38.724714
  0
VERTEX
  8
equipamentos
 10
-9.477230
 20
38.724741
  0
VERTEX
  8
equipamentos
 10
-9.477222
 20
38.724766
  0
VERTEX
  8
equipamentos
 10
-9.477180
 20
38.724843
  0
VERTEX
  8
equipamentos
 10
-9.477127
 20
38.724907
  0
VERTEX
  8
equipamentos
 10
-9.477121
 20
38.724947
  0
VERTEX
  8
equipamentos
 10
-9.477136
 20
38.724971
  0
VERTEX
  8
equipamentos
 10
-9.477131
 20
38.725132
  0
VERTEX
  8
equipamentos
 10
-9.477092
 20
38.725157
  0
VERTEX
  8
equipamentos
 10
-9.477030
 20
38.725201
  0
VERTEX
  8
equipamentos
 10
-9.477004
 20
38.725256
  0
VERTEX
  8
equipamentos
 10
-9.477009
 20
38.725315
  0
VERTEX
  8
equipamentos
 10
-9.476998
 20
38.725378
  0
VERTEX
  8
equipamentos
 10
-9.476972
 20
38.725439
  0
VERTEX
  8
equipamentos
 10
-9.476907
 20
38.725544
  0
VERTEX
  8
equipamentos
 10
-9.476885
 20
38.725597
  0
VERTEX
  8
equipamentos
 10
-9.476877
 20
38.725641
  0
VERTEX
  8
equipamentos
 10
-9.476899
 20
38.725689
  0
VERTEX
  8
equipamentos
 10
-9.476912
 20
38.725736
  0
VERTEX
  8
equipamentos
 10
-9.476913
 20
38.725773
  0
VERTEX
  8
equipamentos
 10
-9.476886
 20
38.725867
  0
VERTEX
  8
equipamentos
 10
-9.476833
 20
38.725962
  0
VERTEX
  8
equipamentos
 10
-9.476760
 20
38.726049
  0
VERTEX
  8
equipamentos
 10
-9.476727
 20
38.726080
  0
VERTEX
  8
equipamentos
 10
-9.476687
 20
38.726177
  0
VERTEX
  8
equipamentos
 10
-9.476635
 20
38.726272
  0
VERTEX
  8
equipamentos
 10
-9.476572
 20
38.726357
  0
VERTEX
  8
equipamentos
 10
-9.476492
 20
38.726393
  0
VERTEX
  8
equipamentos
 10
-9.476474
 20
38.726416
  0
VERTEX
  8
equipamentos
 10
-9.476462
 20
38.726461
  0
VERTEX
  8
equipamentos
 10
-9.476457
 20
38.726513
  0
VERTEX
  8
equipamentos
 10
-9.476441
 20
38.726536
  0
VERTEX
  8
equipamentos
 10
-9.476432
 20
38.726542
  0
VERTEX
  8
equipamentos
 10
-9.476407
 20
38.726546
  0
VERTEX
  8
equipamentos
 10
-9.476399
 20
38.726550
  0
VERTEX
  8
equipamentos
 10
-9.476394
 20
38.726557
  0
VERTEX
  8
equipamentos
 10
-9.476394
 20
38.726564
  0
VERTEX
  8
equipamentos
 10
-9.476401
 20
38.726563
  0
VERTEX
  8
equipamentos
 10
-9.476412
 20
38.726570
  0
VERTEX
  8
equipamentos
 10
-9.476402
 20
38.726579
  0
VERTEX
  8
equipamentos
 10
-9.476391
 20
38.726584
  0
VERTEX
  8
equipamentos
 10
-9.476353
 20
38.726586
  0
VERTEX
  8
equipamentos
 10
-9.476342
 20
38.726592
  0
VERTEX
  8
equipamentos
 10
-9.476331
 20
38.726607
  0
VERTEX
  8
equipamentos
 10
-9.476301
 20
38.726640
  0
VERTEX
  8
equipamentos
 10
-9.476287
 20
38.726667
  0
VERTEX
  8
equipamentos
 10
-9.476279
 20
38.726690
  0
VERTEX
  8
equipamentos
 10
-9.476291
 20
38.726697
  0
VERTEX
  8
equipamentos
 10
-9.476318
 20
38.726704
  0
VERTEX
  8
equipamentos
 10
-9.476494
 20
38.726694
  0
VERTEX
  8
equipamentos
 10
-9.476635
 20
38.726737
  0
VERTEX
  8
equipamentos
 10
-9.476686
 20
38.726751
  0
VERTEX
  8
equipamentos
 10
-9.476693
 20
38.726759
  0
VERTEX
  8
equipamentos
 10
-9.476676
 20
38.726764
  0
VERTEX
  8
equipamentos
 10
-9.476660
 20
38.726773
  0
VERTEX
  8
equipamentos
 10
-9.476638
 20
38.726773
  0
VERTEX
  8
equipamentos
 10
-9.476602
 20
38.726779
  0
VERTEX
  8
equipamentos
 10
-9.476566
 20
38.726789
  0
VERTEX
  8
equipamentos
 10
-9.476465
 20
38.726799
  0
VERTEX
  8
equipamentos
 10
-9.476433
 20
38.726812
  0
VERTEX
  8
equipamentos
 10
-9.476409
 20
38.726833
  0
VERTEX
  8
equipamentos
 10
-9.476398
 20
38.726847
  0
VERTEX
  8
equipamentos
 10
-9.476371
 20
38.726853
  0
VERTEX
  8
equipamentos
 10
-9.476326
 20
38.726856
  0
VERTEX
  8
equipamentos
 10
-9.476305
 20
38.726866
  0
VERTEX
  8
equipamentos
 10
-9.476292
 20
38.726875
  0
VERTEX
  8
equipamentos
 10
-9.476294
 20
38.726885
  0
VERTEX
  8
equipamentos
 10
-9.476311
 20
38.726890
  0
VERTEX
  8
equipamentos
 10
-9.476346
 20
38.726886
  0
VERTEX
  8
equipamentos
 10
-9.476380
 20
38.726890
  0
VERTEX
  8
equipamentos
 10
-9.476406
 20
38.726912
  0
VERTEX
  8
equipamentos
 10
-9.476446
 20
38.726930
  0
VERTEX
  8
equipamentos
 10
-9.476534
 20
38.726930
  0
VERTEX
  8
equipamentos
 10
-9.476563
 20
38.726936
  0
VERTEX
  8
equipamentos
 10
-9.476552
 20
38.726962
  0
VERTEX
  8
equipamentos
 10
-9.476522
 20
38.726976
  0
VERTEX
  8
equipamentos
 10
-9.476293
 20
38.727020
  0
VERTEX
  8
equipamentos
 10
-9.476197
 20
38.727064
  0
VERTEX
  8
equipamentos
 10
-9.476150
 20
38.727110
  0
VERTEX
  8
equipamentos
 10
-9.476118
 20
38.727181
  0
VERTEX
  8
equipamentos
 10
-9.476118
 20
38.727242
  0
VERTEX
  8
equipamentos
 10
-9.476146
 20
38.727370
  0
VERTEX
  8
equipamentos
 10
-9.476169
 20
38.727465
  0
VERTEX
  8
equipamentos
 10
-9.476183
 20
38.727552
  0
VERTEX
  8
equipamentos
 10
-9.476196
 20
38.727575
  0
VERTEX
  8
equipamentos
 10
-9.476206
 20
38.727576
  0
VERTEX
  8
equipamentos
 10
-9.476226
 20
38.727572
  0
VERTEX
  8
equipamentos
 10
-9.476238
 20
38.727559
  0
VERTEX
  8
equipamentos
 10
-9.476255
 20
38.727560
  0
VERTEX
  8
equipamentos
 10
-9.476298
 20
38.727581
  0
VERTEX
  8
equipamentos
 10
-9.476380
 20
38.727578
  0
VERTEX
  8
equipamentos
 10
-9.476433
 20
38.727593
  0
VERTEX
  8
equipamentos
 10
-9.476478
 20
38.727588
  0
VERTEX
  8
equipamentos
 10
-9.476529
 20
38.727590
  0
VERTEX
  8
equipamentos
 10
-9.476557
 20
38.727611
  0
VERTEX
  8
equipamentos
 10
-9.476565
 20
38.727632
  0
VERTEX
  8
equipamentos
 10
-9.476575
 20
38.727666
  0
VERTEX
  8
equipamentos
 10
-9.476580
 20
38.727714
  0
VERTEX
  8
equipamentos
 10
-9.476577
 20
38.727784
  0
VERTEX
  8
equipamentos
 10
-9.476567
 20
38.727806
  0
VERTEX
  8
equipamentos
 10
-9.476547
 20
38.727826
  0
VERTEX
  8
equipamentos
 10
-9.476539
 20
38.727849
  0
VERTEX
  8
equipamentos
 10
-9.476552
 20
38.727895
  0
VERTEX
  8
equipamentos
 10
-9.476572
 20
38.727935
  0
VERTEX
  8
equipamentos
 10
-9.476661
 20
38.727959
  0
VERTEX
  8
equipamentos
 10
-9.476778
 20
38.727979
  0
VERTEX
  8
equipamentos
 10
-9.476920
 20
38.728015
  0
VERTEX
  8
equipamentos
 10
-9.476956
 20
38.728041
  0
VERTEX
  8
equipamentos
 10
-9.476979
 20
38.728153
  0
VERTEX
  8
equipamentos
 10
-9.476982
 20
38.728252
  0
VERTEX
  8
equipamentos
 10
-9.476880
 20
38.728270
  0
VERTEX
  8
equipamentos
 10
-9.476847
 20
38.728281
  0
VERTEX
  8
equipamentos
 10
-9.476838
 20
38.728298
  0
VERTEX
  8
equipamentos
 10
-9.476848
 20
38.728319
  0
VERTEX
  8
equipamentos
 10
-9.476884
 20
38.728359
  0
VERTEX
  8
equipamentos
 10
-9.476897
 20
38.728357
  0
VERTEX
  8
equipamentos
 10
-9.476925
 20
38.728350
  0
VERTEX
  8
equipamentos
 10
-9.476939
 20
38.728363
  0
VERTEX
  8
equipamentos
 10
-9.476958
 20
38.728363
  0
VERTEX
  8
equipamentos
 10
-9.476979
 20
38.728372
  0
VERTEX
  8
equipamentos
 10
-9.476979
 20
38.728382
  0
VERTEX
  8
equipamentos
 10
-9.476963
 20
38.728394
  0
VERTEX
  8
equipamentos
 10
-9.476945
 20
38.728397
  0
VERTEX
  8
equipamentos
 10
-9.476924
 20
38.728402
  0
VERTEX
  8
equipamentos
 10
-9.476925
 20
38.728409
  0
VERTEX
  8
equipamentos
 10
-9.476927
 20
38.728415
  0
VERTEX
  8
equipamentos
 10
-9.476938
 20
38.728417
  0
VERTEX
  8
equipamentos
 10
-9.476963
 20
38.728408
  0
VERTEX
  8
equipamentos
 10
-9.476990
 20
38.728402
  0
VERTEX
  8
equipamentos
 10
-9.477013
 20
38.728399
  0
VERTEX
  8
equipamentos
 10
-9.477050
 20
38.728403
  0
VERTEX
  8
equipamentos
 10
-9.477047
 20
38.728430
  0
VERTEX
  8
equipamentos
 10
-9.477028
 20
38.728447
  0
VERTEX
  8
equipamentos
 10
-9.476925
 20
38.728475
  0
VERTEX
  8
equipamentos
 10
-9.476905
 20
38.728490
  0
VERTEX
  8
equipamentos
 10
-9.476906
 20
38.728503
  0
VERTEX
  8
equipamentos
 10
-9.476918
 20
38.728510
  0
VERTEX
  8
equipamentos
 10
-9.476932
 20
38.728513
  0
VERTEX
  8
equipamentos
 10
-9.476947
 20
38.728517
  0
VERTEX
  8
equipamentos
 10
-9.476953
 20
38.728525
  0
VERTEX
  8
equipamentos
 10
-9.476945
 20
38.728541
  0
VERTEX
  8
equipamentos
 10
-9.476946
 20
38.728552
  0
VERTEX
  8
equipamentos
 10
-9.476950
 20
38.728557
  0
VERTEX
  8
equipamentos
 10
-9.476978
 20
38.728565
  0
VERTEX
  8
equipamentos
 10
-9.476984
 20
38.728582
  0
VERTEX
  8
equipamentos
 10
-9.477001
 20
38.728594
  0
VERTEX
  8
equipamentos
 10
-9.477021
 20
38.728601
  0
VERTEX
  8
equipamentos
 10
-9.477071
 20
38.728605
  0
VERTEX
  8
equipamentos
 10
-9.477080
 20
38.728616
  0
VERTEX
  8
equipamentos
 10
-9.477079
 20
38.728640
  0
VERTEX
  8
equipamentos
 10
-9.477080
 20
38.728656
  0
VERTEX
  8
equipamentos
 10
-9.477088
 20
38.728665
  0
VERTEX
  8
equipamentos
 10
-9.477104
 20
38.728677
  0
VERTEX
  8
equipamentos
 10
-9.477131
 20
38.728695
  0
VERTEX
  8
equipamentos
 10
-9.477133
 20
38.728709
  0
VERTEX
  8
equipamentos
 10
-9.477127
 20
38.728722
  0
VERTEX
  8
equipamentos
 10
-9.477114
 20
38.728733
  0
VERTEX
  8
equipamentos
 10
-9.477098
 20
38.728740
  0
VERTEX
  8
equipamentos
 10
-9.477040
 20
38.728746
  0
VERTEX
  8
equipamentos
 10
-9.476984
 20
38.728759
  0
VERTEX
  8
equipamentos
 10
-9.476947
 20
38.728767
  0
VERTEX
  8
equipamentos
 10
-9.476926
 20
38.728782
  0
VERTEX
  8
equipamentos
 10
-9.476909
 20
38.728796
  0
VERTEX
  8
equipamentos
 10
-9.476832
 20
38.728831
  0
VERTEX
  8
equipamentos
 10
-9.476720
 20
38.728883
  0
VERTEX
  8
equipamentos
 10
-9.476537
 20
38.728928
  0
VERTEX
  8
equipamentos
 10
-9.476259
 20
38.729000
  0
VERTEX
  8
equipamentos
 10
-9.475982
 20
38.729070
  0
VERTEX
  8
equipamentos
 10
-9.475864
 20
38.729102
  0
VERTEX
  8
equipamentos
 10
-9.475645
 20
38.729150
  0
VERTEX
  8
equipamentos
 10
-9.475522
 20
38.729163
  0
VERTEX
  8
equipamentos
 10
-9.475480
 20
38.729184
  0
VERTEX
  8
equipamentos
 10
-9.475464
 20
38.729201
  0
VERTEX
  8
equipamentos
 10
-9.475450
 20
38.729232
  0
VERTEX
  8
equipamentos
 10
-9.475461
 20
38.729263
  0
VERTEX
  8
equipamentos
 10
-9.475474
 20
38.729286
  0
VERTEX
  8
equipamentos
 10
-9.475495
 20
38.729323
  0
VERTEX
  8
equipamentos
 10
-9.475495
 20
38.729338
  0
VERTEX
  8
equipamentos
 10
-9.475481
 20
38.729348
  0
VERTEX
  8
equipamentos
 10
-9.475461
 20
38.729355
  0
VERTEX
  8
equipamentos
 10
-9.475435
 20
38.729361
  0
VERTEX
  8
equipamentos
 10
-9.475373
 20
38.729377
  0
VERTEX
  8
equipamentos
 10
-9.475367
 20
38.729393
  0
VERTEX
  8
equipamentos
 10
-9.475378
 20
38.729415
  0
VERTEX
  8
equipamentos
 10
-9.475396
 20
38.729427
  0
VERTEX
  8
equipamentos
 10
-9.475417
 20
38.729444
  0
VERTEX
  8
equipamentos
 10
-9.475425
 20
38.729462
  0
VERTEX
  8
equipamentos
 10
-9.475424
 20
38.729477
  0
VERTEX
  8
equipamentos
 10
-9.475428
 20
38.729496
  0
VERTEX
  8
equipamentos
 10
-9.475441
 20
38.729507
  0
VERTEX
  8
equipamentos
 10
-9.475478
 20
38.729507
  0
VERTEX
  8
equipamentos
 10
-9.475508
 20
38.729496
  0
VERTEX
  8
equipamentos
 10
-9.475542
 20
38.729492
  0
VERTEX
  8
equipamentos
 10
-9.475586
 20
38.729494
  0
VERTEX
  8
equipamentos
 10
-9.475607
 20
38.729494
  0
VERTEX
  8
equipamentos
 10
-9.475642
 20
38.729488
  0
VERTEX
  8
equipamentos
 10
-9.475658
 20
38.729491
  0
VERTEX
  8
equipamentos
 10
-9.475687
 20
38.729511
  0
VERTEX
  8
equipamentos
 10
-9.475697
 20
38.729529
  0
VERTEX
  8
equipamentos
 10
-9.475688
 20
38.729573
  0
VERTEX
  8
equipamentos
 10
-9.475712
 20
38.729612
  0
VERTEX
  8
equipamentos
 10
-9.475724
 20
38.729635
  0
VERTEX
  8
equipamentos
 10
-9.475723
 20
38.729657
  0
VERTEX
  8
equipamentos
 10
-9.475717
 20
38.729676
  0
VERTEX
  8
equipamentos
 10
-9.475700
 20
38.729694
  0
VERTEX
  8
equipamentos
 10
-9.475671
 20
38.729703
  0
VERTEX
  8
equipamentos
 10
-9.475644
 20
38.729706
  0
VERTEX
  8
equipamentos
 10
-9.475625
 20
38.729719
  0
VERTEX
  8
equipamentos
 10
-9.475625
 20
38.729736
  0
VERTEX
  8
equipamentos
 10
-9.475614
 20
38.729762
  0
VERTEX
  8
equipamentos
 10
-9.475589
 20
38.729781
  0
VERTEX
  8
equipamentos
 10
-9.475476
 20
38.729817
  0
VERTEX
  8
equipamentos
 10
-9.475414
 20
38.729832
  0
VERTEX
  8
equipamentos
 10
-9.475259
 20
38.729886
  0
VERTEX
  8
equipamentos
 10
-9.475247
 20
38.729898
  0
VERTEX
  8
equipamentos
 10
-9.475239
 20
38.729918
  0
VERTEX
  8
equipamentos
 10
-9.475245
 20
38.729938
  0
VERTEX
  8
equipamentos
 10
-9.475263
 20
38.729952
  0
VERTEX
  8
equipamentos
 10
-9.475287
 20
38.729979
  0
VERTEX
  8
equipamentos
 10
-9.475288
 20
38.730023
  0
VERTEX
  8
equipamentos
 10
-9.475248
 20
38.730116
  0
VERTEX
  8
equipamentos
 10
-9.475132
 20
38.730274
  0
VERTEX
  8
equipamentos
 10
-9.475091
 20
38.730349
  0
VERTEX
  8
equipamentos
 10
-9.475089
 20
38.730421
  0
VERTEX
  8
equipamentos
 10
-9.475039
 20
38.730562
  0
VERTEX
  8
equipamentos
 10
-9.474852
 20
38.731024
  0
VERTEX
  8
equipamentos
 10
-9.474784
 20
38.731135
  0
VERTEX
  8
equipamentos
 10
-9.474412
 20
38.731831
  0
VERTEX
  8
equipamentos
 10
-9.474230
 20
38.732200
  0
VERTEX
  8
equipamentos
 10
-9.474158
 20
38.732406
  0
VERTEX
  8
equipamentos
 10
-9.473951
 20
38.732801
  0
VERTEX
  8
equipamentos
 10
-9.473897
 20
38.732907
  0
VERTEX
  8
equipamentos
 10
-9.473778
 20
38.733098
  0
VERTEX
  8
equipamentos
 10
-9.473738
 20
38.733218
  0
VERTEX
  8
equipamentos
 10
-9.473666
 20
38.733351
  0
VERTEX
  8
equipamentos
 10
-9.473638
 20
38.733416
  0
VERTEX
  8
equipamentos
 10
-9.473632
 20
38.733466
  0
VERTEX
  8
equipamentos
 10
-9.473588
 20
38.733583
  0
VERTEX
  8
equipamentos
 10
-9.468584
 20
38.713108
  0
VERTEX
  8
equipamentos
 10
-9.463155
 20
38.711629
  0
VERTEX
  8
equipamentos
 10
-9.463190
 20
38.711553
  0
VERTEX
  8
equipamentos
 10
-9.463226
 20
38.711477
  0
VERTEX
  8
equipamentos
 10
-9.463265
 20
38.711401
  0
VERTEX
  8
equipamentos
 10
-9.463305
 20
38.711326
  0
VERTEX
  8
equipamentos
 10
-9.463347
 20
38.711252
  0
VERTEX
  8
equipamentos
 10
-9.463391
 20
38.711178
  0
VERTEX
  8
equipamentos
 10
-9.463436
 20
38.711105
  0
VERTEX
  8
equipamentos
 10
-9.463483
 20
38.711032
  0
VERTEX
  8
equipamentos
 10
-9.463532
 20
38.710960
  0
VERTEX
  8
equipamentos
 10
-9.463582
 20
38.710889
  0
VERTEX
  8
equipamentos
 10
-9.463634
 20
38.710819
  0
VERTEX
  8
equipamentos
 10
-9.463687
 20
38.710749
  0
VERTEX
  8
equipamentos
 10
-9.463743
 20
38.710680
  0
VERTEX
  8
equipamentos
 10
-9.463799
 20
38.710612
  0
VERTEX
  8
equipamentos
 10
-9.463858
 20
38.710545
  0
VERTEX
  8
equipamentos
 10
-9.463917
 20
38.710479
  0
VERTEX
  8
equipamentos
 10
-9.463979
 20
38.710413
  0
VERTEX
  8
equipamentos
 10
-9.464042
 20
38.710348
  0
VERTEX
  8
equipamentos
 10
-9.464106
 20
38.710285
  0
VERTEX
  8
equipamentos
 10
-9.464172
 20
38.710222
  0
VERTEX
  8
equipamentos
 10
-9.464239
 20
38.710160
  0
VERTEX
  8
equipamentos
 10
-9.464308
 20
38.710099
  0
VERTEX
  8
equipamentos
 10
-9.464378
 20
38.710039
  0
VERTEX
  8
equipamentos
 10
-9.464449
 20
38.709980
  0
VERTEX
  8
equipamentos
 10
-9.464522
 20
38.709922
  0
VERTEX
  8
equipamentos
 10
-9.464596
 20
38.709865
  0
VERTEX
  8
equipamentos
 10
-9.464671
 20
38.709809
  0
VERTEX
  8
equipamentos
 10
-9.464748
 20
38.709754
  0
VERTEX
  8
equipamentos
 10
-9.464826
 20
38.709700
  0
SEQEND
  0
POLYLINE
  8
equipamentos
  6
BYLAYER
 66
1
 70
1
 40
0.000000
 41
0.000000
  0
VERTEX
  8
equipamentos
 10
-9.323138
 20
38.681235
  0
VERTEX
  8
equipamentos
 10
-9.323168
 20
38.681077
  0
VERTEX
  8
equipamentos
 10
-9.323198
 20
38.680961
  0
VERTEX
  8
equipamentos
 10
-9.323287
 20
38.680751
  0
VERTEX
  8
equipamentos
 10
-9.323412
 20
38.680451
  0
VERTEX
  8
equipamentos
 10
-9.323432
 20
38.680395
  0
VERTEX
  8
equipamentos
 10
-9.323618
 20
38.679704
  0
VERTEX
  8
equipamentos
 10
-9.323662
 20
38.679708
  0
VERTEX
  8
equipamentos
 10
-9.323730
 20
38.679715
  0
VERTEX
  8
equipamentos
 10
-9.323794
 20
38.679726
  0
VERTEX
  8
equipamentos
 10
-9.323831
 20
38.679731
  0
VERTEX
  8
equipamentos
 10
-9.323876
 20
38.679629
  0
VERTEX
  8
equipamentos
 10
-9.323897
 20
38.679552
  0
VERTEX
  8
equipamentos
 10
-9.323911
 20
38.679501
  0
VERTEX
  8
equipamentos
 10
-9.324019
 20
38.679241
  0
VERTEX
  8
equipamentos
 10
-9.324075
 20
38.679112
  0
VERTEX
  8
equipamentos
 10
-9.324176
 20
38.678837
  0
VERTEX
  8
equipamentos
 10
-9.324255
 20
38.678640
  0
VERTEX
  8
equipamentos
 10
-9.324315
 20
38.678474
  0
VERTEX
  8
equipamentos
 10
-9.324421
 20
38.678273
  0
VERTEX
  8
equipamentos
 10
-9.324486
 20
38.678124
  0
VERTEX
  8
equipamentos
 10
-9.324555
 20
38.677924
  0
VERTEX
  8
equipamentos
 10
-9.324637
 20
38.677697
  0
VERTEX
  8
equipamentos
 10
-9.324720
 20
38.677468
  0
VERTEX
  8
equipamentos
 10
-9.324828
 20
38.677179
  0
VERTEX
  8
equipamentos
 10
-9.324838
 20
38.677080
  0
VERTEX
  8
equipamentos
 10
-9.325431
 20
38.677087
  0
VERTEX
  8
equipamentos
 10
-9.325857
 20
38.677083
  0
VERTEX
  8
equipamentos
 10
-9.326444
 20
38.677084
  0
VERTEX
  8
equipamentos
 10
-9.326532
 20
38.676834
  0
VERTEX
  8
equipamentos
 10
-9.326630
 20
38.676557
  0
VERTEX
  8
equipamentos
 10
-9.326797
 20
38.676067
  0
VERTEX
  8
equipamentos
 10
-9.326833
 20
38.675962
  0
VERTEX
  8
equipamentos
 10
-9.326520
 20
38.657073
  0
VERTEX
  8
equipamentos
 10
-9.328054
 20
38.657296
  0
VERTEX
  8
equipamentos
 10
-9.329571
 20
38.657584
  0
VERTEX
  8
equipamentos
 10
-9.331066
 20
38.657936
  0
VERTEX
  8
equipamentos
 10
-9.332534
 20
38.658351
  0
VERTEX
  8
equipamentos
 10
-9.333971
 20
38.658828
  0
VERTEX
  8
equipamentos
 10
-9.335373
 20
38.659366
  0
VERTEX
  8
equipamentos
 10
-9.336736
 20
38.659963
  0
VERTEX
  8
equipamentos
 10
-9.338055
 20
38.660617
  0
VERTEX
  8
equipamentos
 10
-9.339327
 20
38.661326
  0
VERTEX
  8
equipamentos
 10
-9.340548
 20
38.662088
  0
VERTEX
  8
equipamentos
 10
-9.341715
 20
38.662901
  0
VERTEX
  8
equipamentos
 10
-9.342823
 20
38.663762
  0
VERTEX
  8
equipamentos
 10
-9.343871
 20
38.664670
  0
VERTEX
  8
equipamentos
 10
-9.344854
 20
38.665620
  0
VERTEX
  8
equipamentos
 10
-9.345769
 20
38.666611
  0
VERTEX
  8
equipamentos
 10
-9.346614
 20
38.667640
  0
VERTEX
  8
equipamentos
 10
-9.347388
 20
38.668703
  0
VERTEX
  8
equipamentos
 10
-9.348086
 20
38.669798
  0
VERTEX
  8
equipamentos
 10
-9.348707
 20
38.670920
  0
VERTEX
  8
equipamentos
 10
-9.349250
 20
38.672068
  0
VERTEX
  8
equipamentos
 10
-9.349712
 20
38.673236
  0
VERTEX
  8
equipamentos
 10
-9.350093
 20
38.674423
  0
VERTEX
  8
equipamentos
 10
-9.350391
 20
38.675625
  0
VERTEX
  8
equipamentos
 10
-9.350605
 20
38.676837
  0
VERTEX
  8
equipamentos
 10
-9.350735
 20
38.678056
  0
VERTEX
  8
equipamentos
 10
-9.350780
 20
38.679279
  0
VERTEX
  8
equipamentos
 10
-9.350741
 20
38.680503
  0
VERTEX
  8
equipamentos
 10
-9.350616
 20
38.681723
  0
VERTEX
  8
equipamentos
 10
-9.350408
 20
38.682935
  0
VERTEX
  8
equipamentos
 10
-9.327724
 20
38.680041
  0
VERTEX
  8
equipamentos
 10
-9.327691
 20
38.680186
  0
VERTEX
  8
equipamentos
 10
-9.327640
 20
38.680370
  0
VERTEX
  8
equipamentos
 10
-9.327579
 20
38.680552
  0
VERTEX
  8
equipamentos
 10
-9.327508
 20
38.680733
  0
VERTEX
  8
equipamentos
 10
-9.327428
 20
38.680910
  0
VERTEX
  8
equipamentos
 10
-9.327338
 20
38.681085
  0
VERTEX
  8
equipamentos
 10
-9.327239
 20
38.681257
  0
VERTEX
  8
equipamentos
 10
-9.327131
 20
38.681426
  0
VERTEX
  8
equipamentos
 10
-9.327013
 20
38.681590
  0
VERTEX
  8
equipamentos
 10
-9.326888
 20
38.681751
  0
VERTEX
  8
equipamentos
 10
-9.326753
 20
38.681908
  0
VERTEX
  8
equipamentos
 10
-9.326611
 20
38.682060
  0
VERTEX
  8
equipamentos
 10
-9.326460
 20
38.682207
  0
VERTEX
  8
equipamentos
 10
-9.326302
 20
38.682349
  0
VERTEX
  8
equipamentos
 10
-9.326136
 20
38.682486
  0
VERTEX
  8
equipamentos
 10
-9.325964
 20
38.682617
  0
VERTEX
  8
equipamentos
 10
-9.325784
 20
38.682742
  0
VERTEX
  8
equipamentos
 10
-9.325598
 20
38.682862
  0
VERTEX
  8
equipamentos
 10
-9.325405
 20
38.682975
  0
VERTEX
  8
equipamentos
 10
-9.325207
 20
38.683082
  0
VERTEX
  8
equipamentos
 10
-9.325003
 20
38.683182
  0
VERTEX
  8
equipamentos
 10
-9.324794
 20
38.683275
  0
VERTEX
  8
equipamentos
 10
-9.324580
 20
38.683362
  0
VERTEX
  8
equipamentos
 10
-9.324362
 20
38.683441
  0
VERTEX
  8
equipamentos
 10
-9.324398
 20
38.683282
  0
VERTEX
  8
equipamentos
 10
-9.324419
 20
38.683168
  0
VERTEX
  8
equipamentos
 10
-9.324453
 20
38.683076
  0
VERTEX
  8
equipamentos
 10
-9.324491
 20
38.682995
  0
VERTEX
  8
equipamentos
 10
-9.324512
 20
38.682899
  0
VERTEX
  8
equipamentos
 10
-9.324536
 20
38.682773
  0
VERTEX
  8
equipamentos
 10
-9.324546
 20
38.682637
  0
VERTEX
  8
equipamentos
 10
-9.324536
 20
38.682498
  0
VERTEX
  8
equipamentos
 10
-9.324489
 20
38.682403
  0
VERTEX
  8
equipamentos
 10
-9.324412
 20
38.682279
  0
VERTEX
  8
equipamentos
 10
-9.324310
 20
38.682174
  0
VERTEX
  8
equipamentos
 10
-9.324177
 20
38.682072
  0
VERTEX
  8
equipamentos
 10
-9.324019
 20
38.681993
  0
VERTEX
  8
equipamentos
 10
-9.323836
 20
38.681925
  0
VERTEX
  8
equipamentos
 10
-9.323672
 20
38.681865
  0
VERTEX
  8
equipamentos
 10
-9.323561
 20
38.681816
  0
VERTEX
  8
equipamentos
 10
-9.323435
 20
38.681736
  0
VERTEX
  8
equipamentos
 10
-9.323370
 20
38.681678
  0
VERTEX
  8
equipamentos
 10
-9.323290
 20
38.681610
  0
VERTEX
  8
equipamentos
 10
-9.323239
 20
38.681540
  0
VERTEX
  8
equipamentos
 10
-9.323172
 20
38.681379
  0
VERTEX
  8
equipamentos
 10
-9.323138
 20
38.681235
  0
SEQEND
  0
POLYLINE
  8
equipamentos
  6
BYLAYER
 66
1
 70
1
 40
0.000000
 41
0.000000
  0
VERTEX
  8
equipamentos
 10
-9.423584
 20
38.700914
  0
VERTEX
  8
equipamentos
 10
-9.423441
 20
38.700794
  0
VERTEX
  8
equipamentos
 10
-9.423412
 20
38.700818
  0
VERTEX
  8
equipamentos
 10
-9.423375
 20
38.700844
  0
VERTEX
  8
equipamentos
 10
-9.422363
 20
38.700115
  0
VERTEX
  8
equipamentos
 10
-9.422487
 20
38.700019
  0
VERTEX
  8
equipamentos
 10
-9.422545
 20
38.699972
  0
VERTEX
  8
equipamentos
 10
-9.422610
 20
38.699924
  0
VERTEX
  8
equipamentos
 10
-9.422907
 20
38.699741
  0
VERTEX
  8
equipamentos
 10
-9.423056
 20
38.699661
  0
VERTEX
  8
equipamentos
 10
-9.423402
 20
38.699443
  0
VERTEX
  8
equipamentos
 10
-9.423749
 20
38.699249
  0
VERTEX
  8
equipamentos
 10
-9.423728
 20
38.699194
  0
VERTEX
  8
equipamentos
 10
-9.423742
 20
38.699139
  0
VERTEX
  8
equipamentos
 10
-9.423871
 20
38.699051
  0
VERTEX
  8
equipamentos
 10
-9.423951
 20
38.699038
  0
VERTEX
  8
equipamentos
 10
-9.424061
 20
38.699033
  0
VERTEX
  8
equipamentos
 10
-9.424185
 20
38.698985
  0
VERTEX
  8
equipamentos
 10
-9.424234
 20
38.698922
  0
VERTEX
  8
equipamentos
 10
-9.424228
 20
38.698867
  0
VERTEX
  8
equipamentos
 10
-9.424297
 20
38.698823
  0
VERTEX
  8
equipamentos
 10
-9.424762
 20
38.699347
  0
VERTEX
  8
equipamentos
 10
-9.424633
 20
38.699408
  0
VERTEX
  8
equipamentos
 10
-9.424859
 20
38.699692
  0
VERTEX
  8
equipamentos
 10
-9.424819
 20
38.699718
  0
VERTEX
  8
equipamentos
 10
-9.425084
 20
38.699983
  0
VERTEX
  8
equipamentos
 10
-9.424734
 20
38.700278
  0
VERTEX
  8
equipamentos
 10
-9.423584
 20
38.700914
  0
SEQEND
  0
POLYLINE
  8
equipamentos
  6
BYLAYER
 66
1
 70
1
 40
0.000000
 41
0.000000
  0
VERTEX
  8
equipamentos
 10
-9.400745
 20
38.736299
  0
VERTEX
  8
equipamentos
 10
-9.400704
 20
38.736307
  0
VERTEX
  8
equipamentos
 10
-9.400664
 20
38.736314
  0
VERTEX
  8
equipamentos
 10
-9.400623
 20
38.736321
  0
VERTEX
  8
equipamentos
 10
-9.400582
 20
38.736326
  0
VERTEX
  8
equipamentos
 10
-9.400540
 20
38.736330
  0
VERTEX
  8
equipamentos
 10
-9.400499
 20
38.736334
  0
VERTEX
  8
equipamentos
 10
-9.400457
 20
38.736336
  0
VERTEX
  8
equipamentos
 10
-9.400415
 20
38.736338
  0
VERTEX
  8
equipamentos
 10
-9.400373
 20
38.736338
  0
VERTEX
  8
equipamentos
 10
-9.400332
 20
38.736338
  0
VERTEX
  8
equipamentos
 10
-9.400290
 20
38.736336
  0
VERTEX
  8
equipamentos
 10
-9.400248
 20
38.736334
  0
VERTEX
  8
equipamentos
 10
-9.400207
 20
38.736330
  0
VERTEX
  8
equipamentos
 10
-9.400165
 20
38.736326
  0
VERTEX
  8
equipamentos
 10
-9.400124
 20
38.736320
  0
VERTEX
  8
equipamentos
 10
-9.400083
 20
38.736314
  0
VERTEX
  8
equipamentos
 10
-9.400043
 20
38.736307
  0
VERTEX
  8
equipamentos
 10
-9.400002
 20
38.736298
  0
VERTEX
  8
equipamentos
 10
-9.399962
 20
38.736289
  0
VERTEX
  8
equipamentos
 10
-9.399923
 20
38.736279
  0
VERTEX
  8
equipamentos
 10
-9.399883
 20
38.736267
  0
VERTEX
  8
equipamentos
 10
-9.399844
 20
38.736255
  0
VERTEX
  8
equipamentos
 10
-9.399806
 20
38.736242
  0
VERTEX
  8
equipamentos
 10
-9.399768
 20
38.736228
  0
VERTEX
  8
equipamentos
 10
-9.399731
 20
38.736213
  0
VERTEX
  8
equipamentos
 10
-9.399694
 20
38.736198
  0
VERTEX
  8
equipamentos
 10
-9.399658
 20
38.736181
  0
VERTEX
  8
equipamentos
 10
-9.399623
 20
38.736164
  0
VERTEX
  8
equipamentos
 10
-9.399588
 20
38.736146
  0
VERTEX
  8
equipamentos
 10
-9.398002
 20
38.735284
  0
VERTEX
  8
equipamentos
 10
-9.397982
 20
38.735273
  0
VERTEX
  8
equipamentos
 10
-9.397962
 20
38.735261
  0
VERTEX
  8
equipamentos
 10
-9.397942
 20
38.735249
  0
VERTEX
  8
equipamentos
 10
-9.397923
 20
38.735237
  0
VERTEX
  8
equipamentos
 10
-9.397904
 20
38.735225
  0
VERTEX
  8
equipamentos
 10
-9.397885
 20
38.735213
  0
VERTEX
  8
equipamentos
 10
-9.397867
 20
38.735200
  0
VERTEX
  8
equipamentos
 10
-9.397849
 20
38.735187
  0
VERTEX
  8
equipamentos
 10
-9.397831
 20
38.735174
  0
VERTEX
  8
equipamentos
 10
-9.397813
 20
38.735160
  0
VERTEX
  8
equipamentos
 10
-9.397796
 20
38.735146
  0
VERTEX
  8
equipamentos
 10
-9.397779
 20
38.735132
  0
VERTEX
  8
equipamentos
 10
-9.397762
 20
38.735118
  0
VERTEX
  8
equipamentos
 10
-9.397746
 20
38.735104
  0
VERTEX
  8
equipamentos
 10
-9.397730
 20
38.735089
  0
VERTEX
  8
equipamentos
 10
-9.397714
 20
38.735074
  0
VERTEX
  8
equipamentos
 10
-9.397699
 20
38.735059
  0
VERTEX
  8
equipamentos
 10
-9.397684
 20
38.735043
  0
VERTEX
  8
equipamentos
 10
-9.397669
 20
38.735028
  0
VERTEX
  8
equipamentos
 10
-9.397655
 20
38.735012
  0
VERTEX
  8
equipamentos
 10
-9.397641
 20
38.734996
  0
VERTEX
  8
equipamentos
 10
-9.397628
 20
38.734980
  0
VERTEX
  8
equipamentos
 10
-9.397614
 20
38.734964
  0
VERTEX
  8
equipamentos
 10
-9.397602
 20
38.734947
  0
VERTEX
  8
equipamentos
 10
-9.397589
 20
38.734930
  0
VERTEX
  8
equipamentos
 10
-9.397577
 20
38.734913
  0
VERTEX
  8
equipamentos
 10
-9.397566
 20
38.734896
  0
VERTEX
  8
equipamentos
 10
-9.397554
 20
38.734879
  0
VERTEX
  8
equipamentos
 10
-9.397544
 20
38.734862
  0
VERTEX
  8
equipamentos
 10
-9.397126
 20
38.734178
  0
VERTEX
  8
equipamentos
 10
-9.397115
 20
38.734158
  0
VERTEX
  8
equipamentos
 10
-9.397103
 20
38.734138
  0
VERTEX
  8
equipamentos
 10
-9.397093
 20
38.734118
  0
VERTEX
  8
equipamentos
 10
-9.397082
 20
38.734098
  0
VERTEX
  8
equipamentos
 10
-9.397073
 20
38.734077
  0
VERTEX
  8
equipamentos
 10
-9.397063
 20
38.734056
  0
VERTEX
  8
equipamentos
 10
-9.397055
 20
38.734036
  0
VERTEX
  8
equipamentos
 10
-9.397047
 20
38.734015
  0
VERTEX
  8
equipamentos
 10
-9.397039
 20
38.733994
  0
VERTEX
  8
equipamentos
 10
-9.397032
 20
38.733973
  0
VERTEX
  8
equipamentos
 10
-9.397026
 20
38.733951
  0
VERTEX
  8
equipamentos
 10
-9.397020
 20
38.733930
  0
VERTEX
  8
equipamentos
 10
-9.397014
 20
38.733908
  0
VERTEX
  8
equipamentos
 10
-9.397010
 20
38.733887
  0
VERTEX
  8
equipamentos
 10
-9.397005
 20
38.733865
  0
VERTEX
  8
equipamentos
 10
-9.397002
 20
38.733843
  0
VERTEX
  8
equipamentos
 10
-9.396999
 20
38.733822
  0
VERTEX
  8
equipamentos
 10
-9.396996
 20
38.733800
  0
VERTEX
  8
equipamentos
 10
-9.396994
 20
38.733778
  0
VERTEX
  8
equipamentos
 10
-9.396993
 20
38.733756
  0
VERTEX
  8
equipamentos
 10
-9.396992
 20
38.733734
  0
VERTEX
  8
equipamentos
 10
-9.396991
 20
38.733712
  0
VERTEX
  8
equipamentos
 10
-9.396992
 20
38.733690
  0
VERTEX
  8
equipamentos
 10
-9.396993
 20
38.733669
  0
VERTEX
  8
equipamentos
 10
-9.396994
 20
38.733647
  0
VERTEX
  8
equipamentos
 10
-9.396996
 20
38.733625
  0
VERTEX
  8
equipamentos
 10
-9.396998
 20
38.733603
  0
VERTEX
  8
equipamentos
 10
-9.397002
 20
38.733581
  0
VERTEX
  8
equipamentos
 10
-9.397005
 20
38.733560
  0
VERTEX
  8
equipamentos
 10
-9.397174
 20
38.732631
  0
VERTEX
  8
equipamentos
 10
-9.397182
 20
38.732591
  0
VERTEX
  8
equipamentos
 10
-9.397192
 20
38.732552
  0
VERTEX
  8
equipamentos
 10
-9.397204
 20
38.732512
  0
VERTEX
  8
equipamentos
 10
-9.397218
 20
38.732474
  0
VERTEX
  8
equipamentos
 10
-9.397234
 20
38.732435
  0
VERTEX
  8
equipamentos
 10
-9.397251
 20
38.732397
  0
VERTEX
  8
equipamentos
 10
-9.397270
 20
38.732360
  0
VERTEX
  8
equipamentos
 10
-9.397291
 20
38.732323
  0
VERTEX
  8
equipamentos
 10
-9.397314
 20
38.732287
  0
VERTEX
  8
equipamentos
 10
-9.397339
 20
38.732252
  0
VERTEX
  8
equipamentos
 10
-9.397365
 20
38.732217
  0
VERTEX
  8
equipamentos
 10
-9.397392
 20
38.732183
  0
VERTEX
  8
equipamentos
 10
-9.397422
 20
38.732150
  0
VERTEX
  8
equipamentos
 10
-9.397452
 20
38.732118
  0
VERTEX
  8
equipamentos
 10
-9.397485
 20
38.732087
  0
VERTEX
  8
equipamentos
 10
-9.397519
 20
38.732057
  0
VERTEX
  8
equipamentos
 10
-9.397554
 20
38.732027
  0
VERTEX
  8
equipamentos
 10
-9.397590
 20
38.731999
  0
VERTEX
  8
equipamentos
 10
-9.397628
 20
38.731972
  0
VERTEX
  8
equipamentos
 10
-9.397667
 20
38.731946
  0
VERTEX
  8
equipamentos
 10
-9.397708
 20
38.731921
  0
VERTEX
  8
equipamentos
 10
-9.397749
 20
38.731897
  0
VERTEX
  8
equipamentos
 10
-9.397792
 20
38.731875
  0
VERTEX
  8
equipamentos
 10
-9.397836
 20
38.731854
  0
VERTEX
  8
equipamentos
 10
-9.397880
 20
38.731834
  0
VERTEX
  8
equipamentos
 10
-9.397926
 20
38.731815
  0
VERTEX
  8
equipamentos
 10
-9.397972
 20
38.731798
  0
VERTEX
  8
equipamentos
 10
-9.398020
 20
38.731782
  0
VERTEX
  8
equipamentos
 10
-9.398067
 20
38.731768
  0
VERTEX
  8
equipamentos
 10
-9.399821
 20
38.731267
  0
VERTEX
  8
equipamentos
 10
-9.399825
 20
38.731266
  0
VERTEX
  8
equipamentos
 10
-9.399829
 20
38.731265
  0
VERTEX
  8
equipamentos
 10
-9.399833
 20
38.731263
  0
VERTEX
  8
equipamentos
 10
-9.399837
 20
38.731262
  0
VERTEX
  8
equipamentos
 10
-9.399841
 20
38.731261
  0
VERTEX
  8
equipamentos
 10
-9.399845
 20
38.731260
  0
VERTEX
  8
equipamentos
 10
-9.399849
 20
38.731259
  0
VERTEX
  8
equipamentos
 10
-9.399853
 20
38.731258
  0
VERTEX
  8
equipamentos
 10
-9.399858
 20
38.731257
  0
VERTEX
  8
equipamentos
 10
-9.399862
 20
38.731256
  0
VERTEX
  8
equipamentos
 10
-9.399866
 20
38.731255
  0
VERTEX
  8
equipamentos
 10
-9.399870
 20
38.731254
  0
VERTEX
  8
equipamentos
 10
-9.399874
 20
38.731253
  0
VERTEX
  8
equipamentos
 10
-9.399878
 20
38.731252
  0
VERTEX
  8
equipamentos
 10
-9.399882
 20
38.731251
  0
VERTEX
  8
equipamentos
 10
-9.399886
 20
38.731250
  0
VERTEX
  8
equipamentos
 10
-9.399890
 20
38.731249
  0
VERTEX
  8
equipamentos
 10
-9.399895
 20
38.731248
  0
VERTEX
  8
equipamentos
 10
-9.399899
 20
38.731247
  0
VERTEX
  8
equipamentos
 10
-9.399903
 20
38.731246
  0
VERTEX
  8
equipamentos
 10
-9.399907
 20
38.731245
  0
VERTEX
  8
equipamentos
 10
-9.399911
 20
38.731244
  0
VERTEX
  8
equipamentos
 10
-9.399915
 20
38.731243
  0
VERTEX
  8
equipamentos
 10
-9.399919
 20
38.731242
  0
VERTEX
  8
equipamentos
 10
-9.399924
 20
38.731241
  0
VERTEX
  8
equipamentos
 10
-9.399928
 20
38.731240
  0
VERTEX
  8
equipamentos
 10
-9.399932
 20
38.731239
  0
VERTEX
  8
equipamentos
 10
-9.399936
 20
38.731238
  0
VERTEX
  8
equipamentos
 10
-9.399940
 20
38.731237
  0
VERTEX
  8
equipamentos
 10
-9.400503
 20
38.731121
  0
VERTEX
  8
equipamentos
 10
-9.400527
 20
38.731121
  0
VERTEX
  8
equipamentos
 10
-9.400549
 20
38.731112
  0
VERTEX
  8
equipamentos
 10
-9.401827
 20
38.730892
  0
VERTEX
  8
equipamentos
 10
-9.402009
 20
38.730866
  0
VERTEX
  8
equipamentos
 10
-9.402061
 20
38.730859
  0
VERTEX
  8
equipamentos
 10
-9.402113
 20
38.730854
  0
VERTEX
  8
equipamentos
 10
-9.402165
 20
38.730851
  0
VERTEX
  8
equipamentos
 10
-9.402218
 20
38.730849
  0
VERTEX
  8
equipamentos
 10
-9.402270
 20
38.730848
  0
VERTEX
  8
equipamentos
 10
-9.402323
 20
38.730849
  0
VERTEX
  8
equipamentos
 10
-9.402375
 20
38.730852
  0
VERTEX
  8
equipamentos
 10
-9.402427
 20
38.730856
  0
VERTEX
  8
equipamentos
 10
-9.402479
 20
38.730862
  0
VERTEX
  8
equipamentos
 10
-9.402531
 20
38.730869
  0
VERTEX
  8
equipamentos
 10
-9.402583
 20
38.730878
  0
VERTEX
  8
equipamentos
 10
-9.402633
 20
38.730888
  0
VERTEX
  8
equipamentos
 10
-9.402684
 20
38.730900
  0
VERTEX
  8
equipamentos
 10
-9.402733
 20
38.730914
  0
VERTEX
  8
equipamentos
 10
-9.402782
 20
38.730929
  0
VERTEX
  8
equipamentos
 10
-9.402831
 20
38.730945
  0
VERTEX
  8
equipamentos
 10
-9.402878
 20
38.730963
  0
VERTEX
  8
equipamentos
 10
-9.402924
 20
38.730982
  0
VERTEX
  8
equipamentos
 10
-9.402970
 20
38.731002
  0
VERTEX
  8
equipamentos
 10
-9.403014
 20
38.731024
  0
VERTEX
  8
equipamentos
 10
-9.403058
 20
38.731047
  0
VERTEX
  8
equipamentos
 10
-9.403100
 20
38.731072
  0
VERTEX
  8
equipamentos
 10
-9.403141
 20
38.731097
  0
VERTEX
  8
equipamentos
 10
-9.403181
 20
38.731124
  0
VERTEX
  8
equipamentos
 10
-9.403219
 20
38.731152
  0
VERTEX
  8
equipamentos
 10
-9.403257
 20
38.731182
  0
VERTEX
  8
equipamentos
 10
-9.403292
 20
38.731212
  0
VERTEX
  8
equipamentos
 10
-9.403326
 20
38.731243
  0
VERTEX
  8
equipamentos
 10
-9.403359
 20
38.731275
  0
VERTEX
  8
equipamentos
 10
-9.404500
 20
38.732453
  0
VERTEX
  8
equipamentos
 10
-9.404517
 20
38.732471
  0
VERTEX
  8
equipamentos
 10
-9.404533
 20
38.732489
  0
VERTEX
  8
equipamentos
 10
-9.404549
 20
38.732507
  0
VERTEX
  8
equipamentos
 10
-9.404565
 20
38.732526
  0
VERTEX
  8
equipamentos
 10
-9.404580
 20
38.732545
  0
VERTEX
  8
equipamentos
 10
-9.404594
 20
38.732564
  0
VERTEX
  8
equipamentos
 10
-9.404608
 20
38.732584
  0
VERTEX
  8
equipamentos
 10
-9.404622
 20
38.732603
  0
VERTEX
  8
equipamentos
 10
-9.404635
 20
38.732623
  0
VERTEX
  8
equipamentos
 10
-9.404647
 20
38.732643
  0
VERTEX
  8
equipamentos
 10
-9.404659
 20
38.732663
  0
VERTEX
  8
equipamentos
 10
-9.404671
 20
38.732684
  0
VERTEX
  8
equipamentos
 10
-9.404682
 20
38.732705
  0
VERTEX
  8
equipamentos
 10
-9.404692
 20
38.732725
  0
VERTEX
  8
equipamentos
 10
-9.404702
 20
38.732746
  0
VERTEX
  8
equipamentos
 10
-9.404711
 20
38.732767
  0
VERTEX
  8
equipamentos
 10
-9.404719
 20
38.732789
  0
VERTEX
  8
equipamentos
 10
-9.404728
 20
38.732810
  0
VERTEX
  8
equipamentos
 10
-9.404735
 20
38.732832
  0
VERTEX
  8
equipamentos
 10
-9.404742
 20
38.732853
  0
VERTEX
  8
equipamentos
 10
-9.404748
 20
38.732875
  0
VERTEX
  8
equipamentos
 10
-9.404754
 20
38.732897
  0
VERTEX
  8
equipamentos
 10
-9.404759
 20
38.732919
  0
VERTEX
  8
equipamentos
 10
-9.404764
 20
38.732941
  0
VERTEX
  8
equipamentos
 10
-9.404768
 20
38.732963
  0
VERTEX
  8
equipamentos
 10
-9.404772
 20
38.732985
  0
VERTEX
  8
equipamentos
 10
-9.404775
 20
38.733007
  0
VERTEX
  8
equipamentos
 10
-9.404777
 20
38.733030
  0
VERTEX
  8
equipamentos
 10
-9.404779
 20
38.733052
  0
VERTEX
  8
equipamentos
 10
-9.404845
 20
38.734075
  0
VERTEX
  8
equipamentos
 10
-9.404846
 20
38.734124
  0
VERTEX
  8
equipamentos
 10
-9.404845
 20
38.734173
  0
VERTEX
  8
equipamentos
 10
-9.404841
 20
38.734222
  0
VERTEX
  8
equipamentos
 10
-9.404834
 20
38.734271
  0
VERTEX
  8
equipamentos
 10
-9.404825
 20
38.734320
  0
VERTEX
  8
equipamentos
 10
-9.404812
 20
38.734368
  0
VERTEX
  8
equipamentos
 10
-9.404797
 20
38.734416
  0
VERTEX
  8
equipamentos
 10
-9.404779
 20
38.734463
  0
VERTEX
  8
equipamentos
 10
-9.404758
 20
38.734509
  0
VERTEX
  8
equipamentos
 10
-9.404735
 20
38.734555
  0
VERTEX
  8
equipamentos
 10
-9.404709
 20
38.734599
  0
VERTEX
  8
equipamentos
 10
-9.404681
 20
38.734643
  0
VERTEX
  8
equipamentos
 10
-9.404650
 20
38.734686
  0
VERTEX
  8
equipamentos
 10
-9.404616
 20
38.734727
  0
VERTEX
  8
equipamentos
 10
-9.404580
 20
38.734768
  0
VERTEX
  8
equipamentos
 10
-9.404542
 20
38.734807
  0
VERTEX
  8
equipamentos
 10
-9.404502
 20
38.734844
  0
VERTEX
  8
equipamentos
 10
-9.404459
 20
38.734880
  0
VERTEX
  8
equipamentos
 10
-9.404415
 20
38.734915
  0
VERTEX
  8
equipamentos
 10
-9.404368
 20
38.734948
  0
VERTEX
  8
equipamentos
 10
-9.404320
 20
38.734979
  0
VERTEX
  8
equipamentos
 10
-9.404269
 20
38.735009
  0
VERTEX
  8
equipamentos
 10
-9.404217
 20
38.735036
  0
VERTEX
  8
equipamentos
 10
-9.404164
 20
38.735062
  0
VERTEX
  8
equipamentos
 10
-9.404109
 20
38.735086
  0
VERTEX
  8
equipamentos
 10
-9.404053
 20
38.735108
  0
VERTEX
  8
equipamentos
 10
-9.403996
 20
38.735128
  0
VERTEX
  8
equipamentos
 10
-9.403937
 20
38.735145
  0
VERTEX
  8
equipamentos
 10
-9.403878
 20
38.735161
  0
VERTEX
  8
equipamentos
 10
-9.403864
 20
38.735174
  0
VERTEX
  8
equipamentos
 10
-9.403851
 20
38.735186
  0
VERTEX
  8
equipamentos
 10
-9.403836
 20
38.735198
  0
VERTEX
  8
equipamentos
 10
-9.403822
 20
38.735210
  0
VERTEX
  8
equipamentos
 10
-9.403808
 20
38.735222
  0
VERTEX
  8
equipamentos
 10
-9.403793
 20
38.735233
  0
VERTEX
  8
equipamentos
 10
-9.403778
 20
38.735245
  0
VERTEX
  8
equipamentos
 10
-9.403763
 20
38.735256
  0
VERTEX
  8
equipamentos
 10
-9.403747
 20
38.735267
  0
VERTEX
  8
equipamentos
 10
-9.403732
 20
38.735278
  0
VERTEX
  8
equipamentos
 10
-9.403716
 20
38.735288
  0
VERTEX
  8
equipamentos
 10
-9.403700
 20
38.735299
  0
VERTEX
  8
equipamentos
 10
-9.403684
 20
38.735309
  0
VERTEX
  8
equipamentos
 10
-9.403667
 20
38.735319
  0
VERTEX
  8
equipamentos
 10
-9.403650
 20
38.735329
  0
VERTEX
  8
equipamentos
 10
-9.403634
 20
38.735339
  0
VERTEX
  8
equipamentos
 10
-9.403617
 20
38.735348
  0
VERTEX
  8
equipamentos
 10
-9.403600
 20
38.735357
  0
VERTEX
  8
equipamentos
 10
-9.403582
 20
38.735367
  0
VERTEX
  8
equipamentos
 10
-9.403565
 20
38.735375
  0
VERTEX
  8
equipamentos
 10
-9.403547
 20
38.735384
  0
VERTEX
  8
equipamentos
 10
-9.403529
 20
38.735393
  0
VERTEX
  8
equipamentos
 10
-9.403511
 20
38.735401
  0
VERTEX
  8
equipamentos
 10
-9.403493
 20
38.735409
  0
VERTEX
  8
equipamentos
 10
-9.403475
 20
38.735417
  0
VERTEX
  8
equipamentos
 10
-9.403456
 20
38.735424
  0
VERTEX
  8
equipamentos
 10
-9.403437
 20
38.735432
  0
VERTEX
  8
equipamentos
 10
-9.403419
 20
38.735439
  0
VERTEX
  8
equipamentos
 10
-9.403400
 20
38.735446
  0
VERTEX
  8
equipamentos
 10
-9.401463
 20
38.736142
  0
VERTEX
  8
equipamentos
 10
-9.400745
 20
38.736299
  0
SEQEND
  0
POLYLINE
  8
equipamentos
  6
BYLAYER
 66
1
 70
1
 40
0.000000
 41
0.000000
  0
VERTEX
  8
equipamentos
 10
-9.401894
 20
38.732854
  0
VERTEX
  8
equipamentos
 10
-9.401900
 20
38.733017
  0
VERTEX
  8
equipamentos
 10
-9.401398
 20
38.733029
  0
VERTEX
  8
equipamentos
 10
-9.401396
 20
38.732985
  0
VERTEX
  8
equipamentos
 10
-9.401091
 20
38.732991
  0
VERTEX
  8
equipamentos
 10
-9.401094
 20
38.733030
  0
VERTEX
  8
equipamentos
 10
-9.401133
 20
38.733030
  0
VERTEX
  8
equipamentos
 10
-9.401134
 20
38.733100
  0
VERTEX
  8
equipamentos
 10
-9.401151
 20
38.733592
  0
VERTEX
  8
equipamentos
 10
-9.401213
 20
38.733591
  0
VERTEX
  8
equipamentos
 10
-9.401210
 20
38.733551
  0
VERTEX
  8
equipamentos
 10
-9.401758
 20
38.733539
  0
VERTEX
  8
equipamentos
 10
-9.401780
 20
38.734145
  0
VERTEX
  8
equipamentos
 10
-9.401232
 20
38.734157
  0
VERTEX
  8
equipamentos
 10
-9.401230
 20
38.734105
  0
VERTEX
  8
equipamentos
 10
-9.401165
 20
38.734106
  0
VERTEX
  8
equipamentos
 10
-9.401170
 20
38.734181
  0
VERTEX
  8
equipamentos
 10
-9.400999
 20
38.734185
  0
VERTEX
  8
equipamentos
 10
-9.400990
 20
38.734004
  0
VERTEX
  8
equipamentos
 10
-9.400709
 20
38.734010
  0
VERTEX
  8
equipamentos
 10
-9.400713
 20
38.734147
  0
VERTEX
  8
equipamentos
 10
-9.400685
 20
38.734148
  0
VERTEX
  8
equipamentos
 10
-9.400687
 20
38.734188
  0
VERTEX
  8
equipamentos
 10
-9.400575
 20
38.734191
  0
VERTEX
  8
equipamentos
 10
-9.400576
 20
38.734272
  0
VERTEX
  8
equipamentos
 10
-9.400262
 20
38.734279
  0
VERTEX
  8
equipamentos
 10
-9.400261
 20
38.734273
  0
VERTEX
  8
equipamentos
 10
-9.400126
 20
38.734275
  0
VERTEX
  8
equipamentos
 10
-9.400121
 20
38.734135
  0
VERTEX
  8
equipamentos
 10
-9.400183
 20
38.734133
  0
VERTEX
  8
equipamentos
 10
-9.400251
 20
38.734034
  0
VERTEX
  8
equipamentos
 10
-9.400249
 20
38.733984
  0
VERTEX
  8
equipamentos
 10
-9.400424
 20
38.733981
  0
VERTEX
  8
equipamentos
 10
-9.400422
 20
38.733942
  0
VERTEX
  8
equipamentos
 10
-9.400559
 20
38.733940
  0
VERTEX
  8
equipamentos
 10
-9.400557
 20
38.733908
  0
VERTEX
  8
equipamentos
 10
-9.400581
 20
38.733907
  0
VERTEX
  8
equipamentos
 10
-9.400577
 20
38.733732
  0
VERTEX
  8
equipamentos
 10
-9.400035
 20
38.733742
  0
VERTEX
  8
equipamentos
 10
-9.400031
 20
38.733580
  0
VERTEX
  8
equipamentos
 10
-9.400514
 20
38.733571
  0
VERTEX
  8
equipamentos
 10
-9.400513
 20
38.733531
  0
VERTEX
  8
equipamentos
 10
-9.400933
 20
38.733528
  0
VERTEX
  8
equipamentos
 10
-9.400921
 20
38.733101
  0
VERTEX
  8
equipamentos
 10
-9.400917
 20
38.732988
  0
VERTEX
  8
equipamentos
 10
-9.400658
 20
38.732998
  0
VERTEX
  8
equipamentos
 10
-9.400661
 20
38.733040
  0
VERTEX
  8
equipamentos
 10
-9.400155
 20
38.733049
  0
VERTEX
  8
equipamentos
 10
-9.400149
 20
38.732886
  0
VERTEX
  8
equipamentos
 10
-9.401392
 20
38.732865
  0
VERTEX
  8
equipamentos
 10
-9.401894
 20
38.732854
  0
SEQEND
  0
POLYLINE
  8
equipamentos
  6
BYLAYER
 66
1
 70
1
 40
0.000000
 41
0.000000
  0
VERTEX
  8
equipamentos
 10
-9.401894
 20
38.732854
  0
VERTEX
  8
equipamentos
 10
-9.401900
 20
38.733017
  0
VERTEX
  8
equipamentos
 10
-9.401398
 20
38.733029
  0
VERTEX
  8
equipamentos
 10
-9.401396
 20
38.732985
  0
VERTEX
  8
equipamentos
 10
-9.401091
 20
38.732991
  0
VERTEX
  8
equipamentos
 10
-9.401094
 20
38.733030
  0
VERTEX
  8
equipamentos
 10
-9.401133
 20
38.733030
  0
VERTEX
  8
equipamentos
 10
-9.401134
 20
38.733100
  0
VERTEX
  8
equipamentos
 10
-9.401151
 20
38.733592
  0
VERTEX
  8
equipamentos
 10
-9.401213
 20
38.733591
  0
VERTEX
  8
equipamentos
 10
-9.401210
 20
38.733551
  0
VERTEX
  8
equipamentos
 10
-9.401758
 20
38.733539
  0
VERTEX
  8
equipamentos
 10
-9.401780
 20
38.734145
  0
VERTEX
  8
equipamentos
 10
-9.401232
 20
38.734157
  0
VERTEX
  8
equipamentos
 10
-9.401230
 20
38.734105
  0
VERTEX
  8
equipamentos
 10
-9.401165
 20
38.734106
  0
VERTEX
  8
equipamentos
 10
-9.401170
 20
38.734181
  0
VERTEX
  8
equipamentos
 10
-9.400999
 20
38.734185
  0
VERTEX
  8
equipamentos
 10
-9.400990
 20
38.734004
  0
VERTEX
  8
equipamentos
 10
-9.400709
 20
38.734010
  0
VERTEX
  8
equipamentos
 10
-9.400713
 20
38.734147
  0
VERTEX
  8
equipamentos
 10
-9.400685
 20
38.734148
  0
VERTEX
  8
equipamentos
 10
-9.400687
 20
38.734188
  0
VERTEX
  8
equipamentos
 10
-9.400575
 20
38.734191
  0
VERTEX
  8
equipamentos
 10
-9.400576
 20
38.734272
  0
VERTEX
  8
equipamentos
 10
-9.400262
 20
38.734279
  0
VERTEX
  8
equipamentos
 10
-9.400261
 20
38.734273
  0
VERTEX
  8
equipamentos
 10
-9.400126
 20
38.734275
  0
VERTEX
  8
equipamentos
 10
-9.400121
 20
38.734135
  0
VERTEX
  8
equipamentos
 10
-9.400183
 20
38.734133
  0
VERTEX
  8
equipamentos
 10
-9.400251
 20
38.734034
  0
VERTEX
  8
equipamentos
 10
-9.400249
 20
38.733984
  0
VERTEX
  8
equipamentos
 10
-9.400424
 20
38.733981
  0
VERTEX
  8
equipamentos
 10
-9.400422
 20
38.733942
  0
VERTEX
  8
equipamentos
 10
-9.400559
 20
38.733940
  0
VERTEX
  8
equipamentos
 10
-9.400557
 20
38.733908
  0
VERTEX
  8
equipamentos
 10
-9.400581
 20
38.733907
  0
VERTEX
  8
equipamentos
 10
-9.400577
 20
38.733732
  0
VERTEX
  8
equipamentos
 10
-9.400035
 20
38.733742
  0
VERTEX
  8
equipamentos
 10
-9.400031
 20
38.733580
  0
VERTEX
  8
equipamentos
 10
-9.400514
 20
38.733571
  0
VERTEX
  8
equipamentos
 10
-9.400513
 20
38.733531
  0
VERTEX
  8
equipamentos
 10
-9.400933
 20
38.733528
  0
VERTEX
  8
equipamentos
 10
-9.400921
 20
38.733101
  0
VERTEX
  8
equipamentos
 10
-9.400917
 20
38.732988
  0
VERTEX
  8
equipamentos
 10
-9.400658
 20
38.732998
  0
VERTEX
  8
equipamentos
 10
-9.400661
 20
38.733040
  0
VERTEX
  8
equipamentos
 10
-9.400155
 20
38.733049
  0
VERTEX
  8
equipamentos
 10
-9.400149
 20
38.732886
  0
VERTEX
  8
equipamentos
 10
-9.401392
 20
38.732865
  0
VERTEX
  8
equipamentos
 10
-9.401894
 20
38.732854
  0
SEQEND
  0
POLYLINE
  8
equipamentos
  6
BYLAYER
 66
1
 70
1
 40
0.000000
 41
0.000000
  0
VERTEX
  8
equipamentos
 10
-9.357918
 20
38.724134
  0
VERTEX
  8
equipamentos
 10
-9.357924
 20
38.724133
  0
VERTEX
  8
equipamentos
 10
-9.357930
 20
38.724132
  0
VERTEX
  8
equipamentos
 10
-9.357936
 20
38.724131
  0
VERTEX
  8
equipamentos
 10
-9.357943
 20
38.724131
  0
VERTEX
  8
equipamentos
 10
-9.357949
 20
38.724131
  0
VERTEX
  8
equipamentos
 10
-9.357955
 20
38.724131
  0
VERTEX
  8
equipamentos
 10
-9.357961
 20
38.724132
  0
VERTEX
  8
equipamentos
 10
-9.357967
 20
38.724132
  0
VERTEX
  8
equipamentos
 10
-9.357973
 20
38.724133
  0
VERTEX
  8
equipamentos
 10
-9.357979
 20
38.724134
  0
VERTEX
  8
equipamentos
 10
-9.357985
 20
38.724136
  0
VERTEX
  8
equipamentos
 10
-9.357991
 20
38.724137
  0
VERTEX
  8
equipamentos
 10
-9.357997
 20
38.724139
  0
VERTEX
  8
equipamentos
 10
-9.358002
 20
38.724142
  0
VERTEX
  8
equipamentos
 10
-9.358008
 20
38.724144
  0
VERTEX
  8
equipamentos
 10
-9.358013
 20
38.724147
  0
VERTEX
  8
equipamentos
 10
-9.358018
 20
38.724149
  0
VERTEX
  8
equipamentos
 10
-9.358023
 20
38.724153
  0
VERTEX
  8
equipamentos
 10
-9.358028
 20
38.724156
  0
VERTEX
  8
equipamentos
 10
-9.358032
 20
38.724159
  0
VERTEX
  8
equipamentos
 10
-9.358036
 20
38.724163
  0
VERTEX
  8
equipamentos
 10
-9.358040
 20
38.724167
  0
VERTEX
  8
equipamentos
 10
-9.358043
 20
38.724171
  0
VERTEX
  8
equipamentos
 10
-9.358047
 20
38.724175
  0
VERTEX
  8
equipamentos
 10
-9.358050
 20
38.724179
  0
VERTEX
  8
equipamentos
 10
-9.358053
 20
38.724183
  0
VERTEX
  8
equipamentos
 10
-9.358055
 20
38.724188
  0
VERTEX
  8
equipamentos
 10
-9.358057
 20
38.724192
  0
VERTEX
  8
equipamentos
 10
-9.358059
 20
38.724197
  0
VERTEX
  8
equipamentos
 10
-9.358084
 20
38.724269
  0
VERTEX
  8
equipamentos
 10
-9.358086
 20
38.724270
  0
VERTEX
  8
equipamentos
 10
-9.358088
 20
38.724272
  0
VERTEX
  8
equipamentos
 10
-9.358089
 20
38.724273
  0
VERTEX
  8
equipamentos
 10
-9.358091
 20
38.724274
  0
VERTEX
  8
equipamentos
 10
-9.358092
 20
38.724275
  0
VERTEX
  8
equipamentos
 10
-9.358094
 20
38.724277
  0
VERTEX
  8
equipamentos
 10
-9.358095
 20
38.724278
  0
VERTEX
  8
equipamentos
 10
-9.358096
 20
38.724279
  0
VERTEX
  8
equipamentos
 10
-9.358098
 20
38.724281
  0
VERTEX
  8
equipamentos
 10
-9.358099
 20
38.724282
  0
VERTEX
  8
equipamentos
 10
-9.358100
 20
38.724283
  0
VERTEX
  8
equipamentos
 10
-9.358102
 20
38.724285
  0
VERTEX
  8
equipamentos
 10
-9.358103
 20
38.724286
  0
VERTEX
  8
equipamentos
 10
-9.358104
 20
38.724288
  0
VERTEX
  8
equipamentos
 10
-9.358105
 20
38.724289
  0
VERTEX
  8
equipamentos
 10
-9.358106
 20
38.724291
  0
VERTEX
  8
equipamentos
 10
-9.358107
 20
38.724292
  0
VERTEX
  8
equipamentos
 10
-9.358108
 20
38.724294
  0
VERTEX
  8
equipamentos
 10
-9.358109
 20
38.724295
  0
VERTEX
  8
equipamentos
 10
-9.358110
 20
38.724297
  0
VERTEX
  8
equipamentos
 10
-9.358111
 20
38.724298
  0
VERTEX
  8
equipamentos
 10
-9.358112
 20
38.724300
  0
VERTEX
  8
equipamentos
 10
-9.358113
 20
38.724302
  0
VERTEX
  8
equipamentos
 10
-9.358114
 20
38.724303
  0
VERTEX
  8
equipamentos
 10
-9.358115
 20
38.724305
  0
VERTEX
  8
equipamentos
 10
-9.358115
 20
38.724306
  0
VERTEX
  8
equipamentos
 10
-9.358116
 20
38.724308
  0
VERTEX
  8
equipamentos
 10
-9.358117
 20
38.724310
  0
VERTEX
  8
equipamentos
 10
-9.358117
 20
38.724311
  0
VERTEX
  8
equipamentos
 10
-9.358136
 20
38.724364
  0
VERTEX
  8
equipamentos
 10
-9.358136
 20
38.724366
  0
VERTEX
  8
equipamentos
 10
-9.358137
 20
38.724367
  0
VERTEX
  8
equipamentos
 10
-9.358137
 20
38.724369
  0
VERTEX
  8
equipamentos
 10
-9.358138
 20
38.724371
  0
VERTEX
  8
equipamentos
 10
-9.358138
 20
38.724372
  0
VERTEX
  8
equipamentos
 10
-9.358139
 20
38.724374
  0
VERTEX
  8
equipamentos
 10
-9.358139
 20
38.724376
  0
VERTEX
  8
equipamentos
 10
-9.358139
 20
38.724378
  0
VERTEX
  8
equipamentos
 10
-9.358139
 20
38.724379
  0
VERTEX
  8
equipamentos
 10
-9.358140
 20
38.724381
  0
VERTEX
  8
equipamentos
 10
-9.358140
 20
38.724383
  0
VERTEX
  8
equipamentos
 10
-9.358140
 20
38.724384
  0
VERTEX
  8
equipamentos
 10
-9.358140
 20
38.724386
  0
VERTEX
  8
equipamentos
 10
-9.358140
 20
38.724388
  0
VERTEX
  8
equipamentos
 10
-9.358140
 20
38.724390
  0
VERTEX
  8
equipamentos
 10
-9.358140
 20
38.724391
  0
VERTEX
  8
equipamentos
 10
-9.358140
 20
38.724393
  0
VERTEX
  8
equipamentos
 10
-9.358140
 20
38.724395
  0
VERTEX
  8
equipamentos
 10
-9.358139
 20
38.724396
  0
VERTEX
  8
equipamentos
 10
-9.358139
 20
38.724398
  0
VERTEX
  8
equipamentos
 10
-9.358139
 20
38.724400
  0
VERTEX
  8
equipamentos
 10
-9.358139
 20
38.724402
  0
VERTEX
  8
equipamentos
 10
-9.358138
 20
38.724403
  0
VERTEX
  8
equipamentos
 10
-9.358138
 20
38.724405
  0
VERTEX
  8
equipamentos
 10
-9.358137
 20
38.724407
  0
VERTEX
  8
equipamentos
 10
-9.358137
 20
38.724408
  0
VERTEX
  8
equipamentos
 10
-9.358136
 20
38.724410
  0
VERTEX
  8
equipamentos
 10
-9.358136
 20
38.724412
  0
VERTEX
  8
equipamentos
 10
-9.358135
 20
38.724413
  0
VERTEX
  8
equipamentos
 10
-9.358162
 20
38.724487
  0
VERTEX
  8
equipamentos
 10
-9.358163
 20
38.724492
  0
VERTEX
  8
equipamentos
 10
-9.358164
 20
38.724497
  0
VERTEX
  8
equipamentos
 10
-9.358165
 20
38.724502
  0
VERTEX
  8
equipamentos
 10
-9.358166
 20
38.724506
  0
VERTEX
  8
equipamentos
 10
-9.358166
 20
38.724511
  0
VERTEX
  8
equipamentos
 10
-9.358165
 20
38.724516
  0
VERTEX
  8
equipamentos
 10
-9.358165
 20
38.724521
  0
VERTEX
  8
equipamentos
 10
-9.358164
 20
38.724526
  0
VERTEX
  8
equipamentos
 10
-9.358163
 20
38.724531
  0
VERTEX
  8
equipamentos
 10
-9.358161
 20
38.724535
  0
VERTEX
  8
equipamentos
 10
-9.358160
 20
38.724540
  0
VERTEX
  8
equipamentos
 10
-9.358158
 20
38.724545
  0
VERTEX
  8
equipamentos
 10
-9.358155
 20
38.724549
  0
VERTEX
  8
equipamentos
 10
-9.358152
 20
38.724553
  0
VERTEX
  8
equipamentos
 10
-9.358149
 20
38.724558
  0
VERTEX
  8
equipamentos
 10
-9.358146
 20
38.724562
  0
VERTEX
  8
equipamentos
 10
-9.358142
 20
38.724566
  0
VERTEX
  8
equipamentos
 10
-9.358138
 20
38.724570
  0
VERTEX
  8
equipamentos
 10
-9.358134
 20
38.724573
  0
VERTEX
  8
equipamentos
 10
-9.358130
 20
38.724577
  0
VERTEX
  8
equipamentos
 10
-9.358125
 20
38.724580
  0
VERTEX
  8
equipamentos
 10
-9.358120
 20
38.724583
  0
VERTEX
  8
equipamentos
 10
-9.358115
 20
38.724586
  0
VERTEX
  8
equipamentos
 10
-9.358110
 20
38.724588
  0
VERTEX
  8
equipamentos
 10
-9.358105
 20
38.724591
  0
VERTEX
  8
equipamentos
 10
-9.358099
 20
38.724593
  0
VERTEX
  8
equipamentos
 10
-9.358093
 20
38.724595
  0
VERTEX
  8
equipamentos
 10
-9.358088
 20
38.724597
  0
VERTEX
  8
equipamentos
 10
-9.358082
 20
38.724598
  0
VERTEX
  8
equipamentos
 10
-9.357857
 20
38.724647
  0
VERTEX
  8
equipamentos
 10
-9.357851
 20
38.724648
  0
VERTEX
  8
equipamentos
 10
-9.357845
 20
38.724649
  0
VERTEX
  8
equipamentos
 10
-9.357838
 20
38.724650
  0
VERTEX
  8
equipamentos
 10
-9.357832
 20
38.724650
  0
VERTEX
  8
equipamentos
 10
-9.357826
 20
38.724650
  0
VERTEX
  8
equipamentos
 10
-9.357820
 20
38.724650
  0
VERTEX
  8
equipamentos
 10
-9.357814
 20
38.724650
  0
VERTEX
  8
equipamentos
 10
-9.357807
 20
38.724649
  0
VERTEX
  8
equipamentos
 10
-9.357801
 20
38.724648
  0
VERTEX
  8
equipamentos
 10
-9.357795
 20
38.724647
  0
VERTEX
  8
equipamentos
 10
-9.357789
 20
38.724646
  0
VERTEX
  8
equipamentos
 10
-9.357783
 20
38.724644
  0
VERTEX
  8
equipamentos
 10
-9.357778
 20
38.724642
  0
VERTEX
  8
equipamentos
 10
-9.357772
 20
38.724640
  0
VERTEX
  8
equipamentos
 10
-9.357767
 20
38.724638
  0
VERTEX
  8
equipamentos
 10
-9.357762
 20
38.724635
  0
VERTEX
  8
equipamentos
 10
-9.357756
 20
38.724632
  0
VERTEX
  8
equipamentos
 10
-9.357752
 20
38.724629
  0
VERTEX
  8
equipamentos
 10
-9.357747
 20
38.724626
  0
VERTEX
  8
equipamentos
 10
-9.357743
 20
38.724623
  0
VERTEX
  8
equipamentos
 10
-9.357738
 20
38.724619
  0
VERTEX
  8
equipamentos
 10
-9.357734
 20
38.724615
  0
VERTEX
  8
equipamentos
 10
-9.357731
 20
38.724611
  0
VERTEX
  8
equipamentos
 10
-9.357727
 20
38.724607
  0
VERTEX
  8
equipamentos
 10
-9.357724
 20
38.724603
  0
VERTEX
  8
equipamentos
 10
-9.357722
 20
38.724599
  0
VERTEX
  8
equipamentos
 10
-9.357719
 20
38.724594
  0
VERTEX
  8
equipamentos
 10
-9.357717
 20
38.724590
  0
VERTEX
  8
equipamentos
 10
-9.357715
 20
38.724585
  0
VERTEX
  8
equipamentos
 10
-9.357689
 20
38.724512
  0
VERTEX
  8
equipamentos
 10
-9.357687
 20
38.724511
  0
VERTEX
  8
equipamentos
 10
-9.357686
 20
38.724510
  0
VERTEX
  8
equipamentos
 10
-9.357684
 20
38.724509
  0
VERTEX
  8
equipamentos
 10
-9.357682
 20
38.724507
  0
VERTEX
  8
equipamentos
 10
-9.357681
 20
38.724506
  0
VERTEX
  8
equipamentos
 10
-9.357679
 20
38.724505
  0
VERTEX
  8
equipamentos
 10
-9.357678
 20
38.724503
  0
VERTEX
  8
equipamentos
 10
-9.357676
 20
38.724502
  0
VERTEX
  8
equipamentos
 10
-9.357675
 20
38.724501
  0
VERTEX
  8
equipamentos
 10
-9.357673
 20
38.724499
  0
VERTEX
  8
equipamentos
 10
-9.357672
 20
38.724498
  0
VERTEX
  8
equipamentos
 10
-9.357670
 20
38.724496
  0
VERTEX
  8
equipamentos
 10
-9.357669
 20
38.724495
  0
VERTEX
  8
equipamentos
 10
-9.357668
 20
38.724493
  0
VERTEX
  8
equipamentos
 10
-9.357667
 20
38.724492
  0
VERTEX
  8
equipamentos
 10
-9.357666
 20
38.724490
  0
VERTEX
  8
equipamentos
 10
-9.357664
 20
38.724489
  0
VERTEX
  8
equipamentos
 10
-9.357663
 20
38.724487
  0
VERTEX
  8
equipamentos
 10
-9.357662
 20
38.724486
  0
VERTEX
  8
equipamentos
 10
-9.357661
 20
38.724484
  0
VERTEX
  8
equipamentos
 10
-9.357660
 20
38.724482
  0
VERTEX
  8
equipamentos
 10
-9.357659
 20
38.724481
  0
VERTEX
  8
equipamentos
 10
-9.357658
 20
38.724479
  0
VERTEX
  8
equipamentos
 10
-9.357657
 20
38.724477
  0
VERTEX
  8
equipamentos
 10
-9.357657
 20
38.724476
  0
VERTEX
  8
equipamentos
 10
-9.357656
 20
38.724474
  0
VERTEX
  8
equipamentos
 10
-9.357655
 20
38.724472
  0
VERTEX
  8
equipamentos
 10
-9.357654
 20
38.724470
  0
VERTEX
  8
equipamentos
 10
-9.357654
 20
38.724469
  0
VERTEX
  8
equipamentos
 10
-9.357636
 20
38.724418
  0
VERTEX
  8
equipamentos
 10
-9.357635
 20
38.724416
  0
VERTEX
  8
equipamentos
 10
-9.357634
 20
38.724414
  0
VERTEX
  8
equipamentos
 10
-9.357634
 20
38.724413
  0
VERTEX
  8
equipamentos
 10
-9.357633
 20
38.724411
  0
VERTEX
  8
equipamentos
 10
-9.357633
 20
38.724409
  0
VERTEX
  8
equipamentos
 10
-9.357633
 20
38.724407
  0
VERTEX
  8
equipamentos
 10
-9.357632
 20
38.724406
  0
VERTEX
  8
equipamentos
 10
-9.357632
 20
38.724404
  0
VERTEX
  8
equipamentos
 10
-9.357632
 20
38.724402
  0
VERTEX
  8
equipamentos
 10
-9.357632
 20
38.724400
  0
VERTEX
  8
equipamentos
 10
-9.357631
 20
38.724398
  0
VERTEX
  8
equipamentos
 10
-9.357631
 20
38.724397
  0
VERTEX
  8
equipamentos
 10
-9.357631
 20
38.724395
  0
VERTEX
  8
equipamentos
 10
-9.357631
 20
38.724393
  0
VERTEX
  8
equipamentos
 10
-9.357631
 20
38.724391
  0
VERTEX
  8
equipamentos
 10
-9.357631
 20
38.724389
  0
VERTEX
  8
equipamentos
 10
-9.357632
 20
38.724388
  0
VERTEX
  8
equipamentos
 10
-9.357632
 20
38.724386
  0
VERTEX
  8
equipamentos
 10
-9.357632
 20
38.724384
  0
VERTEX
  8
equipamentos
 10
-9.357632
 20
38.724382
  0
VERTEX
  8
equipamentos
 10
-9.357632
 20
38.724380
  0
VERTEX
  8
equipamentos
 10
-9.357633
 20
38.724379
  0
VERTEX
  8
equipamentos
 10
-9.357633
 20
38.724377
  0
VERTEX
  8
equipamentos
 10
-9.357634
 20
38.724375
  0
VERTEX
  8
equipamentos
 10
-9.357634
 20
38.724373
  0
VERTEX
  8
equipamentos
 10
-9.357635
 20
38.724372
  0
VERTEX
  8
equipamentos
 10
-9.357635
 20
38.724370
  0
VERTEX
  8
equipamentos
 10
-9.357636
 20
38.724368
  0
VERTEX
  8
equipamentos
 10
-9.357637
 20
38.724366
  0
VERTEX
  8
equipamentos
 10
-9.357611
 20
38.724294
  0
VERTEX
  8
equipamentos
 10
-9.357609
 20
38.724289
  0
VERTEX
  8
equipamentos
 10
-9.357608
 20
38.724284
  0
VERTEX
  8
equipamentos
 10
-9.357607
 20
38.724279
  0
VERTEX
  8
equipamentos
 10
-9.357606
 20
38.724274
  0
VERTEX
  8
equipamentos
 10
-9.357606
 20
38.724269
  0
VERTEX
  8
equipamentos
 10
-9.357606
 20
38.724265
  0
VERTEX
  8
equipamentos
 10
-9.357607
 20
38.724260
  0
VERTEX
  8
equipamentos
 10
-9.357608
 20
38.724255
  0
VERTEX
  8
equipamentos
 10
-9.357609
 20
38.724250
  0
VERTEX
  8
equipamentos
 10
-9.357610
 20
38.724245
  0
VERTEX
  8
equipamentos
 10
-9.357612
 20
38.724240
  0
VERTEX
  8
equipamentos
 10
-9.357614
 20
38.724236
  0
VERTEX
  8
equipamentos
 10
-9.357617
 20
38.724231
  0
VERTEX
  8
equipamentos
 10
-9.357620
 20
38.724227
  0
VERTEX
  8
equipamentos
 10
-9.357623
 20
38.724223
  0
VERTEX
  8
equipamentos
 10
-9.357626
 20
38.724218
  0
VERTEX
  8
equipamentos
 10
-9.357630
 20
38.724215
  0
VERTEX
  8
equipamentos
 10
-9.357634
 20
38.724211
  0
VERTEX
  8
equipamentos
 10
-9.357638
 20
38.724207
  0
VERTEX
  8
equipamentos
 10
-9.357642
 20
38.724204
  0
VERTEX
  8
equipamentos
 10
-9.357647
 20
38.724200
  0
VERTEX
  8
equipamentos
 10
-9.357652
 20
38.724197
  0
VERTEX
  8
equipamentos
 10
-9.357657
 20
38.724194
  0
VERTEX
  8
equipamentos
 10
-9.357662
 20
38.724192
  0
VERTEX
  8
equipamentos
 10
-9.357668
 20
38.724189
  0
VERTEX
  8
equipamentos
 10
-9.357673
 20
38.724187
  0
VERTEX
  8
equipamentos
 10
-9.357679
 20
38.724185
  0
VERTEX
  8
equipamentos
 10
-9.357685
 20
38.724184
  0
VERTEX
  8
equipamentos
 10
-9.357691
 20
38.724182
  0
VERTEX
  8
equipamentos
 10
-9.357918
 20
38.724134
  0
SEQEND
  0
POLYLINE
  8
equipamentos
  6
BYLAYER
 66
1
 70
1
 40
0.000000
 41
0.000000
  0
VERTEX
  8
equipamentos
 10
-9.358024
 20
38.724517
  0
VERTEX
  8
equipamentos
 10
-9.357951
 20
38.724533
  0
VERTEX
  8
equipamentos
 10
-9.357947
 20
38.724524
  0
VERTEX
  8
equipamentos
 10
-9.357921
 20
38.724529
  0
VERTEX
  8
equipamentos
 10
-9.357924
 20
38.724539
  0
VERTEX
  8
equipamentos
 10
-9.357826
 20
38.724560
  0
VERTEX
  8
equipamentos
 10
-9.357783
 20
38.724440
  0
VERTEX
  8
equipamentos
 10
-9.357764
 20
38.724444
  0
VERTEX
  8
equipamentos
 10
-9.357746
 20
38.724394
  0
VERTEX
  8
equipamentos
 10
-9.357764
 20
38.724390
  0
VERTEX
  8
equipamentos
 10
-9.357721
 20
38.724269
  0
VERTEX
  8
equipamentos
 10
-9.357821
 20
38.724247
  0
VERTEX
  8
equipamentos
 10
-9.357823
 20
38.724254
  0
VERTEX
  8
equipamentos
 10
-9.357850
 20
38.724248
  0
VERTEX
  8
equipamentos
 10
-9.357848
 20
38.724241
  0
VERTEX
  8
equipamentos
 10
-9.357919
 20
38.724227
  0
VERTEX
  8
equipamentos
 10
-9.357948
 20
38.724221
  0
VERTEX
  8
equipamentos
 10
-9.357990
 20
38.724339
  0
VERTEX
  8
equipamentos
 10
-9.358006
 20
38.724335
  0
VERTEX
  8
equipamentos
 10
-9.358025
 20
38.724388
  0
VERTEX
  8
equipamentos
 10
-9.358008
 20
38.724392
  0
VERTEX
  8
equipamentos
 10
-9.358051
 20
38.724511
  0
VERTEX
  8
equipamentos
 10
-9.358024
 20
38.724517
  0
SEQEND
  0
POLYLINE
  8
equipamentos
  6
BYLAYER
 66
1
 70
1
 40
0.000000
 41
0.000000
  0
VERTEX
  8
equipamentos
 10
-9.415387
 20
38.693503
  0
VERTEX
  8
equipamentos
 10
-9.415382
 20
38.693506
  0
VERTEX
  8
equipamentos
 10
-9.415377
 20
38.693508
  0
VERTEX
  8
equipamentos
 10
-9.415373
 20
38.693510
  0
VERTEX
  8
equipamentos
 10
-9.415368
 20
38.693513
  0
VERTEX
  8
equipamentos
 10
-9.415362
 20
38.693514
  0
VERTEX
  8
equipamentos
 10
-9.415357
 20
38.693516
  0
VERTEX
  8
equipamentos
 10
-9.415352
 20
38.693518
  0
VERTEX
  8
equipamentos
 10
-9.415346
 20
38.693519
  0
VERTEX
  8
equipamentos
 10
-9.415341
 20
38.693520
  0
VERTEX
  8
equipamentos
 10
-9.415335
 20
38.693521
  0
VERTEX
  8
equipamentos
 10
-9.415329
 20
38.693522
  0
VERTEX
  8
equipamentos
 10
-9.415323
 20
38.693522
  0
VERTEX
  8
equipamentos
 10
-9.415318
 20
38.693522
  0
VERTEX
  8
equipamentos
 10
-9.415312
 20
38.693522
  0
VERTEX
  8
equipamentos
 10
-9.415306
 20
38.693522
  0
VERTEX
  8
equipamentos
 10
-9.415301
 20
38.693521
  0
VERTEX
  8
equipamentos
 10
-9.415295
 20
38.693521
  0
VERTEX
  8
equipamentos
 10
-9.415289
 20
38.693520
  0
VERTEX
  8
equipamentos
 10
-9.415284
 20
38.693519
  0
VERTEX
  8
equipamentos
 10
-9.415278
 20
38.693517
  0
VERTEX
  8
equipamentos
 10
-9.415273
 20
38.693516
  0
VERTEX
  8
equipamentos
 10
-9.415268
 20
38.693514
  0
VERTEX
  8
equipamentos
 10
-9.415263
 20
38.693512
  0
VERTEX
  8
equipamentos
 10
-9.415258
 20
38.693510
  0
VERTEX
  8
equipamentos
 10
-9.415253
 20
38.693507
  0
VERTEX
  8
equipamentos
 10
-9.415248
 20
38.693505
  0
VERTEX
  8
equipamentos
 10
-9.415243
 20
38.693502
  0
VERTEX
  8
equipamentos
 10
-9.415239
 20
38.693499
  0
VERTEX
  8
equipamentos
 10
-9.415235
 20
38.693496
  0
VERTEX
  8
equipamentos
 10
-9.415107
 20
38.693396
  0
VERTEX
  8
equipamentos
 10
-9.415103
 20
38.693393
  0
VERTEX
  8
equipamentos
 10
-9.415099
 20
38.693390
  0
VERTEX
  8
equipamentos
 10
-9.415096
 20
38.693386
  0
VERTEX
  8
equipamentos
 10
-9.415092
 20
38.693382
  0
VERTEX
  8
equipamentos
 10
-9.415089
 20
38.693379
  0
VERTEX
  8
equipamentos
 10
-9.415086
 20
38.693375
  0
VERTEX
  8
equipamentos
 10
-9.415084
 20
38.693371
  0
VERTEX
  8
equipamentos
 10
-9.415081
 20
38.693367
  0
VERTEX
  8
equipamentos
 10
-9.415080
 20
38.693363
  0
VERTEX
  8
equipamentos
 10
-9.415078
 20
38.693358
  0
VERTEX
  8
equipamentos
 10
-9.415076
 20
38.693354
  0
VERTEX
  8
equipamentos
 10
-9.415075
 20
38.693350
  0
VERTEX
  8
equipamentos
 10
-9.415074
 20
38.693345
  0
VERTEX
  8
equipamentos
 10
-9.415073
 20
38.693341
  0
VERTEX
  8
equipamentos
 10
-9.415073
 20
38.693336
  0
VERTEX
  8
equipamentos
 10
-9.415073
 20
38.693332
  0
VERTEX
  8
equipamentos
 10
-9.415073
 20
38.693327
  0
VERTEX
  8
equipamentos
 10
-9.415073
 20
38.693323
  0
VERTEX
  8
equipamentos
 10
-9.415074
 20
38.693319
  0
VERTEX
  8
equipamentos
 10
-9.415075
 20
38.693314
  0
VERTEX
  8
equipamentos
 10
-9.415076
 20
38.693310
  0
VERTEX
  8
equipamentos
 10
-9.415078
 20
38.693306
  0
VERTEX
  8
equipamentos
 10
-9.415080
 20
38.693301
  0
VERTEX
  8
equipamentos
 10
-9.415082
 20
38.693297
  0
VERTEX
  8
equipamentos
 10
-9.415084
 20
38.693293
  0
VERTEX
  8
equipamentos
 10
-9.415087
 20
38.693289
  0
VERTEX
  8
equipamentos
 10
-9.415090
 20
38.693285
  0
VERTEX
  8
equipamentos
 10
-9.415093
 20
38.693282
  0
VERTEX
  8
equipamentos
 10
-9.415096
 20
38.693278
  0
VERTEX
  8
equipamentos
 10
-9.415096
 20
38.693275
  0
VERTEX
  8
equipamentos
 10
-9.415096
 20
38.693273
  0
VERTEX
  8
equipamentos
 10
-9.415096
 20
38.693271
  0
VERTEX
  8
equipamentos
 10
-9.415097
 20
38.693268
  0
VERTEX
  8
equipamentos
 10
-9.415097
 20
38.693266
  0
VERTEX
  8
equipamentos
 10
-9.415097
 20
38.693263
  0
VERTEX
  8
equipamentos
 10
-9.415098
 20
38.693261
  0
VERTEX
  8
equipamentos
 10
-9.415099
 20
38.693258
  0
VERTEX
  8
equipamentos
 10
-9.415099
 20
38.693256
  0
VERTEX
  8
equipamentos
 10
-9.415100
 20
38.693254
  0
VERTEX
  8
equipamentos
 10
-9.415101
 20
38.693251
  0
VERTEX
  8
equipamentos
 10
-9.415102
 20
38.693249
  0
VERTEX
  8
equipamentos
 10
-9.415103
 20
38.693247
  0
VERTEX
  8
equipamentos
 10
-9.415104
 20
38.693244
  0
VERTEX
  8
equipamentos
 10
-9.415105
 20
38.693242
  0
VERTEX
  8
equipamentos
 10
-9.415106
 20
38.693240
  0
VERTEX
  8
equipamentos
 10
-9.415108
 20
38.693238
  0
VERTEX
  8
equipamentos
 10
-9.415109
 20
38.693235
  0
VERTEX
  8
equipamentos
 10
-9.415111
 20
38.693233
  0
VERTEX
  8
equipamentos
 10
-9.415112
 20
38.693231
  0
VERTEX
  8
equipamentos
 10
-9.415114
 20
38.693229
  0
VERTEX
  8
equipamentos
 10
-9.415116
 20
38.693227
  0
VERTEX
  8
equipamentos
 10
-9.415117
 20
38.693225
  0
VERTEX
  8
equipamentos
 10
-9.415119
 20
38.693223
  0
VERTEX
  8
equipamentos
 10
-9.415121
 20
38.693221
  0
VERTEX
  8
equipamentos
 10
-9.415123
 20
38.693219
  0
VERTEX
  8
equipamentos
 10
-9.415125
 20
38.693217
  0
VERTEX
  8
equipamentos
 10
-9.415127
 20
38.693216
  0
VERTEX
  8
equipamentos
 10
-9.415129
 20
38.693214
  0
VERTEX
  8
equipamentos
 10
-9.415345
 20
38.693043
  0
VERTEX
  8
equipamentos
 10
-9.415349
 20
38.693039
  0
VERTEX
  8
equipamentos
 10
-9.415354
 20
38.693036
  0
VERTEX
  8
equipamentos
 10
-9.415359
 20
38.693033
  0
VERTEX
  8
equipamentos
 10
-9.415364
 20
38.693030
  0
VERTEX
  8
equipamentos
 10
-9.415369
 20
38.693028
  0
VERTEX
  8
equipamentos
 10
-9.415375
 20
38.693026
  0
VERTEX
  8
equipamentos
 10
-9.415381
 20
38.693024
  0
VERTEX
  8
equipamentos
 10
-9.415387
 20
38.693022
  0
VERTEX
  8
equipamentos
 10
-9.415392
 20
38.693020
  0
VERTEX
  8
equipamentos
 10
-9.415398
 20
38.693019
  0
VERTEX
  8
equipamentos
 10
-9.415404
 20
38.693018
  0
VERTEX
  8
equipamentos
 10
-9.415411
 20
38.693017
  0
VERTEX
  8
equipamentos
 10
-9.415417
 20
38.693016
  0
VERTEX
  8
equipamentos
 10
-9.415423
 20
38.693016
  0
VERTEX
  8
equipamentos
 10
-9.415429
 20
38.693016
  0
VERTEX
  8
equipamentos
 10
-9.415435
 20
38.693016
  0
VERTEX
  8
equipamentos
 10
-9.415442
 20
38.693017
  0
VERTEX
  8
equipamentos
 10
-9.415448
 20
38.693017
  0
VERTEX
  8
equipamentos
 10
-9.415454
 20
38.693019
  0
VERTEX
  8
equipamentos
 10
-9.415460
 20
38.693020
  0
VERTEX
  8
equipamentos
 10
-9.415466
 20
38.693021
  0
VERTEX
  8
equipamentos
 10
-9.415472
 20
38.693023
  0
VERTEX
  8
equipamentos
 10
-9.415477
 20
38.693025
  0
VERTEX
  8
equipamentos
 10
-9.415483
 20
38.693027
  0
VERTEX
  8
equipamentos
 10
-9.415488
 20
38.693030
  0
VERTEX
  8
equipamentos
 10
-9.415493
 20
38.693033
  0
VERTEX
  8
equipamentos
 10
-9.415498
 20
38.693036
  0
VERTEX
  8
equipamentos
 10
-9.415503
 20
38.693039
  0
VERTEX
  8
equipamentos
 10
-9.415508
 20
38.693042
  0
VERTEX
  8
equipamentos
 10
-9.415682
 20
38.693178
  0
VERTEX
  8
equipamentos
 10
-9.415687
 20
38.693182
  0
VERTEX
  8
equipamentos
 10
-9.415691
 20
38.693185
  0
VERTEX
  8
equipamentos
 10
-9.415694
 20
38.693189
  0
VERTEX
  8
equipamentos
 10
-9.415698
 20
38.693193
  0
VERTEX
  8
equipamentos
 10
-9.415701
 20
38.693197
  0
VERTEX
  8
equipamentos
 10
-9.415704
 20
38.693202
  0
VERTEX
  8
equipamentos
 10
-9.415707
 20
38.693206
  0
VERTEX
  8
equipamentos
 10
-9.415709
 20
38.693211
  0
VERTEX
  8
equipamentos
 10
-9.415711
 20
38.693215
  0
VERTEX
  8
equipamentos
 10
-9.415713
 20
38.693220
  0
VERTEX
  8
equipamentos
 10
-9.415714
 20
38.693225
  0
VERTEX
  8
equipamentos
 10
-9.415715
 20
38.693229
  0
VERTEX
  8
equipamentos
 10
-9.415716
 20
38.693234
  0
VERTEX
  8
equipamentos
 10
-9.415716
 20
38.693239
  0
VERTEX
  8
equipamentos
 10
-9.415716
 20
38.693244
  0
VERTEX
  8
equipamentos
 10
-9.415716
 20
38.693249
  0
VERTEX
  8
equipamentos
 10
-9.415715
 20
38.693254
  0
VERTEX
  8
equipamentos
 10
-9.415714
 20
38.693259
  0
VERTEX
  8
equipamentos
 10
-9.415713
 20
38.693263
  0
VERTEX
  8
equipamentos
 10
-9.415711
 20
38.693268
  0
VERTEX
  8
equipamentos
 10
-9.415709
 20
38.693273
  0
VERTEX
  8
equipamentos
 10
-9.415707
 20
38.693277
  0
VERTEX
  8
equipamentos
 10
-9.415704
 20
38.693282
  0
VERTEX
  8
equipamentos
 10
-9.415701
 20
38.693286
  0
VERTEX
  8
equipamentos
 10
-9.415698
 20
38.693290
  0
VERTEX
  8
equipamentos
 10
-9.415695
 20
38.693294
  0
VERTEX
  8
equipamentos
 10
-9.415691
 20
38.693298
  0
VERTEX
  8
equipamentos
 10
-9.415687
 20
38.693302
  0
VERTEX
  8
equipamentos
 10
-9.415683
 20
38.693306
  0
VERTEX
  8
equipamentos
 10
-9.415465
 20
38.693477
  0
VERTEX
  8
equipamentos
 10
-9.415462
 20
38.693478
  0
VERTEX
  8
equipamentos
 10
-9.415460
 20
38.693480
  0
VERTEX
  8
equipamentos
 10
-9.415458
 20
38.693481
  0
VERTEX
  8
equipamentos
 10
-9.415456
 20
38.693483
  0
VERTEX
  8
equipamentos
 10
-9.415453
 20
38.693484
  0
VERTEX
  8
equipamentos
 10
-9.415451
 20
38.693486
  0
VERTEX
  8
equipamentos
 10
-9.415448
 20
38.693487
  0
VERTEX
  8
equipamentos
 10
-9.415446
 20
38.693488
  0
VERTEX
  8
equipamentos
 10
-9.415444
 20
38.693490
  0
VERTEX
  8
equipamentos
 10
-9.415441
 20
38.693491
  0
VERTEX
  8
equipamentos
 10
-9.415438
 20
38.693492
  0
VERTEX
  8
equipamentos
 10
-9.415436
 20
38.693493
  0
VERTEX
  8
equipamentos
 10
-9.415433
 20
38.693494
  0
VERTEX
  8
equipamentos
 10
-9.415430
 20
38.693495
  0
VERTEX
  8
equipamentos
 10
-9.415428
 20
38.693496
  0
VERTEX
  8
equipamentos
 10
-9.415425
 20
38.693497
  0
VERTEX
  8
equipamentos
 10
-9.415422
 20
38.693498
  0
VERTEX
  8
equipamentos
 10
-9.415419
 20
38.693499
  0
VERTEX
  8
equipamentos
 10
-9.415416
 20
38.693499
  0
VERTEX
  8
equipamentos
 10
-9.415413
 20
38.693500
  0
VERTEX
  8
equipamentos
 10
-9.415411
 20
38.693500
  0
VERTEX
  8
equipamentos
 10
-9.415408
 20
38.693501
  0
VERTEX
  8
equipamentos
 10
-9.415405
 20
38.693501
  0
VERTEX
  8
equipamentos
 10
-9.415402
 20
38.693502
  0
VERTEX
  8
equipamentos
 10
-9.415399
 20
38.693502
  0
VERTEX
  8
equipamentos
 10
-9.415396
 20
38.693502
  0
VERTEX
  8
equipamentos
 10
-9.415393
 20
38.693503
  0
VERTEX
  8
equipamentos
 10
-9.415390
 20
38.693503
  0
VERTEX
  8
equipamentos
 10
-9.415387
 20
38.693503
  0
SEQEND
  0
POLYLINE
  8
equipamentos
  6
BYLAYER
 66
1
 70
1
 40
0.000000
 41
0.000000
  0
VERTEX
  8
equipamentos
 10
-9.415427
 20
38.693106
  0
VERTEX
  8
equipamentos
 10
-9.415601
 20
38.693242
  0
VERTEX
  8
equipamentos
 10
-9.415383
 20
38.693413
  0
VERTEX
  8
equipamentos
 10
-9.415362
 20
38.693396
  0
VERTEX
  8
equipamentos
 10
-9.415316
 20
38.693432
  0
VERTEX
  8
equipamentos
 10
-9.415188
 20
38.693332
  0
VERTEX
  8
equipamentos
 10
-9.415235
 20
38.693295
  0
VERTEX
  8
equipamentos
 10
-9.415211
 20
38.693277
  0
VERTEX
  8
equipamentos
 10
-9.415427
 20
38.693106
  0
SEQEND
  0
POLYLINE
  8
equipamentos
  6
BYLAYER
 66
1
 70
1
 40
0.000000
 41
0.000000
  0
VERTEX
  8
equipamentos
 10
-9.358024
 20
38.724517
  0
VERTEX
  8
equipamentos
 10
-9.357951
 20
38.724533
  0
VERTEX
  8
equipamentos
 10
-9.357947
 20
38.724524
  0
VERTEX
  8
equipamentos
 10
-9.357921
 20
38.724529
  0
VERTEX
  8
equipamentos
 10
-9.357924
 20
38.724539
  0
VERTEX
  8
equipamentos
 10
-9.357826
 20
38.724560
  0
VERTEX
  8
equipamentos
 10
-9.357783
 20
38.724440
  0
VERTEX
  8
equipamentos
 10
-9.357764
 20
38.724444
  0
VERTEX
  8
equipamentos
 10
-9.357746
 20
38.724394
  0
VERTEX
  8
equipamentos
 10
-9.357764
 20
38.724390
  0
VERTEX
  8
equipamentos
 10
-9.357721
 20
38.724269
  0
VERTEX
  8
equipamentos
 10
-9.357821
 20
38.724247
  0
VERTEX
  8
equipamentos
 10
-9.357823
 20
38.724254
  0
VERTEX
  8
equipamentos
 10
-9.357850
 20
38.724248
  0
VERTEX
  8
equipamentos
 10
-9.357848
 20
38.724241
  0
VERTEX
  8
equipamentos
 10
-9.357919
 20
38.724227
  0
VERTEX
  8
equipamentos
 10
-9.357948
 20
38.724221
  0
VERTEX
  8
equipamentos
 10
-9.357990
 20
38.724339
  0
VERTEX
  8
equipamentos
 10
-9.358006
 20
38.724335
  0
VERTEX
  8
equipamentos
 10
-9.358025
 20
38.724388
  0
VERTEX
  8
equipamentos
 10
-9.358008
 20
38.724392
  0
VERTEX
  8
equipamentos
 10
-9.358051
 20
38.724511
  0
VERTEX
  8
equipamentos
 10
-9.358024
 20
38.724517
  0
SEQEND
  0
POLYLINE
  8
equipamentos
  6
BYLAYER
 66
1
 70
1
 40
0.000000
 41
0.000000
  0
VERTEX
  8
equipamentos
 10
-9.415427
 20
38.693106
  0
VERTEX
  8
equipamentos
 10
-9.415601
 20
38.693242
  0
VERTEX
  8
equipamentos
 10
-9.415383
 20
38.693413
  0
VERTEX
  8
equipamentos
 10
-9.415362
 20
38.693396
  0
VERTEX
  8
equipamentos
 10
-9.415316
 20
38.693432
  0
VERTEX
  8
equipamentos
 10
-9.415188
 20
38.693332
  0
VERTEX
  8
equipamentos
 10
-9.415235
 20
38.693295
  0
VERTEX
  8
equipamentos
 10
-9.415211
 20
38.693277
  0
VERTEX
  8
equipamentos
 10
-9.415427
 20
38.693106
  0
SEQEND
  0
POLYLINE
  8
equipamentos
  6
BYLAYER
 66
1
 70
1
 40
0.000000
 41
0.000000
  0
VERTEX
  8
equipamentos
 10
-9.385362
 20
38.753852
  0
VERTEX
  8
equipamentos
 10
-9.383096
 20
38.753917
  0
VERTEX
  8
equipamentos
 10
-9.383012
 20
38.752170
  0
VERTEX
  8
equipamentos
 10
-9.385290
 20
38.752114
  0
VERTEX
  8
equipamentos
 10
-9.385362
 20
38.753852
  0
SEQEND
  0
POLYLINE
  8
equipamentos
  6
BYLAYER
 66
1
 70
1
 40
0.000000
 41
0.000000
  0
VERTEX
  8
equipamentos
 10
-9.349691
 20
38.721496
  0
VERTEX
  8
equipamentos
 10
-9.349584
 20
38.721510
  0
VERTEX
  8
equipamentos
 10
-9.349207
 20
38.721565
  0
VERTEX
  8
equipamentos
 10
-9.349253
 20
38.722109
  0
VERTEX
  8
equipamentos
 10
-9.349024
 20
38.722120
  0
VERTEX
  8
equipamentos
 10
-9.349044
 20
38.722663
  0
VERTEX
  8
equipamentos
 10
-9.349048
 20
38.722827
  0
VERTEX
  8
equipamentos
 10
-9.348313
 20
38.722919
  0
VERTEX
  8
equipamentos
 10
-9.347808
 20
38.723437
  0
VERTEX
  8
equipamentos
 10
-9.346497
 20
38.723395
  0
VERTEX
  8
equipamentos
 10
-9.345771
 20
38.723373
  0
VERTEX
  8
equipamentos
 10
-9.346136
 20
38.724470
  0
VERTEX
  8
equipamentos
 10
-9.345912
 20
38.724706
  0
VERTEX
  8
equipamentos
 10
-9.345542
 20
38.725872
  0
VERTEX
  8
equipamentos
 10
-9.345289
 20
38.726687
  0
VERTEX
  8
equipamentos
 10
-9.345254
 20
38.727168
  0
VERTEX
  8
equipamentos
 10
-9.345460
 20
38.727335
  0
VERTEX
  8
equipamentos
 10
-9.346932
 20
38.728029
  0
VERTEX
  8
equipamentos
 10
-9.348996
 20
38.728334
  0
VERTEX
  8
equipamentos
 10
-9.349388
 20
38.728382
  0
VERTEX
  8
equipamentos
 10
-9.351072
 20
38.728576
  0
VERTEX
  8
equipamentos
 10
-9.351690
 20
38.728138
  0
VERTEX
  8
equipamentos
 10
-9.353783
 20
38.726659
  0
VERTEX
  8
equipamentos
 10
-9.354109
 20
38.726428
  0
VERTEX
  8
equipamentos
 10
-9.354312
 20
38.726648
  0
VERTEX
  8
equipamentos
 10
-9.354014
 20
38.726859
  0
VERTEX
  8
equipamentos
 10
-9.351921
 20
38.728338
  0
VERTEX
  8
equipamentos
 10
-9.351183
 20
38.728862
  0
VERTEX
  8
equipamentos
 10
-9.349336
 20
38.728649
  0
VERTEX
  8
equipamentos
 10
-9.348937
 20
38.728600
  0
VERTEX
  8
equipamentos
 10
-9.346807
 20
38.728286
  0
VERTEX
  8
equipamentos
 10
-9.345243
 20
38.727548
  0
VERTEX
  8
equipamentos
 10
-9.344901
 20
38.727270
  0
VERTEX
  8
equipamentos
 10
-9.344946
 20
38.726647
  0
VERTEX
  8
equipamentos
 10
-9.345207
 20
38.725807
  0
VERTEX
  8
equipamentos
 10
-9.345594
 20
38.724589
  0
VERTEX
  8
equipamentos
 10
-9.345761
 20
38.724413
  0
VERTEX
  8
equipamentos
 10
-9.345320
 20
38.723089
  0
VERTEX
  8
equipamentos
 10
-9.346511
 20
38.723125
  0
VERTEX
  8
equipamentos
 10
-9.347643
 20
38.723162
  0
VERTEX
  8
equipamentos
 10
-9.348122
 20
38.722669
  0
VERTEX
  8
equipamentos
 10
-9.348696
 20
38.722598
  0
VERTEX
  8
equipamentos
 10
-9.348670
 20
38.721867
  0
VERTEX
  8
equipamentos
 10
-9.348886
 20
38.721856
  0
VERTEX
  8
equipamentos
 10
-9.348842
 20
38.721343
  0
VERTEX
  8
equipamentos
 10
-9.349485
 20
38.721250
  0
VERTEX
  8
equipamentos
 10
-9.349594
 20
38.721383
  0
VERTEX
  8
equipamentos
 10
-9.349691
 20
38.721496
  0
SEQEND
  0
POLYLINE
  8
equipamentos
  6
BYLAYER
 66
1
 70
1
 40
0.000000
 41
0.000000
  0
VERTEX
  8
equipamentos
 10
-9.384733
 20
38.749170
  0
VERTEX
  8
equipamentos
 10
-9.386541
 20
38.748619
  0
VERTEX
  8
equipamentos
 10
-9.390524
 20
38.749575
  0
VERTEX
  8
equipamentos
 10
-9.389644
 20
38.752140
  0
VERTEX
  8
equipamentos
 10
-9.388412
 20
38.755870
  0
VERTEX
  8
equipamentos
 10
-9.387638
 20
38.755942
  0
VERTEX
  8
equipamentos
 10
-9.385983
 20
38.756550
  0
VERTEX
  8
equipamentos
 10
-9.384448
 20
38.757097
  0
VERTEX
  8
equipamentos
 10
-9.382517
 20
38.757831
  0
VERTEX
  8
equipamentos
 10
-9.382061
 20
38.757938
  0
VERTEX
  8
equipamentos
 10
-9.381504
 20
38.757005
  0
VERTEX
  8
equipamentos
 10
-9.380672
 20
38.755666
  0
VERTEX
  8
equipamentos
 10
-9.381153
 20
38.755336
  0
VERTEX
  8
equipamentos
 10
-9.380917
 20
38.754975
  0
VERTEX
  8
equipamentos
 10
-9.380714
 20
38.754567
  0
VERTEX
  8
equipamentos
 10
-9.380530
 20
38.753778
  0
VERTEX
  8
equipamentos
 10
-9.380417
 20
38.753502
  0
VERTEX
  8
equipamentos
 10
-9.380252
 20
38.753196
  0
VERTEX
  8
equipamentos
 10
-9.379938
 20
38.752374
  0
VERTEX
  8
equipamentos
 10
-9.379688
 20
38.751804
  0
VERTEX
  8
equipamentos
 10
-9.379298
 20
38.751240
  0
VERTEX
  8
equipamentos
 10
-9.384733
 20
38.749170
  0
SEQEND
  0
POLYLINE
  8
equipamentos
  6
BYLAYER
 66
1
 70
1
 40
0.000000
 41
0.000000
  0
VERTEX
  8
equipamentos
 10
-9.385362
 20
38.753852
  0
VERTEX
  8
equipamentos
 10
-9.383096
 20
38.753917
  0
VERTEX
  8
equipamentos
 10
-9.383012
 20
38.752170
  0
VERTEX
  8
equipamentos
 10
-9.385290
 20
38.752114
  0
VERTEX
  8
equipamentos
 10
-9.385362
 20
38.753852
  0
SEQEND
  0
POLYLINE
  8
equipamentos
  6
BYLAYER
 66
1
 70
1
 40
0.000000
 41
0.000000
  0
VERTEX
  8
equipamentos
 10
-9.354578
 20
38.726168
  0
VERTEX
  8
equipamentos
 10
-9.354874
 20
38.726493
  0
VERTEX
  8
equipamentos
 10
-9.354168
 20
38.726993
  0
VERTEX
  8
equipamentos
 10
-9.352075
 20
38.728472
  0
VERTEX
  8
equipamentos
 10
-9.351257
 20
38.729053
  0
VERTEX
  8
equipamentos
 10
-9.349301
 20
38.728827
  0
VERTEX
  8
equipamentos
 10
-9.348898
 20
38.728777
  0
VERTEX
  8
equipamentos
 10
-9.346724
 20
38.728457
  0
VERTEX
  8
equipamentos
 10
-9.345098
 20
38.727690
  0
VERTEX
  8
equipamentos
 10
-9.344666
 20
38.727338
  0
VERTEX
  8
equipamentos
 10
-9.344718
 20
38.726621
  0
VERTEX
  8
equipamentos
 10
-9.344984
 20
38.725764
  0
VERTEX
  8
equipamentos
 10
-9.345382
 20
38.724510
  0
VERTEX
  8
equipamentos
 10
-9.345510
 20
38.724375
  0
VERTEX
  8
equipamentos
 10
-9.345019
 20
38.722899
  0
VERTEX
  8
equipamentos
 10
-9.346520
 20
38.722945
  0
VERTEX
  8
equipamentos
 10
-9.347533
 20
38.722978
  0
VERTEX
  8
equipamentos
 10
-9.347995
 20
38.722502
  0
VERTEX
  8
equipamentos
 10
-9.348461
 20
38.722444
  0
VERTEX
  8
equipamentos
 10
-9.348434
 20
38.721699
  0
VERTEX
  8
equipamentos
 10
-9.348641
 20
38.721688
  0
VERTEX
  8
equipamentos
 10
-9.348599
 20
38.721194
  0
VERTEX
  8
equipamentos
 10
-9.349485
 20
38.721067
  0
VERTEX
  8
equipamentos
 10
-9.349967
 20
38.721004
  0
VERTEX
  8
equipamentos
 10
-9.350166
 20
38.721242
  0
VERTEX
  8
equipamentos
 10
-9.350657
 20
38.721779
  0
VERTEX
  8
equipamentos
 10
-9.350859
 20
38.721999
  0
VERTEX
  8
equipamentos
 10
-9.354578
 20
38.726168
  0
SEQEND
  0
POLYLINE
  8
equipamentos
  6
BYLAYER
 66
1
 70
1
 40
0.000000
 41
0.000000
  0
VERTEX
  8
equipamentos
 10
-9.353783
 20
38.726659
  0
VERTEX
  8
equipamentos
 10
-9.354109
 20
38.726428
  0
VERTEX
  8
equipamentos
 10
-9.354312
 20
38.726648
  0
VERTEX
  8
equipamentos
 10
-9.354014
 20
38.726859
  0
VERTEX
  8
equipamentos
 10
-9.351921
 20
38.728338
  0
VERTEX
  8
equipamentos
 10
-9.351183
 20
38.728862
  0
VERTEX
  8
equipamentos
 10
-9.349336
 20
38.728649
  0
VERTEX
  8
equipamentos
 10
-9.348937
 20
38.728600
  0
VERTEX
  8
equipamentos
 10
-9.346807
 20
38.728286
  0
VERTEX
  8
equipamentos
 10
-9.345243
 20
38.727548
  0
VERTEX
  8
equipamentos
 10
-9.344901
 20
38.727270
  0
VERTEX
  8
equipamentos
 10
-9.344946
 20
38.726647
  0
VERTEX
  8
equipamentos
 10
-9.345207
 20
38.725807
  0
VERTEX
  8
equipamentos
 10
-9.345594
 20
38.724589
  0
VERTEX
  8
equipamentos
 10
-9.345761
 20
38.724413
  0
VERTEX
  8
equipamentos
 10
-9.345320
 20
38.723089
  0
VERTEX
  8
equipamentos
 10
-9.346511
 20
38.723125
  0
VERTEX
  8
equipamentos
 10
-9.347643
 20
38.723162
  0
VERTEX
  8
equipamentos
 10
-9.348122
 20
38.722669
  0
VERTEX
  8
equipamentos
 10
-9.348696
 20
38.722598
  0
VERTEX
  8
equipamentos
 10
-9.348670
 20
38.721867
  0
VERTEX
  8
equipamentos
 10
-9.348886
 20
38.721856
  0
VERTEX
  8
equipamentos
 10
-9.348842
 20
38.721343
  0
VERTEX
  8
equipamentos
 10
-9.349485
 20
38.721250
  0
VERTEX
  8
equipamentos
 10
-9.349594
 20
38.721383
  0
VERTEX
  8
equipamentos
 10
-9.349691
 20
38.721496
  0
VERTEX
  8
equipamentos
 10
-9.350190
 20
38.722041
  0
VERTEX
  8
equipamentos
 10
-9.350390
 20
38.722259
  0
VERTEX
  8
equipamentos
 10
-9.349914
 20
38.722525
  0
VERTEX
  8
equipamentos
 10
-9.350569
 20
38.723243
  0
VERTEX
  8
equipamentos
 10
-9.350730
 20
38.723419
  0
VERTEX
  8
equipamentos
 10
-9.350756
 20
38.723405
  0
VERTEX
  8
equipamentos
 10
-9.350904
 20
38.723570
  0
VERTEX
  8
equipamentos
 10
-9.350881
 20
38.723583
  0
VERTEX
  8
equipamentos
 10
-9.350917
 20
38.723622
  0
VERTEX
  8
equipamentos
 10
-9.350913
 20
38.723624
  0
VERTEX
  8
equipamentos
 10
-9.350948
 20
38.723660
  0
VERTEX
  8
equipamentos
 10
-9.350980
 20
38.723699
  0
VERTEX
  8
equipamentos
 10
-9.351467
 20
38.724233
  0
VERTEX
  8
equipamentos
 10
-9.352266
 20
38.725104
  0
VERTEX
  8
equipamentos
 10
-9.352497
 20
38.725353
  0
VERTEX
  8
equipamentos
 10
-9.352555
 20
38.725422
  0
VERTEX
  8
equipamentos
 10
-9.352591
 20
38.725464
  0
VERTEX
  8
equipamentos
 10
-9.352697
 20
38.725577
  0
VERTEX
  8
equipamentos
 10
-9.352885
 20
38.725791
  0
VERTEX
  8
equipamentos
 10
-9.352993
 20
38.725906
  0
VERTEX
  8
equipamentos
 10
-9.353296
 20
38.726233
  0
VERTEX
  8
equipamentos
 10
-9.353783
 20
38.726659
  0
SEQEND
  0
POLYLINE
  8
equipamentos
  6
BYLAYER
 66
1
 70
1
 40
0.000000
 41
0.000000
  0
VERTEX
  8
equipamentos
 10
-9.349691
 20
38.721496
  0
VERTEX
  8
equipamentos
 10
-9.350190
 20
38.722041
  0
VERTEX
  8
equipamentos
 10
-9.350390
 20
38.722259
  0
VERTEX
  8
equipamentos
 10
-9.349914
 20
38.722525
  0
VERTEX
  8
equipamentos
 10
-9.350569
 20
38.723243
  0
VERTEX
  8
equipamentos
 10
-9.350730
 20
38.723419
  0
VERTEX
  8
equipamentos
 10
-9.350756
 20
38.723405
  0
VERTEX
  8
equipamentos
 10
-9.350904
 20
38.723570
  0
VERTEX
  8
equipamentos
 10
-9.350881
 20
38.723583
  0
VERTEX
  8
equipamentos
 10
-9.350917
 20
38.723622
  0
VERTEX
  8
equipamentos
 10
-9.350913
 20
38.723624
  0
VERTEX
  8
equipamentos
 10
-9.350948
 20
38.723660
  0
VERTEX
  8
equipamentos
 10
-9.350980
 20
38.723699
  0
VERTEX
  8
equipamentos
 10
-9.351467
 20
38.724233
  0
VERTEX
  8
equipamentos
 10
-9.352266
 20
38.725104
  0
VERTEX
  8
equipamentos
 10
-9.352497
 20
38.725353
  0
VERTEX
  8
equipamentos
 10
-9.352555
 20
38.725422
  0
VERTEX
  8
equipamentos
 10
-9.352591
 20
38.725464
  0
VERTEX
  8
equipamentos
 10
-9.352697
 20
38.725577
  0
VERTEX
  8
equipamentos
 10
-9.352885
 20
38.725791
  0
VERTEX
  8
equipamentos
 10
-9.352993
 20
38.725906
  0
VERTEX
  8
equipamentos
 10
-9.353296
 20
38.726233
  0
VERTEX
  8
equipamentos
 10
-9.353783
 20
38.726659
  0
VERTEX
  8
equipamentos
 10
-9.351690
 20
38.728138
  0
VERTEX
  8
equipamentos
 10
-9.351072
 20
38.728576
  0
VERTEX
  8
equipamentos
 10
-9.349388
 20
38.728382
  0
VERTEX
  8
equipamentos
 10
-9.348996
 20
38.728334
  0
VERTEX
  8
equipamentos
 10
-9.346932
 20
38.728029
  0
VERTEX
  8
equipamentos
 10
-9.345460
 20
38.727335
  0
VERTEX
  8
equipamentos
 10
-9.345254
 20
38.727168
  0
VERTEX
  8
equipamentos
 10
-9.345289
 20
38.726687
  0
VERTEX
  8
equipamentos
 10
-9.345542
 20
38.725872
  0
VERTEX
  8
equipamentos
 10
-9.345912
 20
38.724706
  0
VERTEX
  8
equipamentos
 10
-9.346136
 20
38.724470
  0
VERTEX
  8
equipamentos
 10
-9.345771
 20
38.723373
  0
VERTEX
  8
equipamentos
 10
-9.346497
 20
38.723395
  0
VERTEX
  8
equipamentos
 10
-9.347808
 20
38.723437
  0
VERTEX
  8
equipamentos
 10
-9.348313
 20
38.722919
  0
VERTEX
  8
equipamentos
 10
-9.349048
 20
38.722827
  0
VERTEX
  8
equipamentos
 10
-9.349044
 20
38.722663
  0
VERTEX
  8
equipamentos
 10
-9.349024
 20
38.722120
  0
VERTEX
  8
equipamentos
 10
-9.349253
 20
38.722109
  0
VERTEX
  8
equipamentos
 10
-9.349207
 20
38.721565
  0
VERTEX
  8
equipamentos
 10
-9.349584
 20
38.721510
  0
VERTEX
  8
equipamentos
 10
-9.349691
 20
38.721496
  0
SEQEND
  0
ENDSEC
  0
EOF
