  0
SECTION
  2
HEADER
  9
$LTSCALE
 40
1.000000
  9
$LUNITS
 70
2
  9
$LUPREC
 70
4
  9
$AUNITS
 70
1
  9
$AUPREC
 70
4
  9
$FILLMODE
 70
1
  0
ENDSEC
  0
SECTION
  2
TABLES
  0
TABLE
  2
VPORT
 70
0
  0
ENDTAB
  0
TABLE
  2
LTYPE
 70
1
  0
LTYPE
  2
CONTINUOUS
 70
64
  3
Solid line
 72
65
 73
0
 40
0.000000
  0
ENDTAB
  0
TABLE
  2
LAYER
 70
1
  0
LAYER
  2
0
 62
1
  6
CONTINUOUS
 70
64
  0
ENDTAB
  0
TABLE
  2
STYLE
 70
1
  0
STYLE
  2
STANDARD
 70
64
 40
0.000000
 41
1.000000
 50
0.000000
 71
0
 42
2.000000
  3
txt
  4

  0
ENDTAB
  0
TABLE
  2
VIEW
 70
0
  0
ENDTAB
  0
TABLE
  2
UCS
 70
0
  0
ENDTAB
  0
TABLE
  2
APPID
 70
0
  0
ENDTAB
  0
TABLE
  2
DIMSTYLE
 70
1
  0
DIMSTYLE
  2
STANDARD
 70
0
  3

  4

  5

  6

  7

 40
1.000000
 41
3.000000
 42
2.500000
 43
10.000000
 44
2.500000
 45
0.000000
 46
1.250000
 47
0.000000
 48
0.000000
140
3.000000
141
-3.000000
142
0.000000
143
0.039000
144
1.000000
145
1.500000
146
0.750000
147
1.500000
 71
0
 72
0
 73
0
 74
0
 75
0
 76
0
 77
0
 78
0
170
0
171
0
172
0
173
0
174
0
175
0
176
0
177
0
178
0
  0
ENDTAB
  0
ENDSEC
  0
SECTION
  2
ENTITIES
  0
POLYLINE
  8
parque_municipal
  6
BYLAYER
 66
1
 70
1
 40
0.000000
 41
0.000000
  0
VERTEX
  8
parque_municipal
 10
-9.443661
 20
38.700875
  0
VERTEX
  8
parque_municipal
 10
-9.443668
 20
38.700884
  0
VERTEX
  8
parque_municipal
 10
-9.443674
 20
38.700891
  0
VERTEX
  8
parque_municipal
 10
-9.443685
 20
38.700903
  0
VERTEX
  8
parque_municipal
 10
-9.443701
 20
38.700917
  0
VERTEX
  8
parque_municipal
 10
-9.443725
 20
38.700936
  0
VERTEX
  8
parque_municipal
 10
-9.443777
 20
38.700970
  0
VERTEX
  8
parque_municipal
 10
-9.444060
 20
38.701150
  0
VERTEX
  8
parque_municipal
 10
-9.444282
 20
38.701287
  0
VERTEX
  8
parque_municipal
 10
-9.444294
 20
38.701406
  0
VERTEX
  8
parque_municipal
 10
-9.444343
 20
38.701404
  0
VERTEX
  8
parque_municipal
 10
-9.444346
 20
38.701403
  0
VERTEX
  8
parque_municipal
 10
-9.444430
 20
38.701384
  0
VERTEX
  8
parque_municipal
 10
-9.444432
 20
38.701382
  0
VERTEX
  8
parque_municipal
 10
-9.444438
 20
38.701379
  0
VERTEX
  8
parque_municipal
 10
-9.444529
 20
38.701294
  0
VERTEX
  8
parque_municipal
 10
-9.444567
 20
38.701319
  0
VERTEX
  8
parque_municipal
 10
-9.444576
 20
38.701379
  0
VERTEX
  8
parque_municipal
 10
-9.444582
 20
38.701414
  0
VERTEX
  8
parque_municipal
 10
-9.444596
 20
38.701511
  0
VERTEX
  8
parque_municipal
 10
-9.444610
 20
38.701602
  0
VERTEX
  8
parque_municipal
 10
-9.444625
 20
38.701699
  0
VERTEX
  8
parque_municipal
 10
-9.444641
 20
38.701806
  0
VERTEX
  8
parque_municipal
 10
-9.444585
 20
38.701812
  0
VERTEX
  8
parque_municipal
 10
-9.444600
 20
38.701922
  0
VERTEX
  8
parque_municipal
 10
-9.444615
 20
38.702016
  0
VERTEX
  8
parque_municipal
 10
-9.444630
 20
38.702110
  0
VERTEX
  8
parque_municipal
 10
-9.444645
 20
38.702109
  0
VERTEX
  8
parque_municipal
 10
-9.444661
 20
38.702205
  0
VERTEX
  8
parque_municipal
 10
-9.444690
 20
38.702385
  0
VERTEX
  8
parque_municipal
 10
-9.444707
 20
38.702490
  0
VERTEX
  8
parque_municipal
 10
-9.444712
 20
38.702520
  0
VERTEX
  8
parque_municipal
 10
-9.444722
 20
38.702583
  0
VERTEX
  8
parque_municipal
 10
-9.444741
 20
38.702704
  0
VERTEX
  8
parque_municipal
 10
-9.444719
 20
38.702707
  0
VERTEX
  8
parque_municipal
 10
-9.444674
 20
38.702711
  0
VERTEX
  8
parque_municipal
 10
-9.444660
 20
38.702713
  0
VERTEX
  8
parque_municipal
 10
-9.444634
 20
38.702556
  0
VERTEX
  8
parque_municipal
 10
-9.444192
 20
38.702538
  0
VERTEX
  8
parque_municipal
 10
-9.443862
 20
38.702527
  0
VERTEX
  8
parque_municipal
 10
-9.443862
 20
38.702525
  0
VERTEX
  8
parque_municipal
 10
-9.443847
 20
38.702527
  0
VERTEX
  8
parque_municipal
 10
-9.443844
 20
38.702527
  0
VERTEX
  8
parque_municipal
 10
-9.443842
 20
38.702528
  0
VERTEX
  8
parque_municipal
 10
-9.443840
 20
38.702529
  0
VERTEX
  8
parque_municipal
 10
-9.443837
 20
38.702530
  0
VERTEX
  8
parque_municipal
 10
-9.443835
 20
38.702532
  0
VERTEX
  8
parque_municipal
 10
-9.443832
 20
38.702534
  0
VERTEX
  8
parque_municipal
 10
-9.443830
 20
38.702536
  0
VERTEX
  8
parque_municipal
 10
-9.443815
 20
38.702562
  0
VERTEX
  8
parque_municipal
 10
-9.443803
 20
38.702582
  0
VERTEX
  8
parque_municipal
 10
-9.443799
 20
38.702589
  0
VERTEX
  8
parque_municipal
 10
-9.443790
 20
38.702599
  0
VERTEX
  8
parque_municipal
 10
-9.443780
 20
38.702607
  0
VERTEX
  8
parque_municipal
 10
-9.443770
 20
38.702614
  0
VERTEX
  8
parque_municipal
 10
-9.443763
 20
38.702618
  0
VERTEX
  8
parque_municipal
 10
-9.443755
 20
38.702622
  0
VERTEX
  8
parque_municipal
 10
-9.443746
 20
38.702625
  0
VERTEX
  8
parque_municipal
 10
-9.443741
 20
38.702626
  0
VERTEX
  8
parque_municipal
 10
-9.443735
 20
38.702628
  0
VERTEX
  8
parque_municipal
 10
-9.443709
 20
38.702630
  0
VERTEX
  8
parque_municipal
 10
-9.443702
 20
38.702630
  0
VERTEX
  8
parque_municipal
 10
-9.443696
 20
38.702631
  0
VERTEX
  8
parque_municipal
 10
-9.443692
 20
38.702631
  0
VERTEX
  8
parque_municipal
 10
-9.443685
 20
38.702633
  0
VERTEX
  8
parque_municipal
 10
-9.443680
 20
38.702634
  0
VERTEX
  8
parque_municipal
 10
-9.443676
 20
38.702635
  0
VERTEX
  8
parque_municipal
 10
-9.443671
 20
38.702637
  0
VERTEX
  8
parque_municipal
 10
-9.443659
 20
38.702603
  0
VERTEX
  8
parque_municipal
 10
-9.443661
 20
38.702601
  0
VERTEX
  8
parque_municipal
 10
-9.443640
 20
38.702470
  0
VERTEX
  8
parque_municipal
 10
-9.443636
 20
38.702470
  0
VERTEX
  8
parque_municipal
 10
-9.443565
 20
38.702038
  0
VERTEX
  8
parque_municipal
 10
-9.443538
 20
38.701858
  0
VERTEX
  8
parque_municipal
 10
-9.443534
 20
38.701837
  0
VERTEX
  8
parque_municipal
 10
-9.443507
 20
38.701673
  0
VERTEX
  8
parque_municipal
 10
-9.443504
 20
38.701653
  0
VERTEX
  8
parque_municipal
 10
-9.443477
 20
38.701490
  0
VERTEX
  8
parque_municipal
 10
-9.443474
 20
38.701471
  0
VERTEX
  8
parque_municipal
 10
-9.443448
 20
38.701300
  0
VERTEX
  8
parque_municipal
 10
-9.443445
 20
38.701285
  0
VERTEX
  8
parque_municipal
 10
-9.443418
 20
38.701114
  0
VERTEX
  8
parque_municipal
 10
-9.443415
 20
38.701093
  0
VERTEX
  8
parque_municipal
 10
-9.443387
 20
38.700929
  0
VERTEX
  8
parque_municipal
 10
-9.443384
 20
38.700908
  0
VERTEX
  8
parque_municipal
 10
-9.443358
 20
38.700741
  0
VERTEX
  8
parque_municipal
 10
-9.443354
 20
38.700719
  0
VERTEX
  8
parque_municipal
 10
-9.443328
 20
38.700553
  0
VERTEX
  8
parque_municipal
 10
-9.443324
 20
38.700530
  0
VERTEX
  8
parque_municipal
 10
-9.443288
 20
38.700324
  0
VERTEX
  8
parque_municipal
 10
-9.443274
 20
38.700242
  0
VERTEX
  8
parque_municipal
 10
-9.443432
 20
38.700319
  0
VERTEX
  8
parque_municipal
 10
-9.443454
 20
38.700334
  0
VERTEX
  8
parque_municipal
 10
-9.443455
 20
38.700333
  0
VERTEX
  8
parque_municipal
 10
-9.443560
 20
38.700412
  0
VERTEX
  8
parque_municipal
 10
-9.443566
 20
38.700418
  0
VERTEX
  8
parque_municipal
 10
-9.443571
 20
38.700426
  0
VERTEX
  8
parque_municipal
 10
-9.443582
 20
38.700460
  0
VERTEX
  8
parque_municipal
 10
-9.443611
 20
38.700657
  0
VERTEX
  8
parque_municipal
 10
-9.443630
 20
38.700783
  0
VERTEX
  8
parque_municipal
 10
-9.443635
 20
38.700815
  0
VERTEX
  8
parque_municipal
 10
-9.443638
 20
38.700826
  0
VERTEX
  8
parque_municipal
 10
-9.443641
 20
38.700837
  0
VERTEX
  8
parque_municipal
 10
-9.443646
 20
38.700848
  0
VERTEX
  8
parque_municipal
 10
-9.443651
 20
38.700858
  0
VERTEX
  8
parque_municipal
 10
-9.443657
 20
38.700868
  0
VERTEX
  8
parque_municipal
 10
-9.443661
 20
38.700875
  0
SEQEND
  0
POLYLINE
  8
parque_municipal
  6
BYLAYER
 66
1
 70
1
 40
0.000000
 41
0.000000
  0
VERTEX
  8
parque_municipal
 10
-9.442740
 20
38.697938
  0
VERTEX
  8
parque_municipal
 10
-9.442610
 20
38.697926
  0
VERTEX
  8
parque_municipal
 10
-9.442600
 20
38.697878
  0
VERTEX
  8
parque_municipal
 10
-9.442552
 20
38.697646
  0
VERTEX
  8
parque_municipal
 10
-9.442452
 20
38.697289
  0
VERTEX
  8
parque_municipal
 10
-9.442440
 20
38.697235
  0
VERTEX
  8
parque_municipal
 10
-9.442268
 20
38.697259
  0
VERTEX
  8
parque_municipal
 10
-9.442065
 20
38.697270
  0
VERTEX
  8
parque_municipal
 10
-9.442055
 20
38.697529
  0
VERTEX
  8
parque_municipal
 10
-9.442041
 20
38.697530
  0
VERTEX
  8
parque_municipal
 10
-9.442029
 20
38.697451
  0
VERTEX
  8
parque_municipal
 10
-9.441996
 20
38.697314
  0
VERTEX
  8
parque_municipal
 10
-9.441971
 20
38.697206
  0
VERTEX
  8
parque_municipal
 10
-9.441955
 20
38.697142
  0
VERTEX
  8
parque_municipal
 10
-9.441942
 20
38.697089
  0
VERTEX
  8
parque_municipal
 10
-9.441928
 20
38.697034
  0
VERTEX
  8
parque_municipal
 10
-9.441914
 20
38.696981
  0
VERTEX
  8
parque_municipal
 10
-9.441901
 20
38.696930
  0
VERTEX
  8
parque_municipal
 10
-9.441871
 20
38.696811
  0
VERTEX
  8
parque_municipal
 10
-9.441828
 20
38.696638
  0
VERTEX
  8
parque_municipal
 10
-9.441807
 20
38.696554
  0
VERTEX
  8
parque_municipal
 10
-9.441773
 20
38.696420
  0
VERTEX
  8
parque_municipal
 10
-9.441742
 20
38.696316
  0
VERTEX
  8
parque_municipal
 10
-9.441729
 20
38.696276
  0
VERTEX
  8
parque_municipal
 10
-9.441722
 20
38.696245
  0
VERTEX
  8
parque_municipal
 10
-9.441717
 20
38.696221
  0
VERTEX
  8
parque_municipal
 10
-9.441696
 20
38.695978
  0
VERTEX
  8
parque_municipal
 10
-9.441690
 20
38.695980
  0
VERTEX
  8
parque_municipal
 10
-9.441685
 20
38.695934
  0
VERTEX
  8
parque_municipal
 10
-9.441723
 20
38.695930
  0
VERTEX
  8
parque_municipal
 10
-9.441916
 20
38.695907
  0
VERTEX
  8
parque_municipal
 10
-9.442013
 20
38.695898
  0
VERTEX
  8
parque_municipal
 10
-9.442049
 20
38.695894
  0
VERTEX
  8
parque_municipal
 10
-9.442132
 20
38.695885
  0
VERTEX
  8
parque_municipal
 10
-9.442142
 20
38.695893
  0
VERTEX
  8
parque_municipal
 10
-9.442154
 20
38.695903
  0
VERTEX
  8
parque_municipal
 10
-9.442158
 20
38.695905
  0
VERTEX
  8
parque_municipal
 10
-9.442161
 20
38.695906
  0
VERTEX
  8
parque_municipal
 10
-9.442171
 20
38.695908
  0
VERTEX
  8
parque_municipal
 10
-9.442179
 20
38.695909
  0
VERTEX
  8
parque_municipal
 10
-9.442195
 20
38.695909
  0
VERTEX
  8
parque_municipal
 10
-9.442219
 20
38.695908
  0
VERTEX
  8
parque_municipal
 10
-9.442225
 20
38.695908
  0
VERTEX
  8
parque_municipal
 10
-9.442233
 20
38.695909
  0
VERTEX
  8
parque_municipal
 10
-9.442256
 20
38.695918
  0
VERTEX
  8
parque_municipal
 10
-9.442261
 20
38.695920
  0
VERTEX
  8
parque_municipal
 10
-9.442298
 20
38.695935
  0
VERTEX
  8
parque_municipal
 10
-9.442350
 20
38.695950
  0
VERTEX
  8
parque_municipal
 10
-9.442391
 20
38.695957
  0
VERTEX
  8
parque_municipal
 10
-9.442460
 20
38.695966
  0
VERTEX
  8
parque_municipal
 10
-9.442566
 20
38.695974
  0
VERTEX
  8
parque_municipal
 10
-9.442581
 20
38.695975
  0
VERTEX
  8
parque_municipal
 10
-9.442596
 20
38.695978
  0
VERTEX
  8
parque_municipal
 10
-9.442611
 20
38.695982
  0
VERTEX
  8
parque_municipal
 10
-9.442625
 20
38.695987
  0
VERTEX
  8
parque_municipal
 10
-9.442639
 20
38.695992
  0
VERTEX
  8
parque_municipal
 10
-9.442652
 20
38.695999
  0
VERTEX
  8
parque_municipal
 10
-9.442675
 20
38.696015
  0
VERTEX
  8
parque_municipal
 10
-9.442685
 20
38.696024
  0
VERTEX
  8
parque_municipal
 10
-9.442694
 20
38.696034
  0
VERTEX
  8
parque_municipal
 10
-9.442702
 20
38.696045
  0
VERTEX
  8
parque_municipal
 10
-9.442707
 20
38.696053
  0
VERTEX
  8
parque_municipal
 10
-9.442728
 20
38.696091
  0
VERTEX
  8
parque_municipal
 10
-9.442773
 20
38.696174
  0
VERTEX
  8
parque_municipal
 10
-9.442823
 20
38.696285
  0
VERTEX
  8
parque_municipal
 10
-9.442841
 20
38.696280
  0
VERTEX
  8
parque_municipal
 10
-9.442847
 20
38.696288
  0
VERTEX
  8
parque_municipal
 10
-9.442851
 20
38.696296
  0
VERTEX
  8
parque_municipal
 10
-9.442863
 20
38.696334
  0
VERTEX
  8
parque_municipal
 10
-9.442869
 20
38.696347
  0
VERTEX
  8
parque_municipal
 10
-9.442829
 20
38.696344
  0
VERTEX
  8
parque_municipal
 10
-9.442807
 20
38.696342
  0
VERTEX
  8
parque_municipal
 10
-9.442787
 20
38.696340
  0
VERTEX
  8
parque_municipal
 10
-9.442780
 20
38.696340
  0
VERTEX
  8
parque_municipal
 10
-9.442777
 20
38.696340
  0
VERTEX
  8
parque_municipal
 10
-9.442770
 20
38.696340
  0
VERTEX
  8
parque_municipal
 10
-9.442766
 20
38.696340
  0
VERTEX
  8
parque_municipal
 10
-9.442762
 20
38.696341
  0
VERTEX
  8
parque_municipal
 10
-9.442759
 20
38.696341
  0
VERTEX
  8
parque_municipal
 10
-9.442754
 20
38.696341
  0
VERTEX
  8
parque_municipal
 10
-9.442749
 20
38.696342
  0
VERTEX
  8
parque_municipal
 10
-9.442745
 20
38.696343
  0
VERTEX
  8
parque_municipal
 10
-9.442741
 20
38.696344
  0
VERTEX
  8
parque_municipal
 10
-9.442738
 20
38.696344
  0
VERTEX
  8
parque_municipal
 10
-9.442735
 20
38.696345
  0
VERTEX
  8
parque_municipal
 10
-9.442731
 20
38.696346
  0
VERTEX
  8
parque_municipal
 10
-9.442725
 20
38.696348
  0
VERTEX
  8
parque_municipal
 10
-9.442721
 20
38.696349
  0
VERTEX
  8
parque_municipal
 10
-9.442718
 20
38.696350
  0
VERTEX
  8
parque_municipal
 10
-9.442712
 20
38.696353
  0
VERTEX
  8
parque_municipal
 10
-9.442702
 20
38.696357
  0
VERTEX
  8
parque_municipal
 10
-9.442697
 20
38.696360
  0
VERTEX
  8
parque_municipal
 10
-9.442688
 20
38.696366
  0
VERTEX
  8
parque_municipal
 10
-9.442681
 20
38.696371
  0
VERTEX
  8
parque_municipal
 10
-9.442673
 20
38.696376
  0
VERTEX
  8
parque_municipal
 10
-9.442668
 20
38.696381
  0
VERTEX
  8
parque_municipal
 10
-9.442664
 20
38.696385
  0
VERTEX
  8
parque_municipal
 10
-9.442660
 20
38.696390
  0
VERTEX
  8
parque_municipal
 10
-9.442655
 20
38.696394
  0
VERTEX
  8
parque_municipal
 10
-9.442650
 20
38.696402
  0
VERTEX
  8
parque_municipal
 10
-9.442647
 20
38.696407
  0
VERTEX
  8
parque_municipal
 10
-9.442642
 20
38.696415
  0
VERTEX
  8
parque_municipal
 10
-9.442640
 20
38.696420
  0
VERTEX
  8
parque_municipal
 10
-9.442638
 20
38.696426
  0
VERTEX
  8
parque_municipal
 10
-9.442636
 20
38.696434
  0
VERTEX
  8
parque_municipal
 10
-9.442634
 20
38.696444
  0
VERTEX
  8
parque_municipal
 10
-9.442626
 20
38.696453
  0
VERTEX
  8
parque_municipal
 10
-9.442607
 20
38.696681
  0
VERTEX
  8
parque_municipal
 10
-9.442611
 20
38.696746
  0
VERTEX
  8
parque_municipal
 10
-9.442643
 20
38.696979
  0
VERTEX
  8
parque_municipal
 10
-9.442671
 20
38.696996
  0
VERTEX
  8
parque_municipal
 10
-9.442689
 20
38.697002
  0
VERTEX
  8
parque_municipal
 10
-9.442769
 20
38.697012
  0
VERTEX
  8
parque_municipal
 10
-9.442741
 20
38.697262
  0
VERTEX
  8
parque_municipal
 10
-9.442778
 20
38.697264
  0
VERTEX
  8
parque_municipal
 10
-9.442764
 20
38.697486
  0
VERTEX
  8
parque_municipal
 10
-9.442753
 20
38.697518
  0
VERTEX
  8
parque_municipal
 10
-9.442833
 20
38.697544
  0
VERTEX
  8
parque_municipal
 10
-9.442850
 20
38.697647
  0
VERTEX
  8
parque_municipal
 10
-9.442872
 20
38.697832
  0
VERTEX
  8
parque_municipal
 10
-9.442881
 20
38.697931
  0
VERTEX
  8
parque_municipal
 10
-9.442877
 20
38.697936
  0
VERTEX
  8
parque_municipal
 10
-9.442873
 20
38.697940
  0
VERTEX
  8
parque_municipal
 10
-9.442854
 20
38.697943
  0
VERTEX
  8
parque_municipal
 10
-9.442740
 20
38.697938
  0
SEQEND
  0
POLYLINE
  8
parque_municipal
  6
BYLAYER
 66
1
 70
1
 40
0.000000
 41
0.000000
  0
VERTEX
  8
parque_municipal
 10
-9.443422
 20
38.697670
  0
VERTEX
  8
parque_municipal
 10
-9.443686
 20
38.697746
  0
VERTEX
  8
parque_municipal
 10
-9.443771
 20
38.697721
  0
VERTEX
  8
parque_municipal
 10
-9.443814
 20
38.697732
  0
VERTEX
  8
parque_municipal
 10
-9.443908
 20
38.697755
  0
VERTEX
  8
parque_municipal
 10
-9.444077
 20
38.697803
  0
VERTEX
  8
parque_municipal
 10
-9.444077
 20
38.697804
  0
VERTEX
  8
parque_municipal
 10
-9.444075
 20
38.697810
  0
VERTEX
  8
parque_municipal
 10
-9.444071
 20
38.697852
  0
VERTEX
  8
parque_municipal
 10
-9.444032
 20
38.697856
  0
VERTEX
  8
parque_municipal
 10
-9.444024
 20
38.697879
  0
VERTEX
  8
parque_municipal
 10
-9.444026
 20
38.697889
  0
VERTEX
  8
parque_municipal
 10
-9.444099
 20
38.698235
  0
VERTEX
  8
parque_municipal
 10
-9.444115
 20
38.698233
  0
VERTEX
  8
parque_municipal
 10
-9.444139
 20
38.698230
  0
VERTEX
  8
parque_municipal
 10
-9.444172
 20
38.698226
  0
VERTEX
  8
parque_municipal
 10
-9.444291
 20
38.698212
  0
VERTEX
  8
parque_municipal
 10
-9.444301
 20
38.698256
  0
VERTEX
  8
parque_municipal
 10
-9.444386
 20
38.698262
  0
VERTEX
  8
parque_municipal
 10
-9.444602
 20
38.698240
  0
VERTEX
  8
parque_municipal
 10
-9.444601
 20
38.698202
  0
VERTEX
  8
parque_municipal
 10
-9.444514
 20
38.697719
  0
VERTEX
  8
parque_municipal
 10
-9.444940
 20
38.697977
  0
VERTEX
  8
parque_municipal
 10
-9.444808
 20
38.698116
  0
VERTEX
  8
parque_municipal
 10
-9.444677
 20
38.698254
  0
VERTEX
  8
parque_municipal
 10
-9.444653
 20
38.698241
  0
VERTEX
  8
parque_municipal
 10
-9.444609
 20
38.698283
  0
VERTEX
  8
parque_municipal
 10
-9.444506
 20
38.698385
  0
VERTEX
  8
parque_municipal
 10
-9.444520
 20
38.698393
  0
VERTEX
  8
parque_municipal
 10
-9.444541
 20
38.698405
  0
VERTEX
  8
parque_municipal
 10
-9.444454
 20
38.698354
  0
VERTEX
  8
parque_municipal
 10
-9.444299
 20
38.698513
  0
VERTEX
  8
parque_municipal
 10
-9.444336
 20
38.698533
  0
VERTEX
  8
parque_municipal
 10
-9.444181
 20
38.698688
  0
VERTEX
  8
parque_municipal
 10
-9.444017
 20
38.698858
  0
VERTEX
  8
parque_municipal
 10
-9.444061
 20
38.698883
  0
VERTEX
  8
parque_municipal
 10
-9.443959
 20
38.698964
  0
VERTEX
  8
parque_municipal
 10
-9.443967
 20
38.699006
  0
VERTEX
  8
parque_municipal
 10
-9.443864
 20
38.699016
  0
VERTEX
  8
parque_municipal
 10
-9.443875
 20
38.699092
  0
VERTEX
  8
parque_municipal
 10
-9.443886
 20
38.699168
  0
VERTEX
  8
parque_municipal
 10
-9.443897
 20
38.699238
  0
VERTEX
  8
parque_municipal
 10
-9.443908
 20
38.699314
  0
VERTEX
  8
parque_municipal
 10
-9.443919
 20
38.699389
  0
VERTEX
  8
parque_municipal
 10
-9.443930
 20
38.699463
  0
VERTEX
  8
parque_municipal
 10
-9.443942
 20
38.699545
  0
VERTEX
  8
parque_municipal
 10
-9.443954
 20
38.699628
  0
VERTEX
  8
parque_municipal
 10
-9.443970
 20
38.699735
  0
VERTEX
  8
parque_municipal
 10
-9.443986
 20
38.699841
  0
VERTEX
  8
parque_municipal
 10
-9.443998
 20
38.699921
  0
VERTEX
  8
parque_municipal
 10
-9.444011
 20
38.700010
  0
VERTEX
  8
parque_municipal
 10
-9.443993
 20
38.700012
  0
VERTEX
  8
parque_municipal
 10
-9.444017
 20
38.700216
  0
VERTEX
  8
parque_municipal
 10
-9.443787
 20
38.700451
  0
VERTEX
  8
parque_municipal
 10
-9.443669
 20
38.700298
  0
VERTEX
  8
parque_municipal
 10
-9.443723
 20
38.700242
  0
VERTEX
  8
parque_municipal
 10
-9.443665
 20
38.700208
  0
VERTEX
  8
parque_municipal
 10
-9.443611
 20
38.700264
  0
VERTEX
  8
parque_municipal
 10
-9.443584
 20
38.700268
  0
VERTEX
  8
parque_municipal
 10
-9.443574
 20
38.700264
  0
VERTEX
  8
parque_municipal
 10
-9.443563
 20
38.700259
  0
VERTEX
  8
parque_municipal
 10
-9.443554
 20
38.700252
  0
VERTEX
  8
parque_municipal
 10
-9.443472
 20
38.700196
  0
VERTEX
  8
parque_municipal
 10
-9.443466
 20
38.700187
  0
VERTEX
  8
parque_municipal
 10
-9.443460
 20
38.700179
  0
VERTEX
  8
parque_municipal
 10
-9.443429
 20
38.700147
  0
VERTEX
  8
parque_municipal
 10
-9.443437
 20
38.700138
  0
VERTEX
  8
parque_municipal
 10
-9.443445
 20
38.700130
  0
VERTEX
  8
parque_municipal
 10
-9.443452
 20
38.700121
  0
VERTEX
  8
parque_municipal
 10
-9.443458
 20
38.700111
  0
VERTEX
  8
parque_municipal
 10
-9.443463
 20
38.700101
  0
VERTEX
  8
parque_municipal
 10
-9.443467
 20
38.700091
  0
VERTEX
  8
parque_municipal
 10
-9.443470
 20
38.700081
  0
VERTEX
  8
parque_municipal
 10
-9.443473
 20
38.700071
  0
VERTEX
  8
parque_municipal
 10
-9.443474
 20
38.700060
  0
VERTEX
  8
parque_municipal
 10
-9.443475
 20
38.700050
  0
VERTEX
  8
parque_municipal
 10
-9.443474
 20
38.700039
  0
VERTEX
  8
parque_municipal
 10
-9.443472
 20
38.699977
  0
VERTEX
  8
parque_municipal
 10
-9.443464
 20
38.699827
  0
VERTEX
  8
parque_municipal
 10
-9.443461
 20
38.699718
  0
VERTEX
  8
parque_municipal
 10
-9.443453
 20
38.699533
  0
VERTEX
  8
parque_municipal
 10
-9.443451
 20
38.699528
  0
VERTEX
  8
parque_municipal
 10
-9.443448
 20
38.699523
  0
VERTEX
  8
parque_municipal
 10
-9.443445
 20
38.699518
  0
VERTEX
  8
parque_municipal
 10
-9.443441
 20
38.699514
  0
VERTEX
  8
parque_municipal
 10
-9.443436
 20
38.699510
  0
VERTEX
  8
parque_municipal
 10
-9.443431
 20
38.699506
  0
VERTEX
  8
parque_municipal
 10
-9.443426
 20
38.699503
  0
VERTEX
  8
parque_municipal
 10
-9.443420
 20
38.699500
  0
VERTEX
  8
parque_municipal
 10
-9.443413
 20
38.699498
  0
VERTEX
  8
parque_municipal
 10
-9.443407
 20
38.699497
  0
VERTEX
  8
parque_municipal
 10
-9.443403
 20
38.699497
  0
VERTEX
  8
parque_municipal
 10
-9.443355
 20
38.699489
  0
VERTEX
  8
parque_municipal
 10
-9.443349
 20
38.699468
  0
VERTEX
  8
parque_municipal
 10
-9.443350
 20
38.699430
  0
VERTEX
  8
parque_municipal
 10
-9.443348
 20
38.699390
  0
VERTEX
  8
parque_municipal
 10
-9.443344
 20
38.699336
  0
VERTEX
  8
parque_municipal
 10
-9.443385
 20
38.699313
  0
VERTEX
  8
parque_municipal
 10
-9.443382
 20
38.699275
  0
VERTEX
  8
parque_municipal
 10
-9.443380
 20
38.699135
  0
VERTEX
  8
parque_municipal
 10
-9.443380
 20
38.699120
  0
VERTEX
  8
parque_municipal
 10
-9.443384
 20
38.699034
  0
VERTEX
  8
parque_municipal
 10
-9.443456
 20
38.699033
  0
VERTEX
  8
parque_municipal
 10
-9.443458
 20
38.699033
  0
VERTEX
  8
parque_municipal
 10
-9.443524
 20
38.699051
  0
VERTEX
  8
parque_municipal
 10
-9.443530
 20
38.699052
  0
VERTEX
  8
parque_municipal
 10
-9.443517
 20
38.698973
  0
VERTEX
  8
parque_municipal
 10
-9.443596
 20
38.698964
  0
VERTEX
  8
parque_municipal
 10
-9.443754
 20
38.698940
  0
VERTEX
  8
parque_municipal
 10
-9.443647
 20
38.698299
  0
VERTEX
  8
parque_municipal
 10
-9.443635
 20
38.698234
  0
VERTEX
  8
parque_municipal
 10
-9.443623
 20
38.698110
  0
VERTEX
  8
parque_municipal
 10
-9.443451
 20
38.698126
  0
VERTEX
  8
parque_municipal
 10
-9.443439
 20
38.698054
  0
VERTEX
  8
parque_municipal
 10
-9.443381
 20
38.698057
  0
VERTEX
  8
parque_municipal
 10
-9.443334
 20
38.698064
  0
VERTEX
  8
parque_municipal
 10
-9.443275
 20
38.698084
  0
VERTEX
  8
parque_municipal
 10
-9.443233
 20
38.698084
  0
VERTEX
  8
parque_municipal
 10
-9.443200
 20
38.698098
  0
VERTEX
  8
parque_municipal
 10
-9.443175
 20
38.698083
  0
VERTEX
  8
parque_municipal
 10
-9.443176
 20
38.698039
  0
VERTEX
  8
parque_municipal
 10
-9.443179
 20
38.697993
  0
VERTEX
  8
parque_municipal
 10
-9.443264
 20
38.697997
  0
VERTEX
  8
parque_municipal
 10
-9.443268
 20
38.697936
  0
VERTEX
  8
parque_municipal
 10
-9.443272
 20
38.697883
  0
VERTEX
  8
parque_municipal
 10
-9.443259
 20
38.697883
  0
VERTEX
  8
parque_municipal
 10
-9.443261
 20
38.697857
  0
VERTEX
  8
parque_municipal
 10
-9.443290
 20
38.697858
  0
VERTEX
  8
parque_municipal
 10
-9.443292
 20
38.697837
  0
VERTEX
  8
parque_municipal
 10
-9.443295
 20
38.697804
  0
VERTEX
  8
parque_municipal
 10
-9.443300
 20
38.697774
  0
VERTEX
  8
parque_municipal
 10
-9.443332
 20
38.697776
  0
VERTEX
  8
parque_municipal
 10
-9.443361
 20
38.697565
  0
VERTEX
  8
parque_municipal
 10
-9.443364
 20
38.697560
  0
VERTEX
  8
parque_municipal
 10
-9.443372
 20
38.697564
  0
VERTEX
  8
parque_municipal
 10
-9.443398
 20
38.697606
  0
VERTEX
  8
parque_municipal
 10
-9.443395
 20
38.697613
  0
VERTEX
  8
parque_municipal
 10
-9.443422
 20
38.697670
  0
SEQEND
  0
POINT
  8
parque_municipal
  6
BYLAYER
 10
-9.443985
 20
38.701711
 50
0.000000
  0
POLYLINE
  8
parque_municipal
  6
BYLAYER
 66
1
 70
1
 40
0.000000
 41
0.000000
  0
VERTEX
  8
parque_municipal
 10
-9.408858
 20
38.704757
  0
VERTEX
  8
parque_municipal
 10
-9.408846
 20
38.704742
  0
VERTEX
  8
parque_municipal
 10
-9.408835
 20
38.704727
  0
VERTEX
  8
parque_municipal
 10
-9.408826
 20
38.704715
  0
VERTEX
  8
parque_municipal
 10
-9.408815
 20
38.704700
  0
VERTEX
  8
parque_municipal
 10
-9.408809
 20
38.704693
  0
VERTEX
  8
parque_municipal
 10
-9.408806
 20
38.704688
  0
VERTEX
  8
parque_municipal
 10
-9.408798
 20
38.704678
  0
VERTEX
  8
parque_municipal
 10
-9.408794
 20
38.704673
  0
VERTEX
  8
parque_municipal
 10
-9.408788
 20
38.704665
  0
VERTEX
  8
parque_municipal
 10
-9.408779
 20
38.704652
  0
VERTEX
  8
parque_municipal
 10
-9.408771
 20
38.704642
  0
VERTEX
  8
parque_municipal
 10
-9.408765
 20
38.704635
  0
VERTEX
  8
parque_municipal
 10
-9.408755
 20
38.704621
  0
VERTEX
  8
parque_municipal
 10
-9.408744
 20
38.704606
  0
VERTEX
  8
parque_municipal
 10
-9.408730
 20
38.704588
  0
VERTEX
  8
parque_municipal
 10
-9.408723
 20
38.704579
  0
VERTEX
  8
parque_municipal
 10
-9.408698
 20
38.704546
  0
VERTEX
  8
parque_municipal
 10
-9.408692
 20
38.704538
  0
VERTEX
  8
parque_municipal
 10
-9.408667
 20
38.704508
  0
VERTEX
  8
parque_municipal
 10
-9.408661
 20
38.704501
  0
VERTEX
  8
parque_municipal
 10
-9.408639
 20
38.704473
  0
VERTEX
  8
parque_municipal
 10
-9.408606
 20
38.704433
  0
VERTEX
  8
parque_municipal
 10
-9.408576
 20
38.704396
  0
VERTEX
  8
parque_municipal
 10
-9.408546
 20
38.704347
  0
VERTEX
  8
parque_municipal
 10
-9.408534
 20
38.704331
  0
VERTEX
  8
parque_municipal
 10
-9.408522
 20
38.704316
  0
VERTEX
  8
parque_municipal
 10
-9.408504
 20
38.704294
  0
VERTEX
  8
parque_municipal
 10
-9.408478
 20
38.704259
  0
VERTEX
  8
parque_municipal
 10
-9.408446
 20
38.704218
  0
VERTEX
  8
parque_municipal
 10
-9.408411
 20
38.704174
  0
VERTEX
  8
parque_municipal
 10
-9.408524
 20
38.704105
  0
VERTEX
  8
parque_municipal
 10
-9.408560
 20
38.704083
  0
VERTEX
  8
parque_municipal
 10
-9.408616
 20
38.704051
  0
VERTEX
  8
parque_municipal
 10
-9.408628
 20
38.704046
  0
VERTEX
  8
parque_municipal
 10
-9.408636
 20
38.704043
  0
VERTEX
  8
parque_municipal
 10
-9.408647
 20
38.704041
  0
VERTEX
  8
parque_municipal
 10
-9.408658
 20
38.704040
  0
VERTEX
  8
parque_municipal
 10
-9.408668
 20
38.704041
  0
VERTEX
  8
parque_municipal
 10
-9.408682
 20
38.704042
  0
VERTEX
  8
parque_municipal
 10
-9.408702
 20
38.704044
  0
VERTEX
  8
parque_municipal
 10
-9.408729
 20
38.704049
  0
VERTEX
  8
parque_municipal
 10
-9.408747
 20
38.704053
  0
VERTEX
  8
parque_municipal
 10
-9.408771
 20
38.704059
  0
VERTEX
  8
parque_municipal
 10
-9.408798
 20
38.704068
  0
VERTEX
  8
parque_municipal
 10
-9.408820
 20
38.704076
  0
VERTEX
  8
parque_municipal
 10
-9.408842
 20
38.704085
  0
VERTEX
  8
parque_municipal
 10
-9.408854
 20
38.704091
  0
VERTEX
  8
parque_municipal
 10
-9.408874
 20
38.704102
  0
VERTEX
  8
parque_municipal
 10
-9.408888
 20
38.704110
  0
VERTEX
  8
parque_municipal
 10
-9.408917
 20
38.704128
  0
VERTEX
  8
parque_municipal
 10
-9.408955
 20
38.704158
  0
VERTEX
  8
parque_municipal
 10
-9.408985
 20
38.704199
  0
VERTEX
  8
parque_municipal
 10
-9.409001
 20
38.704218
  0
VERTEX
  8
parque_municipal
 10
-9.409012
 20
38.704231
  0
VERTEX
  8
parque_municipal
 10
-9.409027
 20
38.704252
  0
VERTEX
  8
parque_municipal
 10
-9.409039
 20
38.704267
  0
VERTEX
  8
parque_municipal
 10
-9.409056
 20
38.704301
  0
VERTEX
  8
parque_municipal
 10
-9.409073
 20
38.704338
  0
VERTEX
  8
parque_municipal
 10
-9.409078
 20
38.704350
  0
VERTEX
  8
parque_municipal
 10
-9.409088
 20
38.704389
  0
VERTEX
  8
parque_municipal
 10
-9.409092
 20
38.704402
  0
VERTEX
  8
parque_municipal
 10
-9.409097
 20
38.704432
  0
VERTEX
  8
parque_municipal
 10
-9.409096
 20
38.704448
  0
VERTEX
  8
parque_municipal
 10
-9.409095
 20
38.704462
  0
VERTEX
  8
parque_municipal
 10
-9.409094
 20
38.704478
  0
VERTEX
  8
parque_municipal
 10
-9.409091
 20
38.704494
  0
VERTEX
  8
parque_municipal
 10
-9.409085
 20
38.704514
  0
VERTEX
  8
parque_municipal
 10
-9.409078
 20
38.704534
  0
VERTEX
  8
parque_municipal
 10
-9.409070
 20
38.704550
  0
VERTEX
  8
parque_municipal
 10
-9.409070
 20
38.704560
  0
VERTEX
  8
parque_municipal
 10
-9.409047
 20
38.704575
  0
VERTEX
  8
parque_municipal
 10
-9.409049
 20
38.704590
  0
VERTEX
  8
parque_municipal
 10
-9.409048
 20
38.704602
  0
VERTEX
  8
parque_municipal
 10
-9.409045
 20
38.704617
  0
VERTEX
  8
parque_municipal
 10
-9.409039
 20
38.704631
  0
VERTEX
  8
parque_municipal
 10
-9.409031
 20
38.704643
  0
VERTEX
  8
parque_municipal
 10
-9.409014
 20
38.704664
  0
VERTEX
  8
parque_municipal
 10
-9.408996
 20
38.704685
  0
VERTEX
  8
parque_municipal
 10
-9.408983
 20
38.704699
  0
VERTEX
  8
parque_municipal
 10
-9.408970
 20
38.704708
  0
VERTEX
  8
parque_municipal
 10
-9.408969
 20
38.704708
  0
VERTEX
  8
parque_municipal
 10
-9.408962
 20
38.704716
  0
VERTEX
  8
parque_municipal
 10
-9.408943
 20
38.704734
  0
VERTEX
  8
parque_municipal
 10
-9.408927
 20
38.704749
  0
VERTEX
  8
parque_municipal
 10
-9.408920
 20
38.704756
  0
VERTEX
  8
parque_municipal
 10
-9.408908
 20
38.704763
  0
VERTEX
  8
parque_municipal
 10
-9.408900
 20
38.704767
  0
VERTEX
  8
parque_municipal
 10
-9.408891
 20
38.704770
  0
VERTEX
  8
parque_municipal
 10
-9.408883
 20
38.704771
  0
VERTEX
  8
parque_municipal
 10
-9.408878
 20
38.704771
  0
VERTEX
  8
parque_municipal
 10
-9.408869
 20
38.704768
  0
VERTEX
  8
parque_municipal
 10
-9.408860
 20
38.704759
  0
VERTEX
  8
parque_municipal
 10
-9.408858
 20
38.704757
  0
SEQEND
  0
POINT
  8
parque_municipal
  6
BYLAYER
 10
-9.408801
 20
38.704362
 50
0.625772
  0
POLYLINE
  8
parque_municipal
  6
BYLAYER
 66
1
 70
1
 40
0.000000
 41
0.000000
  0
VERTEX
  8
parque_municipal
 10
-9.420769
 20
38.695051
  0
VERTEX
  8
parque_municipal
 10
-9.420727
 20
38.695050
  0
VERTEX
  8
parque_municipal
 10
-9.420725
 20
38.695248
  0
VERTEX
  8
parque_municipal
 10
-9.420613
 20
38.695102
  0
VERTEX
  8
parque_municipal
 10
-9.420450
 20
38.694898
  0
VERTEX
  8
parque_municipal
 10
-9.420448
 20
38.694763
  0
VERTEX
  8
parque_municipal
 10
-9.420880
 20
38.694610
  0
VERTEX
  8
parque_municipal
 10
-9.420991
 20
38.694576
  0
VERTEX
  8
parque_municipal
 10
-9.420999
 20
38.694575
  0
VERTEX
  8
parque_municipal
 10
-9.421008
 20
38.694577
  0
VERTEX
  8
parque_municipal
 10
-9.421018
 20
38.694583
  0
VERTEX
  8
parque_municipal
 10
-9.421058
 20
38.694619
  0
VERTEX
  8
parque_municipal
 10
-9.421159
 20
38.694728
  0
VERTEX
  8
parque_municipal
 10
-9.421210
 20
38.694790
  0
VERTEX
  8
parque_municipal
 10
-9.421220
 20
38.694805
  0
VERTEX
  8
parque_municipal
 10
-9.421230
 20
38.694825
  0
VERTEX
  8
parque_municipal
 10
-9.421242
 20
38.694867
  0
VERTEX
  8
parque_municipal
 10
-9.421246
 20
38.694923
  0
VERTEX
  8
parque_municipal
 10
-9.421246
 20
38.694984
  0
VERTEX
  8
parque_municipal
 10
-9.421245
 20
38.695008
  0
VERTEX
  8
parque_municipal
 10
-9.421243
 20
38.695016
  0
VERTEX
  8
parque_municipal
 10
-9.421240
 20
38.695021
  0
VERTEX
  8
parque_municipal
 10
-9.421148
 20
38.695020
  0
VERTEX
  8
parque_municipal
 10
-9.421148
 20
38.695031
  0
VERTEX
  8
parque_municipal
 10
-9.420770
 20
38.695025
  0
VERTEX
  8
parque_municipal
 10
-9.420769
 20
38.695051
  0
SEQEND
  0
POINT
  8
parque_municipal
  6
BYLAYER
 10
-9.420848
 20
38.694858
 50
0.631631
  0
POLYLINE
  8
parque_municipal
  6
BYLAYER
 66
1
 70
1
 40
0.000000
 41
0.000000
  0
VERTEX
  8
parque_municipal
 10
-9.421838
 20
38.694937
  0
VERTEX
  8
parque_municipal
 10
-9.421865
 20
38.694941
  0
VERTEX
  8
parque_municipal
 10
-9.421864
 20
38.694909
  0
VERTEX
  8
parque_municipal
 10
-9.421864
 20
38.694909
  0
VERTEX
  8
parque_municipal
 10
-9.421864
 20
38.694907
  0
VERTEX
  8
parque_municipal
 10
-9.421864
 20
38.694905
  0
VERTEX
  8
parque_municipal
 10
-9.421865
 20
38.694902
  0
VERTEX
  8
parque_municipal
 10
-9.421865
 20
38.694900
  0
VERTEX
  8
parque_municipal
 10
-9.421866
 20
38.694898
  0
VERTEX
  8
parque_municipal
 10
-9.421867
 20
38.694896
  0
VERTEX
  8
parque_municipal
 10
-9.421868
 20
38.694893
  0
VERTEX
  8
parque_municipal
 10
-9.421869
 20
38.694891
  0
VERTEX
  8
parque_municipal
 10
-9.421870
 20
38.694889
  0
VERTEX
  8
parque_municipal
 10
-9.421871
 20
38.694887
  0
VERTEX
  8
parque_municipal
 10
-9.421872
 20
38.694885
  0
VERTEX
  8
parque_municipal
 10
-9.421873
 20
38.694883
  0
VERTEX
  8
parque_municipal
 10
-9.421874
 20
38.694881
  0
VERTEX
  8
parque_municipal
 10
-9.421876
 20
38.694879
  0
VERTEX
  8
parque_municipal
 10
-9.421877
 20
38.694877
  0
VERTEX
  8
parque_municipal
 10
-9.421879
 20
38.694875
  0
VERTEX
  8
parque_municipal
 10
-9.421880
 20
38.694873
  0
VERTEX
  8
parque_municipal
 10
-9.421882
 20
38.694871
  0
VERTEX
  8
parque_municipal
 10
-9.421884
 20
38.694869
  0
VERTEX
  8
parque_municipal
 10
-9.421886
 20
38.694867
  0
VERTEX
  8
parque_municipal
 10
-9.421888
 20
38.694866
  0
VERTEX
  8
parque_municipal
 10
-9.421890
 20
38.694864
  0
VERTEX
  8
parque_municipal
 10
-9.421892
 20
38.694862
  0
VERTEX
  8
parque_municipal
 10
-9.421894
 20
38.694861
  0
VERTEX
  8
parque_municipal
 10
-9.421896
 20
38.694859
  0
VERTEX
  8
parque_municipal
 10
-9.421898
 20
38.694858
  0
VERTEX
  8
parque_municipal
 10
-9.421901
 20
38.694856
  0
VERTEX
  8
parque_municipal
 10
-9.421903
 20
38.694855
  0
VERTEX
  8
parque_municipal
 10
-9.421906
 20
38.694854
  0
VERTEX
  8
parque_municipal
 10
-9.421908
 20
38.694852
  0
VERTEX
  8
parque_municipal
 10
-9.421911
 20
38.694851
  0
VERTEX
  8
parque_municipal
 10
-9.421913
 20
38.694850
  0
VERTEX
  8
parque_municipal
 10
-9.421916
 20
38.694849
  0
VERTEX
  8
parque_municipal
 10
-9.421918
 20
38.694848
  0
VERTEX
  8
parque_municipal
 10
-9.421921
 20
38.694847
  0
VERTEX
  8
parque_municipal
 10
-9.421924
 20
38.694846
  0
VERTEX
  8
parque_municipal
 10
-9.421927
 20
38.694845
  0
VERTEX
  8
parque_municipal
 10
-9.421929
 20
38.694845
  0
VERTEX
  8
parque_municipal
 10
-9.421932
 20
38.694844
  0
VERTEX
  8
parque_municipal
 10
-9.421935
 20
38.694843
  0
VERTEX
  8
parque_municipal
 10
-9.422039
 20
38.694833
  0
VERTEX
  8
parque_municipal
 10
-9.422228
 20
38.694811
  0
VERTEX
  8
parque_municipal
 10
-9.422232
 20
38.694828
  0
VERTEX
  8
parque_municipal
 10
-9.422262
 20
38.694826
  0
VERTEX
  8
parque_municipal
 10
-9.422337
 20
38.694814
  0
VERTEX
  8
parque_municipal
 10
-9.422354
 20
38.694812
  0
VERTEX
  8
parque_municipal
 10
-9.422373
 20
38.694810
  0
VERTEX
  8
parque_municipal
 10
-9.422370
 20
38.694796
  0
VERTEX
  8
parque_municipal
 10
-9.422808
 20
38.694747
  0
VERTEX
  8
parque_municipal
 10
-9.422808
 20
38.694747
  0
VERTEX
  8
parque_municipal
 10
-9.422808
 20
38.694749
  0
VERTEX
  8
parque_municipal
 10
-9.422808
 20
38.694751
  0
VERTEX
  8
parque_municipal
 10
-9.422807
 20
38.694752
  0
VERTEX
  8
parque_municipal
 10
-9.422807
 20
38.694754
  0
VERTEX
  8
parque_municipal
 10
-9.422807
 20
38.694756
  0
VERTEX
  8
parque_municipal
 10
-9.422806
 20
38.694758
  0
VERTEX
  8
parque_municipal
 10
-9.422806
 20
38.694759
  0
VERTEX
  8
parque_municipal
 10
-9.422805
 20
38.694761
  0
VERTEX
  8
parque_municipal
 10
-9.422770
 20
38.694828
  0
VERTEX
  8
parque_municipal
 10
-9.422708
 20
38.694934
  0
VERTEX
  8
parque_municipal
 10
-9.422662
 20
38.695020
  0
VERTEX
  8
parque_municipal
 10
-9.422646
 20
38.695056
  0
VERTEX
  8
parque_municipal
 10
-9.422637
 20
38.695110
  0
VERTEX
  8
parque_municipal
 10
-9.422632
 20
38.695185
  0
VERTEX
  8
parque_municipal
 10
-9.422632
 20
38.695185
  0
VERTEX
  8
parque_municipal
 10
-9.422632
 20
38.695186
  0
VERTEX
  8
parque_municipal
 10
-9.422632
 20
38.695187
  0
VERTEX
  8
parque_municipal
 10
-9.422632
 20
38.695187
  0
VERTEX
  8
parque_municipal
 10
-9.422632
 20
38.695188
  0
VERTEX
  8
parque_municipal
 10
-9.422631
 20
38.695189
  0
VERTEX
  8
parque_municipal
 10
-9.422631
 20
38.695190
  0
VERTEX
  8
parque_municipal
 10
-9.422630
 20
38.695191
  0
VERTEX
  8
parque_municipal
 10
-9.422630
 20
38.695191
  0
VERTEX
  8
parque_municipal
 10
-9.422629
 20
38.695192
  0
VERTEX
  8
parque_municipal
 10
-9.422629
 20
38.695231
  0
VERTEX
  8
parque_municipal
 10
-9.422640
 20
38.695289
  0
VERTEX
  8
parque_municipal
 10
-9.422666
 20
38.695387
  0
VERTEX
  8
parque_municipal
 10
-9.422674
 20
38.695413
  0
VERTEX
  8
parque_municipal
 10
-9.422730
 20
38.695513
  0
VERTEX
  8
parque_municipal
 10
-9.422770
 20
38.695584
  0
VERTEX
  8
parque_municipal
 10
-9.422771
 20
38.695586
  0
VERTEX
  8
parque_municipal
 10
-9.422773
 20
38.695588
  0
VERTEX
  8
parque_municipal
 10
-9.422774
 20
38.695590
  0
VERTEX
  8
parque_municipal
 10
-9.422775
 20
38.695592
  0
VERTEX
  8
parque_municipal
 10
-9.422776
 20
38.695595
  0
VERTEX
  8
parque_municipal
 10
-9.422777
 20
38.695597
  0
VERTEX
  8
parque_municipal
 10
-9.422777
 20
38.695599
  0
VERTEX
  8
parque_municipal
 10
-9.422778
 20
38.695602
  0
VERTEX
  8
parque_municipal
 10
-9.422779
 20
38.695604
  0
VERTEX
  8
parque_municipal
 10
-9.422779
 20
38.695606
  0
VERTEX
  8
parque_municipal
 10
-9.422780
 20
38.695609
  0
VERTEX
  8
parque_municipal
 10
-9.422780
 20
38.695611
  0
VERTEX
  8
parque_municipal
 10
-9.422781
 20
38.695614
  0
VERTEX
  8
parque_municipal
 10
-9.422781
 20
38.695616
  0
VERTEX
  8
parque_municipal
 10
-9.422781
 20
38.695618
  0
VERTEX
  8
parque_municipal
 10
-9.422781
 20
38.695621
  0
VERTEX
  8
parque_municipal
 10
-9.422781
 20
38.695623
  0
VERTEX
  8
parque_municipal
 10
-9.422780
 20
38.695626
  0
VERTEX
  8
parque_municipal
 10
-9.422780
 20
38.695628
  0
VERTEX
  8
parque_municipal
 10
-9.422780
 20
38.695631
  0
VERTEX
  8
parque_municipal
 10
-9.422779
 20
38.695633
  0
VERTEX
  8
parque_municipal
 10
-9.422779
 20
38.695635
  0
VERTEX
  8
parque_municipal
 10
-9.422778
 20
38.695638
  0
VERTEX
  8
parque_municipal
 10
-9.422742
 20
38.695666
  0
VERTEX
  8
parque_municipal
 10
-9.422742
 20
38.695667
  0
VERTEX
  8
parque_municipal
 10
-9.422742
 20
38.695668
  0
VERTEX
  8
parque_municipal
 10
-9.422742
 20
38.695669
  0
VERTEX
  8
parque_municipal
 10
-9.422742
 20
38.695670
  0
VERTEX
  8
parque_municipal
 10
-9.422741
 20
38.695671
  0
VERTEX
  8
parque_municipal
 10
-9.422741
 20
38.695672
  0
VERTEX
  8
parque_municipal
 10
-9.422740
 20
38.695673
  0
VERTEX
  8
parque_municipal
 10
-9.422740
 20
38.695674
  0
VERTEX
  8
parque_municipal
 10
-9.422739
 20
38.695675
  0
VERTEX
  8
parque_municipal
 10
-9.422739
 20
38.695676
  0
VERTEX
  8
parque_municipal
 10
-9.422738
 20
38.695677
  0
VERTEX
  8
parque_municipal
 10
-9.422737
 20
38.695678
  0
VERTEX
  8
parque_municipal
 10
-9.422736
 20
38.695678
  0
VERTEX
  8
parque_municipal
 10
-9.422735
 20
38.695679
  0
VERTEX
  8
parque_municipal
 10
-9.422734
 20
38.695680
  0
VERTEX
  8
parque_municipal
 10
-9.422733
 20
38.695680
  0
VERTEX
  8
parque_municipal
 10
-9.422732
 20
38.695681
  0
VERTEX
  8
parque_municipal
 10
-9.422731
 20
38.695681
  0
VERTEX
  8
parque_municipal
 10
-9.422729
 20
38.695682
  0
VERTEX
  8
parque_municipal
 10
-9.422728
 20
38.695682
  0
VERTEX
  8
parque_municipal
 10
-9.422727
 20
38.695682
  0
VERTEX
  8
parque_municipal
 10
-9.422725
 20
38.695682
  0
VERTEX
  8
parque_municipal
 10
-9.422725
 20
38.695683
  0
VERTEX
  8
parque_municipal
 10
-9.422644
 20
38.695693
  0
VERTEX
  8
parque_municipal
 10
-9.422509
 20
38.695710
  0
VERTEX
  8
parque_municipal
 10
-9.422365
 20
38.695737
  0
VERTEX
  8
parque_municipal
 10
-9.422357
 20
38.695738
  0
VERTEX
  8
parque_municipal
 10
-9.422350
 20
38.695738
  0
VERTEX
  8
parque_municipal
 10
-9.422342
 20
38.695736
  0
VERTEX
  8
parque_municipal
 10
-9.422335
 20
38.695733
  0
VERTEX
  8
parque_municipal
 10
-9.422327
 20
38.695729
  0
VERTEX
  8
parque_municipal
 10
-9.422316
 20
38.695720
  0
VERTEX
  8
parque_municipal
 10
-9.422316
 20
38.695720
  0
VERTEX
  8
parque_municipal
 10
-9.422316
 20
38.695720
  0
VERTEX
  8
parque_municipal
 10
-9.422316
 20
38.695719
  0
VERTEX
  8
parque_municipal
 10
-9.422316
 20
38.695719
  0
VERTEX
  8
parque_municipal
 10
-9.422312
 20
38.695674
  0
VERTEX
  8
parque_municipal
 10
-9.422309
 20
38.695663
  0
VERTEX
  8
parque_municipal
 10
-9.422260
 20
38.695579
  0
VERTEX
  8
parque_municipal
 10
-9.422215
 20
38.695499
  0
VERTEX
  8
parque_municipal
 10
-9.422180
 20
38.695441
  0
VERTEX
  8
parque_municipal
 10
-9.422171
 20
38.695420
  0
VERTEX
  8
parque_municipal
 10
-9.422154
 20
38.695395
  0
VERTEX
  8
parque_municipal
 10
-9.422120
 20
38.695408
  0
VERTEX
  8
parque_municipal
 10
-9.422119
 20
38.695405
  0
VERTEX
  8
parque_municipal
 10
-9.422108
 20
38.695386
  0
VERTEX
  8
parque_municipal
 10
-9.422031
 20
38.695257
  0
VERTEX
  8
parque_municipal
 10
-9.421948
 20
38.695116
  0
VERTEX
  8
parque_municipal
 10
-9.421937
 20
38.695100
  0
VERTEX
  8
parque_municipal
 10
-9.421922
 20
38.695074
  0
VERTEX
  8
parque_municipal
 10
-9.421904
 20
38.695045
  0
VERTEX
  8
parque_municipal
 10
-9.421848
 20
38.694952
  0
VERTEX
  8
parque_municipal
 10
-9.421841
 20
38.694941
  0
VERTEX
  8
parque_municipal
 10
-9.421838
 20
38.694937
  0
SEQEND
  0
POINT
  8
parque_municipal
  6
BYLAYER
 10
-9.422368
 20
38.695197
 50
0.000000
  0
POLYLINE
  8
parque_municipal
  6
BYLAYER
 66
1
 70
1
 40
0.000000
 41
0.000000
  0
VERTEX
  8
parque_municipal
 10
-9.397718
 20
38.703857
  0
VERTEX
  8
parque_municipal
 10
-9.397718
 20
38.703856
  0
VERTEX
  8
parque_municipal
 10
-9.397749
 20
38.703758
  0
VERTEX
  8
parque_municipal
 10
-9.397765
 20
38.703710
  0
VERTEX
  8
parque_municipal
 10
-9.397783
 20
38.703683
  0
VERTEX
  8
parque_municipal
 10
-9.397813
 20
38.703662
  0
VERTEX
  8
parque_municipal
 10
-9.397828
 20
38.703655
  0
VERTEX
  8
parque_municipal
 10
-9.397849
 20
38.703646
  0
VERTEX
  8
parque_municipal
 10
-9.397862
 20
38.703643
  0
VERTEX
  8
parque_municipal
 10
-9.397883
 20
38.703638
  0
VERTEX
  8
parque_municipal
 10
-9.397893
 20
38.703637
  0
VERTEX
  8
parque_municipal
 10
-9.397931
 20
38.703639
  0
VERTEX
  8
parque_municipal
 10
-9.398019
 20
38.703645
  0
VERTEX
  8
parque_municipal
 10
-9.398072
 20
38.703676
  0
VERTEX
  8
parque_municipal
 10
-9.398146
 20
38.703681
  0
VERTEX
  8
parque_municipal
 10
-9.398324
 20
38.703693
  0
VERTEX
  8
parque_municipal
 10
-9.398497
 20
38.703705
  0
VERTEX
  8
parque_municipal
 10
-9.398670
 20
38.703717
  0
VERTEX
  8
parque_municipal
 10
-9.398850
 20
38.703730
  0
VERTEX
  8
parque_municipal
 10
-9.398915
 20
38.703734
  0
VERTEX
  8
parque_municipal
 10
-9.398976
 20
38.703713
  0
VERTEX
  8
parque_municipal
 10
-9.399001
 20
38.703715
  0
VERTEX
  8
parque_municipal
 10
-9.399102
 20
38.703723
  0
VERTEX
  8
parque_municipal
 10
-9.399200
 20
38.703729
  0
VERTEX
  8
parque_municipal
 10
-9.399201
 20
38.703745
  0
VERTEX
  8
parque_municipal
 10
-9.399198
 20
38.703770
  0
VERTEX
  8
parque_municipal
 10
-9.399188
 20
38.703798
  0
VERTEX
  8
parque_municipal
 10
-9.399169
 20
38.703853
  0
VERTEX
  8
parque_municipal
 10
-9.399159
 20
38.703883
  0
VERTEX
  8
parque_municipal
 10
-9.399140
 20
38.703942
  0
VERTEX
  8
parque_municipal
 10
-9.399115
 20
38.704018
  0
VERTEX
  8
parque_municipal
 10
-9.399096
 20
38.704076
  0
VERTEX
  8
parque_municipal
 10
-9.399075
 20
38.704136
  0
VERTEX
  8
parque_municipal
 10
-9.399061
 20
38.704175
  0
VERTEX
  8
parque_municipal
 10
-9.399027
 20
38.704270
  0
VERTEX
  8
parque_municipal
 10
-9.399008
 20
38.704326
  0
VERTEX
  8
parque_municipal
 10
-9.398985
 20
38.704390
  0
VERTEX
  8
parque_municipal
 10
-9.398972
 20
38.704430
  0
VERTEX
  8
parque_municipal
 10
-9.398944
 20
38.704513
  0
VERTEX
  8
parque_municipal
 10
-9.398934
 20
38.704542
  0
VERTEX
  8
parque_municipal
 10
-9.398913
 20
38.704605
  0
VERTEX
  8
parque_municipal
 10
-9.398892
 20
38.704668
  0
VERTEX
  8
parque_municipal
 10
-9.398870
 20
38.704736
  0
VERTEX
  8
parque_municipal
 10
-9.398841
 20
38.704744
  0
VERTEX
  8
parque_municipal
 10
-9.398797
 20
38.704756
  0
VERTEX
  8
parque_municipal
 10
-9.398755
 20
38.704878
  0
VERTEX
  8
parque_municipal
 10
-9.398727
 20
38.704958
  0
VERTEX
  8
parque_municipal
 10
-9.398692
 20
38.705060
  0
VERTEX
  8
parque_municipal
 10
-9.398663
 20
38.705141
  0
VERTEX
  8
parque_municipal
 10
-9.398646
 20
38.705190
  0
VERTEX
  8
parque_municipal
 10
-9.398622
 20
38.705260
  0
VERTEX
  8
parque_municipal
 10
-9.398612
 20
38.705292
  0
VERTEX
  8
parque_municipal
 10
-9.398591
 20
38.705352
  0
VERTEX
  8
parque_municipal
 10
-9.398556
 20
38.705458
  0
VERTEX
  8
parque_municipal
 10
-9.398535
 20
38.705523
  0
VERTEX
  8
parque_municipal
 10
-9.398521
 20
38.705568
  0
VERTEX
  8
parque_municipal
 10
-9.398505
 20
38.705618
  0
VERTEX
  8
parque_municipal
 10
-9.398498
 20
38.705639
  0
VERTEX
  8
parque_municipal
 10
-9.398480
 20
38.705692
  0
VERTEX
  8
parque_municipal
 10
-9.398464
 20
38.705739
  0
VERTEX
  8
parque_municipal
 10
-9.398431
 20
38.705829
  0
VERTEX
  8
parque_municipal
 10
-9.398490
 20
38.705858
  0
VERTEX
  8
parque_municipal
 10
-9.398482
 20
38.705881
  0
VERTEX
  8
parque_municipal
 10
-9.398457
 20
38.705955
  0
VERTEX
  8
parque_municipal
 10
-9.398427
 20
38.706041
  0
VERTEX
  8
parque_municipal
 10
-9.398410
 20
38.706093
  0
VERTEX
  8
parque_municipal
 10
-9.398390
 20
38.706155
  0
VERTEX
  8
parque_municipal
 10
-9.398368
 20
38.706221
  0
VERTEX
  8
parque_municipal
 10
-9.398358
 20
38.706251
  0
VERTEX
  8
parque_municipal
 10
-9.398325
 20
38.706348
  0
VERTEX
  8
parque_municipal
 10
-9.398302
 20
38.706417
  0
VERTEX
  8
parque_municipal
 10
-9.398290
 20
38.706452
  0
VERTEX
  8
parque_municipal
 10
-9.398285
 20
38.706469
  0
VERTEX
  8
parque_municipal
 10
-9.398279
 20
38.706478
  0
VERTEX
  8
parque_municipal
 10
-9.398269
 20
38.706489
  0
VERTEX
  8
parque_municipal
 10
-9.398257
 20
38.706499
  0
VERTEX
  8
parque_municipal
 10
-9.398247
 20
38.706505
  0
VERTEX
  8
parque_municipal
 10
-9.398233
 20
38.706513
  0
VERTEX
  8
parque_municipal
 10
-9.398218
 20
38.706518
  0
VERTEX
  8
parque_municipal
 10
-9.398205
 20
38.706520
  0
VERTEX
  8
parque_municipal
 10
-9.398162
 20
38.706512
  0
VERTEX
  8
parque_municipal
 10
-9.398072
 20
38.706491
  0
VERTEX
  8
parque_municipal
 10
-9.398024
 20
38.706483
  0
VERTEX
  8
parque_municipal
 10
-9.397956
 20
38.706469
  0
VERTEX
  8
parque_municipal
 10
-9.397921
 20
38.706462
  0
VERTEX
  8
parque_municipal
 10
-9.397855
 20
38.706448
  0
VERTEX
  8
parque_municipal
 10
-9.397745
 20
38.706426
  0
VERTEX
  8
parque_municipal
 10
-9.397721
 20
38.706419
  0
VERTEX
  8
parque_municipal
 10
-9.397588
 20
38.706393
  0
VERTEX
  8
parque_municipal
 10
-9.397459
 20
38.706366
  0
VERTEX
  8
parque_municipal
 10
-9.397430
 20
38.706360
  0
VERTEX
  8
parque_municipal
 10
-9.397422
 20
38.706358
  0
VERTEX
  8
parque_municipal
 10
-9.397266
 20
38.706326
  0
VERTEX
  8
parque_municipal
 10
-9.397218
 20
38.706316
  0
VERTEX
  8
parque_municipal
 10
-9.397162
 20
38.706304
  0
VERTEX
  8
parque_municipal
 10
-9.397097
 20
38.706292
  0
VERTEX
  8
parque_municipal
 10
-9.397064
 20
38.706285
  0
VERTEX
  8
parque_municipal
 10
-9.397019
 20
38.706277
  0
VERTEX
  8
parque_municipal
 10
-9.396980
 20
38.706262
  0
VERTEX
  8
parque_municipal
 10
-9.396971
 20
38.706255
  0
VERTEX
  8
parque_municipal
 10
-9.396964
 20
38.706245
  0
VERTEX
  8
parque_municipal
 10
-9.396937
 20
38.706198
  0
VERTEX
  8
parque_municipal
 10
-9.396984
 20
38.706059
  0
VERTEX
  8
parque_municipal
 10
-9.397044
 20
38.705880
  0
VERTEX
  8
parque_municipal
 10
-9.397081
 20
38.705769
  0
VERTEX
  8
parque_municipal
 10
-9.397116
 20
38.705668
  0
VERTEX
  8
parque_municipal
 10
-9.397121
 20
38.705650
  0
VERTEX
  8
parque_municipal
 10
-9.397167
 20
38.705652
  0
VERTEX
  8
parque_municipal
 10
-9.397186
 20
38.705600
  0
VERTEX
  8
parque_municipal
 10
-9.397210
 20
38.705536
  0
VERTEX
  8
parque_municipal
 10
-9.397228
 20
38.705489
  0
VERTEX
  8
parque_municipal
 10
-9.397240
 20
38.705451
  0
VERTEX
  8
parque_municipal
 10
-9.397278
 20
38.705337
  0
VERTEX
  8
parque_municipal
 10
-9.397288
 20
38.705308
  0
VERTEX
  8
parque_municipal
 10
-9.397305
 20
38.705256
  0
VERTEX
  8
parque_municipal
 10
-9.397321
 20
38.705195
  0
VERTEX
  8
parque_municipal
 10
-9.397287
 20
38.705158
  0
VERTEX
  8
parque_municipal
 10
-9.397328
 20
38.705037
  0
VERTEX
  8
parque_municipal
 10
-9.397352
 20
38.704966
  0
VERTEX
  8
parque_municipal
 10
-9.397393
 20
38.704842
  0
VERTEX
  8
parque_municipal
 10
-9.397429
 20
38.704736
  0
VERTEX
  8
parque_municipal
 10
-9.397451
 20
38.704672
  0
VERTEX
  8
parque_municipal
 10
-9.397476
 20
38.704598
  0
VERTEX
  8
parque_municipal
 10
-9.397491
 20
38.704553
  0
VERTEX
  8
parque_municipal
 10
-9.397523
 20
38.704459
  0
VERTEX
  8
parque_municipal
 10
-9.397534
 20
38.704425
  0
VERTEX
  8
parque_municipal
 10
-9.397566
 20
38.704330
  0
VERTEX
  8
parque_municipal
 10
-9.397598
 20
38.704234
  0
VERTEX
  8
parque_municipal
 10
-9.397621
 20
38.704163
  0
VERTEX
  8
parque_municipal
 10
-9.397633
 20
38.704126
  0
VERTEX
  8
parque_municipal
 10
-9.397674
 20
38.704006
  0
VERTEX
  8
parque_municipal
 10
-9.397679
 20
38.703992
  0
VERTEX
  8
parque_municipal
 10
-9.397718
 20
38.703857
  0
SEQEND
  0
POINT
  8
parque_municipal
  6
BYLAYER
 10
-9.398047
 20
38.705037
 50
0.620504
  0
POLYLINE
  8
parque_municipal
  6
BYLAYER
 66
1
 70
1
 40
0.000000
 41
0.000000
  0
VERTEX
  8
parque_municipal
 10
-9.412332
 20
38.703318
  0
VERTEX
  8
parque_municipal
 10
-9.412441
 20
38.703043
  0
VERTEX
  8
parque_municipal
 10
-9.412353
 20
38.702920
  0
VERTEX
  8
parque_municipal
 10
-9.412313
 20
38.702880
  0
VERTEX
  8
parque_municipal
 10
-9.412419
 20
38.702809
  0
VERTEX
  8
parque_municipal
 10
-9.412442
 20
38.702794
  0
VERTEX
  8
parque_municipal
 10
-9.412484
 20
38.702766
  0
VERTEX
  8
parque_municipal
 10
-9.412499
 20
38.702778
  0
VERTEX
  8
parque_municipal
 10
-9.412534
 20
38.702808
  0
VERTEX
  8
parque_municipal
 10
-9.412566
 20
38.702834
  0
VERTEX
  8
parque_municipal
 10
-9.412584
 20
38.702822
  0
VERTEX
  8
parque_municipal
 10
-9.412607
 20
38.702812
  0
VERTEX
  8
parque_municipal
 10
-9.412627
 20
38.702810
  0
VERTEX
  8
parque_municipal
 10
-9.412657
 20
38.702812
  0
VERTEX
  8
parque_municipal
 10
-9.412715
 20
38.702818
  0
VERTEX
  8
parque_municipal
 10
-9.412785
 20
38.702823
  0
VERTEX
  8
parque_municipal
 10
-9.412796
 20
38.702831
  0
VERTEX
  8
parque_municipal
 10
-9.412835
 20
38.702853
  0
VERTEX
  8
parque_municipal
 10
-9.412877
 20
38.702875
  0
VERTEX
  8
parque_municipal
 10
-9.412928
 20
38.702895
  0
VERTEX
  8
parque_municipal
 10
-9.412963
 20
38.702901
  0
VERTEX
  8
parque_municipal
 10
-9.413024
 20
38.702903
  0
VERTEX
  8
parque_municipal
 10
-9.413068
 20
38.702899
  0
VERTEX
  8
parque_municipal
 10
-9.413112
 20
38.702890
  0
VERTEX
  8
parque_municipal
 10
-9.413139
 20
38.702881
  0
VERTEX
  8
parque_municipal
 10
-9.413146
 20
38.702848
  0
VERTEX
  8
parque_municipal
 10
-9.413215
 20
38.702868
  0
VERTEX
  8
parque_municipal
 10
-9.413246
 20
38.702877
  0
VERTEX
  8
parque_municipal
 10
-9.413320
 20
38.702898
  0
VERTEX
  8
parque_municipal
 10
-9.413322
 20
38.702893
  0
VERTEX
  8
parque_municipal
 10
-9.413404
 20
38.702693
  0
VERTEX
  8
parque_municipal
 10
-9.413396
 20
38.702743
  0
VERTEX
  8
parque_municipal
 10
-9.413463
 20
38.702863
  0
VERTEX
  8
parque_municipal
 10
-9.413513
 20
38.702882
  0
VERTEX
  8
parque_municipal
 10
-9.413638
 20
38.702822
  0
VERTEX
  8
parque_municipal
 10
-9.413721
 20
38.702778
  0
VERTEX
  8
parque_municipal
 10
-9.413699
 20
38.702865
  0
VERTEX
  8
parque_municipal
 10
-9.413664
 20
38.702882
  0
VERTEX
  8
parque_municipal
 10
-9.413681
 20
38.702909
  0
VERTEX
  8
parque_municipal
 10
-9.413684
 20
38.702912
  0
VERTEX
  8
parque_municipal
 10
-9.413695
 20
38.702929
  0
VERTEX
  8
parque_municipal
 10
-9.413764
 20
38.703036
  0
VERTEX
  8
parque_municipal
 10
-9.413775
 20
38.703052
  0
VERTEX
  8
parque_municipal
 10
-9.413794
 20
38.703080
  0
VERTEX
  8
parque_municipal
 10
-9.413817
 20
38.703113
  0
VERTEX
  8
parque_municipal
 10
-9.413814
 20
38.703114
  0
VERTEX
  8
parque_municipal
 10
-9.413777
 20
38.703134
  0
VERTEX
  8
parque_municipal
 10
-9.413741
 20
38.703156
  0
VERTEX
  8
parque_municipal
 10
-9.413680
 20
38.703196
  0
VERTEX
  8
parque_municipal
 10
-9.413651
 20
38.703218
  0
VERTEX
  8
parque_municipal
 10
-9.413623
 20
38.703240
  0
VERTEX
  8
parque_municipal
 10
-9.413597
 20
38.703265
  0
VERTEX
  8
parque_municipal
 10
-9.413573
 20
38.703290
  0
VERTEX
  8
parque_municipal
 10
-9.413550
 20
38.703316
  0
VERTEX
  8
parque_municipal
 10
-9.413530
 20
38.703343
  0
VERTEX
  8
parque_municipal
 10
-9.413512
 20
38.703371
  0
VERTEX
  8
parque_municipal
 10
-9.413495
 20
38.703400
  0
VERTEX
  8
parque_municipal
 10
-9.413481
 20
38.703430
  0
VERTEX
  8
parque_municipal
 10
-9.413469
 20
38.703460
  0
VERTEX
  8
parque_municipal
 10
-9.413384
 20
38.703741
  0
VERTEX
  8
parque_municipal
 10
-9.413360
 20
38.703918
  0
VERTEX
  8
parque_municipal
 10
-9.413354
 20
38.703954
  0
VERTEX
  8
parque_municipal
 10
-9.413349
 20
38.703989
  0
VERTEX
  8
parque_municipal
 10
-9.413346
 20
38.704024
  0
VERTEX
  8
parque_municipal
 10
-9.413341
 20
38.704095
  0
VERTEX
  8
parque_municipal
 10
-9.413339
 20
38.704131
  0
VERTEX
  8
parque_municipal
 10
-9.413333
 20
38.704199
  0
VERTEX
  8
parque_municipal
 10
-9.413331
 20
38.704245
  0
VERTEX
  8
parque_municipal
 10
-9.413329
 20
38.704290
  0
VERTEX
  8
parque_municipal
 10
-9.413329
 20
38.704359
  0
VERTEX
  8
parque_municipal
 10
-9.413329
 20
38.704382
  0
VERTEX
  8
parque_municipal
 10
-9.413342
 20
38.704624
  0
VERTEX
  8
parque_municipal
 10
-9.413389
 20
38.704951
  0
VERTEX
  8
parque_municipal
 10
-9.413365
 20
38.704933
  0
VERTEX
  8
parque_municipal
 10
-9.413398
 20
38.705110
  0
VERTEX
  8
parque_municipal
 10
-9.413441
 20
38.705354
  0
VERTEX
  8
parque_municipal
 10
-9.413499
 20
38.705632
  0
VERTEX
  8
parque_municipal
 10
-9.413516
 20
38.705695
  0
VERTEX
  8
parque_municipal
 10
-9.413526
 20
38.705727
  0
VERTEX
  8
parque_municipal
 10
-9.413535
 20
38.705759
  0
VERTEX
  8
parque_municipal
 10
-9.413545
 20
38.705790
  0
VERTEX
  8
parque_municipal
 10
-9.413554
 20
38.705822
  0
VERTEX
  8
parque_municipal
 10
-9.413564
 20
38.705853
  0
VERTEX
  8
parque_municipal
 10
-9.413574
 20
38.705885
  0
VERTEX
  8
parque_municipal
 10
-9.413585
 20
38.705916
  0
VERTEX
  8
parque_municipal
 10
-9.413595
 20
38.705948
  0
VERTEX
  8
parque_municipal
 10
-9.413606
 20
38.705979
  0
VERTEX
  8
parque_municipal
 10
-9.413624
 20
38.706035
  0
VERTEX
  8
parque_municipal
 10
-9.413694
 20
38.706198
  0
VERTEX
  8
parque_municipal
 10
-9.413497
 20
38.706239
  0
VERTEX
  8
parque_municipal
 10
-9.413485
 20
38.706248
  0
VERTEX
  8
parque_municipal
 10
-9.413471
 20
38.706257
  0
VERTEX
  8
parque_municipal
 10
-9.413456
 20
38.706265
  0
VERTEX
  8
parque_municipal
 10
-9.413441
 20
38.706271
  0
VERTEX
  8
parque_municipal
 10
-9.413425
 20
38.706276
  0
VERTEX
  8
parque_municipal
 10
-9.413408
 20
38.706280
  0
VERTEX
  8
parque_municipal
 10
-9.413390
 20
38.706282
  0
VERTEX
  8
parque_municipal
 10
-9.413386
 20
38.706282
  0
VERTEX
  8
parque_municipal
 10
-9.413373
 20
38.706282
  0
VERTEX
  8
parque_municipal
 10
-9.413355
 20
38.706282
  0
VERTEX
  8
parque_municipal
 10
-9.413338
 20
38.706279
  0
VERTEX
  8
parque_municipal
 10
-9.413321
 20
38.706275
  0
VERTEX
  8
parque_municipal
 10
-9.413214
 20
38.706263
  0
VERTEX
  8
parque_municipal
 10
-9.413070
 20
38.706207
  0
VERTEX
  8
parque_municipal
 10
-9.413022
 20
38.706192
  0
VERTEX
  8
parque_municipal
 10
-9.412977
 20
38.706172
  0
VERTEX
  8
parque_municipal
 10
-9.412925
 20
38.706144
  0
VERTEX
  8
parque_municipal
 10
-9.412863
 20
38.706098
  0
VERTEX
  8
parque_municipal
 10
-9.412803
 20
38.706046
  0
VERTEX
  8
parque_municipal
 10
-9.412769
 20
38.706009
  0
VERTEX
  8
parque_municipal
 10
-9.412716
 20
38.705958
  0
VERTEX
  8
parque_municipal
 10
-9.412655
 20
38.705894
  0
VERTEX
  8
parque_municipal
 10
-9.412605
 20
38.705833
  0
VERTEX
  8
parque_municipal
 10
-9.412568
 20
38.705779
  0
VERTEX
  8
parque_municipal
 10
-9.412549
 20
38.705741
  0
VERTEX
  8
parque_municipal
 10
-9.412539
 20
38.705719
  0
VERTEX
  8
parque_municipal
 10
-9.412523
 20
38.705669
  0
VERTEX
  8
parque_municipal
 10
-9.412510
 20
38.705624
  0
VERTEX
  8
parque_municipal
 10
-9.412497
 20
38.705567
  0
VERTEX
  8
parque_municipal
 10
-9.412484
 20
38.705475
  0
VERTEX
  8
parque_municipal
 10
-9.412475
 20
38.705414
  0
VERTEX
  8
parque_municipal
 10
-9.412468
 20
38.705289
  0
VERTEX
  8
parque_municipal
 10
-9.412465
 20
38.705251
  0
VERTEX
  8
parque_municipal
 10
-9.412457
 20
38.705248
  0
VERTEX
  8
parque_municipal
 10
-9.412416
 20
38.705072
  0
VERTEX
  8
parque_municipal
 10
-9.412406
 20
38.705026
  0
VERTEX
  8
parque_municipal
 10
-9.412389
 20
38.704953
  0
VERTEX
  8
parque_municipal
 10
-9.412371
 20
38.704893
  0
VERTEX
  8
parque_municipal
 10
-9.412349
 20
38.704842
  0
VERTEX
  8
parque_municipal
 10
-9.412305
 20
38.704747
  0
VERTEX
  8
parque_municipal
 10
-9.412303
 20
38.704742
  0
VERTEX
  8
parque_municipal
 10
-9.412251
 20
38.704618
  0
VERTEX
  8
parque_municipal
 10
-9.412224
 20
38.704552
  0
VERTEX
  8
parque_municipal
 10
-9.412201
 20
38.704492
  0
VERTEX
  8
parque_municipal
 10
-9.412182
 20
38.704431
  0
VERTEX
  8
parque_municipal
 10
-9.412149
 20
38.704322
  0
VERTEX
  8
parque_municipal
 10
-9.412134
 20
38.704212
  0
VERTEX
  8
parque_municipal
 10
-9.412125
 20
38.704048
  0
VERTEX
  8
parque_municipal
 10
-9.412123
 20
38.703918
  0
VERTEX
  8
parque_municipal
 10
-9.412123
 20
38.703891
  0
VERTEX
  8
parque_municipal
 10
-9.412124
 20
38.703821
  0
VERTEX
  8
parque_municipal
 10
-9.412128
 20
38.703797
  0
VERTEX
  8
parque_municipal
 10
-9.412134
 20
38.703780
  0
VERTEX
  8
parque_municipal
 10
-9.412141
 20
38.703761
  0
VERTEX
  8
parque_municipal
 10
-9.412158
 20
38.703719
  0
VERTEX
  8
parque_municipal
 10
-9.412248
 20
38.703510
  0
VERTEX
  8
parque_municipal
 10
-9.412332
 20
38.703318
  0
SEQEND
  0
POINT
  8
parque_municipal
  6
BYLAYER
 10
-9.412911
 20
38.704404
 50
0.627786
  0
POLYLINE
  8
parque_municipal
  6
BYLAYER
 66
1
 70
1
 40
0.000000
 41
0.000000
  0
VERTEX
  8
parque_municipal
 10
-9.346558
 20
38.686063
  0
VERTEX
  8
parque_municipal
 10
-9.346559
 20
38.686063
  0
VERTEX
  8
parque_municipal
 10
-9.346559
 20
38.686064
  0
VERTEX
  8
parque_municipal
 10
-9.346514
 20
38.686048
  0
VERTEX
  8
parque_municipal
 10
-9.346453
 20
38.686025
  0
VERTEX
  8
parque_municipal
 10
-9.346305
 20
38.685971
  0
VERTEX
  8
parque_municipal
 10
-9.346165
 20
38.685920
  0
VERTEX
  8
parque_municipal
 10
-9.346134
 20
38.685951
  0
VERTEX
  8
parque_municipal
 10
-9.346119
 20
38.685943
  0
VERTEX
  8
parque_municipal
 10
-9.346096
 20
38.685929
  0
VERTEX
  8
parque_municipal
 10
-9.346038
 20
38.685895
  0
VERTEX
  8
parque_municipal
 10
-9.346000
 20
38.685871
  0
VERTEX
  8
parque_municipal
 10
-9.345959
 20
38.685844
  0
VERTEX
  8
parque_municipal
 10
-9.345921
 20
38.685819
  0
VERTEX
  8
parque_municipal
 10
-9.345880
 20
38.685790
  0
VERTEX
  8
parque_municipal
 10
-9.345856
 20
38.685771
  0
VERTEX
  8
parque_municipal
 10
-9.345822
 20
38.685743
  0
VERTEX
  8
parque_municipal
 10
-9.345791
 20
38.685716
  0
VERTEX
  8
parque_municipal
 10
-9.345760
 20
38.685686
  0
VERTEX
  8
parque_municipal
 10
-9.345736
 20
38.685660
  0
VERTEX
  8
parque_municipal
 10
-9.345707
 20
38.685628
  0
VERTEX
  8
parque_municipal
 10
-9.345681
 20
38.685597
  0
VERTEX
  8
parque_municipal
 10
-9.345656
 20
38.685565
  0
VERTEX
  8
parque_municipal
 10
-9.345633
 20
38.685532
  0
VERTEX
  8
parque_municipal
 10
-9.345615
 20
38.685508
  0
VERTEX
  8
parque_municipal
 10
-9.345589
 20
38.685468
  0
VERTEX
  8
parque_municipal
 10
-9.345567
 20
38.685431
  0
VERTEX
  8
parque_municipal
 10
-9.345553
 20
38.685407
  0
VERTEX
  8
parque_municipal
 10
-9.345543
 20
38.685388
  0
VERTEX
  8
parque_municipal
 10
-9.345516
 20
38.685336
  0
VERTEX
  8
parque_municipal
 10
-9.345506
 20
38.685314
  0
VERTEX
  8
parque_municipal
 10
-9.345481
 20
38.685244
  0
VERTEX
  8
parque_municipal
 10
-9.345472
 20
38.685222
  0
VERTEX
  8
parque_municipal
 10
-9.345467
 20
38.685198
  0
VERTEX
  8
parque_municipal
 10
-9.345442
 20
38.685108
  0
VERTEX
  8
parque_municipal
 10
-9.345433
 20
38.685086
  0
VERTEX
  8
parque_municipal
 10
-9.345382
 20
38.684946
  0
VERTEX
  8
parque_municipal
 10
-9.345330
 20
38.684801
  0
VERTEX
  8
parque_municipal
 10
-9.345288
 20
38.684681
  0
VERTEX
  8
parque_municipal
 10
-9.345278
 20
38.684653
  0
VERTEX
  8
parque_municipal
 10
-9.345249
 20
38.684567
  0
VERTEX
  8
parque_municipal
 10
-9.345227
 20
38.684502
  0
VERTEX
  8
parque_municipal
 10
-9.345221
 20
38.684482
  0
VERTEX
  8
parque_municipal
 10
-9.345186
 20
38.684386
  0
VERTEX
  8
parque_municipal
 10
-9.345161
 20
38.684312
  0
VERTEX
  8
parque_municipal
 10
-9.345129
 20
38.684218
  0
VERTEX
  8
parque_municipal
 10
-9.345110
 20
38.684163
  0
VERTEX
  8
parque_municipal
 10
-9.345080
 20
38.684074
  0
VERTEX
  8
parque_municipal
 10
-9.345069
 20
38.684043
  0
VERTEX
  8
parque_municipal
 10
-9.345040
 20
38.683959
  0
VERTEX
  8
parque_municipal
 10
-9.345008
 20
38.683865
  0
VERTEX
  8
parque_municipal
 10
-9.344993
 20
38.683824
  0
VERTEX
  8
parque_municipal
 10
-9.344966
 20
38.683745
  0
VERTEX
  8
parque_municipal
 10
-9.344944
 20
38.683681
  0
VERTEX
  8
parque_municipal
 10
-9.344907
 20
38.683574
  0
VERTEX
  8
parque_municipal
 10
-9.344883
 20
38.683500
  0
VERTEX
  8
parque_municipal
 10
-9.344866
 20
38.683449
  0
VERTEX
  8
parque_municipal
 10
-9.344851
 20
38.683403
  0
VERTEX
  8
parque_municipal
 10
-9.344833
 20
38.683354
  0
VERTEX
  8
parque_municipal
 10
-9.344820
 20
38.683321
  0
VERTEX
  8
parque_municipal
 10
-9.344814
 20
38.683307
  0
VERTEX
  8
parque_municipal
 10
-9.344807
 20
38.683290
  0
VERTEX
  8
parque_municipal
 10
-9.344798
 20
38.683272
  0
VERTEX
  8
parque_municipal
 10
-9.344789
 20
38.683250
  0
VERTEX
  8
parque_municipal
 10
-9.344777
 20
38.683225
  0
VERTEX
  8
parque_municipal
 10
-9.344769
 20
38.683209
  0
VERTEX
  8
parque_municipal
 10
-9.344756
 20
38.683186
  0
VERTEX
  8
parque_municipal
 10
-9.344789
 20
38.683170
  0
VERTEX
  8
parque_municipal
 10
-9.344781
 20
38.683159
  0
VERTEX
  8
parque_municipal
 10
-9.344741
 20
38.683099
  0
VERTEX
  8
parque_municipal
 10
-9.344712
 20
38.683055
  0
VERTEX
  8
parque_municipal
 10
-9.344701
 20
38.683059
  0
VERTEX
  8
parque_municipal
 10
-9.344683
 20
38.683065
  0
VERTEX
  8
parque_municipal
 10
-9.344668
 20
38.683056
  0
VERTEX
  8
parque_municipal
 10
-9.344651
 20
38.683044
  0
VERTEX
  8
parque_municipal
 10
-9.344647
 20
38.683039
  0
VERTEX
  8
parque_municipal
 10
-9.344636
 20
38.683026
  0
VERTEX
  8
parque_municipal
 10
-9.344618
 20
38.683006
  0
VERTEX
  8
parque_municipal
 10
-9.344615
 20
38.683000
  0
VERTEX
  8
parque_municipal
 10
-9.344606
 20
38.682983
  0
VERTEX
  8
parque_municipal
 10
-9.344600
 20
38.682967
  0
VERTEX
  8
parque_municipal
 10
-9.344598
 20
38.682958
  0
VERTEX
  8
parque_municipal
 10
-9.344595
 20
38.682944
  0
VERTEX
  8
parque_municipal
 10
-9.344593
 20
38.682931
  0
VERTEX
  8
parque_municipal
 10
-9.344593
 20
38.682922
  0
VERTEX
  8
parque_municipal
 10
-9.344594
 20
38.682908
  0
VERTEX
  8
parque_municipal
 10
-9.344595
 20
38.682897
  0
VERTEX
  8
parque_municipal
 10
-9.344609
 20
38.682856
  0
VERTEX
  8
parque_municipal
 10
-9.344619
 20
38.682823
  0
VERTEX
  8
parque_municipal
 10
-9.344631
 20
38.682785
  0
VERTEX
  8
parque_municipal
 10
-9.344634
 20
38.682780
  0
VERTEX
  8
parque_municipal
 10
-9.344639
 20
38.682772
  0
VERTEX
  8
parque_municipal
 10
-9.344646
 20
38.682766
  0
VERTEX
  8
parque_municipal
 10
-9.344650
 20
38.682763
  0
VERTEX
  8
parque_municipal
 10
-9.344659
 20
38.682757
  0
VERTEX
  8
parque_municipal
 10
-9.344666
 20
38.682753
  0
VERTEX
  8
parque_municipal
 10
-9.344697
 20
38.682745
  0
VERTEX
  8
parque_municipal
 10
-9.344736
 20
38.682733
  0
VERTEX
  8
parque_municipal
 10
-9.344780
 20
38.682720
  0
VERTEX
  8
parque_municipal
 10
-9.344807
 20
38.682712
  0
VERTEX
  8
parque_municipal
 10
-9.344879
 20
38.682689
  0
VERTEX
  8
parque_municipal
 10
-9.344908
 20
38.682683
  0
VERTEX
  8
parque_municipal
 10
-9.344924
 20
38.682679
  0
VERTEX
  8
parque_municipal
 10
-9.344945
 20
38.682674
  0
VERTEX
  8
parque_municipal
 10
-9.344954
 20
38.682683
  0
VERTEX
  8
parque_municipal
 10
-9.344988
 20
38.682722
  0
VERTEX
  8
parque_municipal
 10
-9.345012
 20
38.682748
  0
VERTEX
  8
parque_municipal
 10
-9.345024
 20
38.682762
  0
VERTEX
  8
parque_municipal
 10
-9.345061
 20
38.682803
  0
VERTEX
  8
parque_municipal
 10
-9.345093
 20
38.682838
  0
VERTEX
  8
parque_municipal
 10
-9.345134
 20
38.682884
  0
VERTEX
  8
parque_municipal
 10
-9.345175
 20
38.682929
  0
VERTEX
  8
parque_municipal
 10
-9.345209
 20
38.682967
  0
VERTEX
  8
parque_municipal
 10
-9.345244
 20
38.683006
  0
VERTEX
  8
parque_municipal
 10
-9.345255
 20
38.683017
  0
VERTEX
  8
parque_municipal
 10
-9.345291
 20
38.683058
  0
VERTEX
  8
parque_municipal
 10
-9.345328
 20
38.683102
  0
VERTEX
  8
parque_municipal
 10
-9.345354
 20
38.683131
  0
VERTEX
  8
parque_municipal
 10
-9.345360
 20
38.683139
  0
VERTEX
  8
parque_municipal
 10
-9.345378
 20
38.683186
  0
VERTEX
  8
parque_municipal
 10
-9.345387
 20
38.683210
  0
VERTEX
  8
parque_municipal
 10
-9.345402
 20
38.683259
  0
VERTEX
  8
parque_municipal
 10
-9.345414
 20
38.683296
  0
VERTEX
  8
parque_municipal
 10
-9.345418
 20
38.683308
  0
VERTEX
  8
parque_municipal
 10
-9.345429
 20
38.683340
  0
VERTEX
  8
parque_municipal
 10
-9.345442
 20
38.683380
  0
VERTEX
  8
parque_municipal
 10
-9.345458
 20
38.683425
  0
VERTEX
  8
parque_municipal
 10
-9.345466
 20
38.683450
  0
VERTEX
  8
parque_municipal
 10
-9.345475
 20
38.683476
  0
VERTEX
  8
parque_municipal
 10
-9.345493
 20
38.683526
  0
VERTEX
  8
parque_municipal
 10
-9.345508
 20
38.683573
  0
VERTEX
  8
parque_municipal
 10
-9.345525
 20
38.683622
  0
VERTEX
  8
parque_municipal
 10
-9.345543
 20
38.683674
  0
VERTEX
  8
parque_municipal
 10
-9.345563
 20
38.683732
  0
VERTEX
  8
parque_municipal
 10
-9.345623
 20
38.683870
  0
VERTEX
  8
parque_municipal
 10
-9.345625
 20
38.683875
  0
VERTEX
  8
parque_municipal
 10
-9.345629
 20
38.683893
  0
VERTEX
  8
parque_municipal
 10
-9.345636
 20
38.683930
  0
VERTEX
  8
parque_municipal
 10
-9.345639
 20
38.683943
  0
VERTEX
  8
parque_municipal
 10
-9.345641
 20
38.683952
  0
VERTEX
  8
parque_municipal
 10
-9.345645
 20
38.683962
  0
VERTEX
  8
parque_municipal
 10
-9.345649
 20
38.683971
  0
VERTEX
  8
parque_municipal
 10
-9.345654
 20
38.683981
  0
VERTEX
  8
parque_municipal
 10
-9.345658
 20
38.683987
  0
VERTEX
  8
parque_municipal
 10
-9.345664
 20
38.683995
  0
VERTEX
  8
parque_municipal
 10
-9.345666
 20
38.683998
  0
VERTEX
  8
parque_municipal
 10
-9.345670
 20
38.684003
  0
VERTEX
  8
parque_municipal
 10
-9.345676
 20
38.684009
  0
VERTEX
  8
parque_municipal
 10
-9.345682
 20
38.684014
  0
VERTEX
  8
parque_municipal
 10
-9.345688
 20
38.684023
  0
VERTEX
  8
parque_municipal
 10
-9.345703
 20
38.684042
  0
VERTEX
  8
parque_municipal
 10
-9.345726
 20
38.684070
  0
VERTEX
  8
parque_municipal
 10
-9.345742
 20
38.684090
  0
VERTEX
  8
parque_municipal
 10
-9.345716
 20
38.684095
  0
VERTEX
  8
parque_municipal
 10
-9.345689
 20
38.684101
  0
VERTEX
  8
parque_municipal
 10
-9.345707
 20
38.684151
  0
VERTEX
  8
parque_municipal
 10
-9.345720
 20
38.684188
  0
VERTEX
  8
parque_municipal
 10
-9.345731
 20
38.684218
  0
VERTEX
  8
parque_municipal
 10
-9.345736
 20
38.684234
  0
VERTEX
  8
parque_municipal
 10
-9.345744
 20
38.684258
  0
VERTEX
  8
parque_municipal
 10
-9.345759
 20
38.684301
  0
VERTEX
  8
parque_municipal
 10
-9.345766
 20
38.684318
  0
VERTEX
  8
parque_municipal
 10
-9.345781
 20
38.684342
  0
VERTEX
  8
parque_municipal
 10
-9.345792
 20
38.684362
  0
VERTEX
  8
parque_municipal
 10
-9.345809
 20
38.684389
  0
VERTEX
  8
parque_municipal
 10
-9.345828
 20
38.684419
  0
VERTEX
  8
parque_municipal
 10
-9.345813
 20
38.684425
  0
VERTEX
  8
parque_municipal
 10
-9.345844
 20
38.684463
  0
VERTEX
  8
parque_municipal
 10
-9.345857
 20
38.684479
  0
VERTEX
  8
parque_municipal
 10
-9.345878
 20
38.684503
  0
VERTEX
  8
parque_municipal
 10
-9.345888
 20
38.684516
  0
VERTEX
  8
parque_municipal
 10
-9.345911
 20
38.684543
  0
VERTEX
  8
parque_municipal
 10
-9.345918
 20
38.684552
  0
VERTEX
  8
parque_municipal
 10
-9.345910
 20
38.684556
  0
VERTEX
  8
parque_municipal
 10
-9.345938
 20
38.684589
  0
VERTEX
  8
parque_municipal
 10
-9.345956
 20
38.684611
  0
VERTEX
  8
parque_municipal
 10
-9.345974
 20
38.684633
  0
VERTEX
  8
parque_municipal
 10
-9.345982
 20
38.684644
  0
VERTEX
  8
parque_municipal
 10
-9.346006
 20
38.684672
  0
VERTEX
  8
parque_municipal
 10
-9.346013
 20
38.684680
  0
VERTEX
  8
parque_municipal
 10
-9.346026
 20
38.684696
  0
VERTEX
  8
parque_municipal
 10
-9.346001
 20
38.684703
  0
VERTEX
  8
parque_municipal
 10
-9.345953
 20
38.684718
  0
VERTEX
  8
parque_municipal
 10
-9.345972
 20
38.684733
  0
VERTEX
  8
parque_municipal
 10
-9.345991
 20
38.684749
  0
VERTEX
  8
parque_municipal
 10
-9.345933
 20
38.684740
  0
VERTEX
  8
parque_municipal
 10
-9.345906
 20
38.684736
  0
VERTEX
  8
parque_municipal
 10
-9.345905
 20
38.684747
  0
VERTEX
  8
parque_municipal
 10
-9.345904
 20
38.684758
  0
VERTEX
  8
parque_municipal
 10
-9.345904
 20
38.684766
  0
VERTEX
  8
parque_municipal
 10
-9.345904
 20
38.684779
  0
VERTEX
  8
parque_municipal
 10
-9.345906
 20
38.684795
  0
VERTEX
  8
parque_municipal
 10
-9.345908
 20
38.684803
  0
VERTEX
  8
parque_municipal
 10
-9.345912
 20
38.684816
  0
VERTEX
  8
parque_municipal
 10
-9.345918
 20
38.684828
  0
VERTEX
  8
parque_municipal
 10
-9.345925
 20
38.684844
  0
VERTEX
  8
parque_municipal
 10
-9.345932
 20
38.684855
  0
VERTEX
  8
parque_municipal
 10
-9.345938
 20
38.684864
  0
VERTEX
  8
parque_municipal
 10
-9.345947
 20
38.684875
  0
VERTEX
  8
parque_municipal
 10
-9.345956
 20
38.684885
  0
VERTEX
  8
parque_municipal
 10
-9.345937
 20
38.684888
  0
VERTEX
  8
parque_municipal
 10
-9.345931
 20
38.684889
  0
VERTEX
  8
parque_municipal
 10
-9.345885
 20
38.684899
  0
VERTEX
  8
parque_municipal
 10
-9.345865
 20
38.684903
  0
VERTEX
  8
parque_municipal
 10
-9.345864
 20
38.684899
  0
VERTEX
  8
parque_municipal
 10
-9.345830
 20
38.684907
  0
VERTEX
  8
parque_municipal
 10
-9.345786
 20
38.684918
  0
VERTEX
  8
parque_municipal
 10
-9.345761
 20
38.684924
  0
VERTEX
  8
parque_municipal
 10
-9.345750
 20
38.684927
  0
VERTEX
  8
parque_municipal
 10
-9.345762
 20
38.684956
  0
VERTEX
  8
parque_municipal
 10
-9.345769
 20
38.684976
  0
VERTEX
  8
parque_municipal
 10
-9.345778
 20
38.684999
  0
VERTEX
  8
parque_municipal
 10
-9.345787
 20
38.685021
  0
VERTEX
  8
parque_municipal
 10
-9.345798
 20
38.685049
  0
VERTEX
  8
parque_municipal
 10
-9.345809
 20
38.685077
  0
VERTEX
  8
parque_municipal
 10
-9.345814
 20
38.685089
  0
VERTEX
  8
parque_municipal
 10
-9.345831
 20
38.685133
  0
VERTEX
  8
parque_municipal
 10
-9.345845
 20
38.685168
  0
VERTEX
  8
parque_municipal
 10
-9.345855
 20
38.685192
  0
VERTEX
  8
parque_municipal
 10
-9.345899
 20
38.685182
  0
VERTEX
  8
parque_municipal
 10
-9.345943
 20
38.685171
  0
VERTEX
  8
parque_municipal
 10
-9.345968
 20
38.685165
  0
VERTEX
  8
parque_municipal
 10
-9.346013
 20
38.685157
  0
VERTEX
  8
parque_municipal
 10
-9.346041
 20
38.685237
  0
VERTEX
  8
parque_municipal
 10
-9.346056
 20
38.685279
  0
VERTEX
  8
parque_municipal
 10
-9.346063
 20
38.685301
  0
VERTEX
  8
parque_municipal
 10
-9.346068
 20
38.685305
  0
VERTEX
  8
parque_municipal
 10
-9.346073
 20
38.685308
  0
VERTEX
  8
parque_municipal
 10
-9.346079
 20
38.685311
  0
VERTEX
  8
parque_municipal
 10
-9.346086
 20
38.685314
  0
VERTEX
  8
parque_municipal
 10
-9.346091
 20
38.685315
  0
VERTEX
  8
parque_municipal
 10
-9.346097
 20
38.685316
  0
VERTEX
  8
parque_municipal
 10
-9.346102
 20
38.685316
  0
VERTEX
  8
parque_municipal
 10
-9.346105
 20
38.685316
  0
VERTEX
  8
parque_municipal
 10
-9.346122
 20
38.685312
  0
VERTEX
  8
parque_municipal
 10
-9.346139
 20
38.685307
  0
VERTEX
  8
parque_municipal
 10
-9.346152
 20
38.685323
  0
VERTEX
  8
parque_municipal
 10
-9.346164
 20
38.685356
  0
VERTEX
  8
parque_municipal
 10
-9.346220
 20
38.685369
  0
VERTEX
  8
parque_municipal
 10
-9.346234
 20
38.685372
  0
VERTEX
  8
parque_municipal
 10
-9.346220
 20
38.685393
  0
VERTEX
  8
parque_municipal
 10
-9.346201
 20
38.685422
  0
VERTEX
  8
parque_municipal
 10
-9.346192
 20
38.685435
  0
VERTEX
  8
parque_municipal
 10
-9.346190
 20
38.685453
  0
VERTEX
  8
parque_municipal
 10
-9.346193
 20
38.685465
  0
VERTEX
  8
parque_municipal
 10
-9.346199
 20
38.685478
  0
VERTEX
  8
parque_municipal
 10
-9.346207
 20
38.685489
  0
VERTEX
  8
parque_municipal
 10
-9.346221
 20
38.685503
  0
VERTEX
  8
parque_municipal
 10
-9.346239
 20
38.685513
  0
VERTEX
  8
parque_municipal
 10
-9.346255
 20
38.685519
  0
VERTEX
  8
parque_municipal
 10
-9.346283
 20
38.685526
  0
VERTEX
  8
parque_municipal
 10
-9.346279
 20
38.685554
  0
VERTEX
  8
parque_municipal
 10
-9.346274
 20
38.685582
  0
VERTEX
  8
parque_municipal
 10
-9.346300
 20
38.685584
  0
VERTEX
  8
parque_municipal
 10
-9.346317
 20
38.685586
  0
VERTEX
  8
parque_municipal
 10
-9.346329
 20
38.685585
  0
VERTEX
  8
parque_municipal
 10
-9.346359
 20
38.685584
  0
VERTEX
  8
parque_municipal
 10
-9.346362
 20
38.685584
  0
VERTEX
  8
parque_municipal
 10
-9.346366
 20
38.685583
  0
VERTEX
  8
parque_municipal
 10
-9.346403
 20
38.685577
  0
VERTEX
  8
parque_municipal
 10
-9.346411
 20
38.685576
  0
VERTEX
  8
parque_municipal
 10
-9.346436
 20
38.685568
  0
VERTEX
  8
parque_municipal
 10
-9.346449
 20
38.685564
  0
VERTEX
  8
parque_municipal
 10
-9.346451
 20
38.685564
  0
VERTEX
  8
parque_municipal
 10
-9.346449
 20
38.685561
  0
VERTEX
  8
parque_municipal
 10
-9.346493
 20
38.685560
  0
VERTEX
  8
parque_municipal
 10
-9.346486
 20
38.685578
  0
VERTEX
  8
parque_municipal
 10
-9.346480
 20
38.685577
  0
VERTEX
  8
parque_municipal
 10
-9.346470
 20
38.685603
  0
VERTEX
  8
parque_municipal
 10
-9.346463
 20
38.685623
  0
VERTEX
  8
parque_municipal
 10
-9.346469
 20
38.685625
  0
VERTEX
  8
parque_municipal
 10
-9.346458
 20
38.685656
  0
VERTEX
  8
parque_municipal
 10
-9.346449
 20
38.685654
  0
VERTEX
  8
parque_municipal
 10
-9.346443
 20
38.685673
  0
VERTEX
  8
parque_municipal
 10
-9.346421
 20
38.685735
  0
VERTEX
  8
parque_municipal
 10
-9.346401
 20
38.685789
  0
VERTEX
  8
parque_municipal
 10
-9.346456
 20
38.685852
  0
VERTEX
  8
parque_municipal
 10
-9.346457
 20
38.685882
  0
VERTEX
  8
parque_municipal
 10
-9.346462
 20
38.685903
  0
VERTEX
  8
parque_municipal
 10
-9.346464
 20
38.685907
  0
VERTEX
  8
parque_municipal
 10
-9.346473
 20
38.685928
  0
VERTEX
  8
parque_municipal
 10
-9.346488
 20
38.685951
  0
VERTEX
  8
parque_municipal
 10
-9.346498
 20
38.685962
  0
VERTEX
  8
parque_municipal
 10
-9.346507
 20
38.685972
  0
VERTEX
  8
parque_municipal
 10
-9.346507
 20
38.685973
  0
VERTEX
  8
parque_municipal
 10
-9.346485
 20
38.686010
  0
VERTEX
  8
parque_municipal
 10
-9.346518
 20
38.686022
  0
VERTEX
  8
parque_municipal
 10
-9.346563
 20
38.686039
  0
VERTEX
  8
parque_municipal
 10
-9.346558
 20
38.686063
  0
SEQEND
  0
POINT
  8
parque_municipal
  6
BYLAYER
 10
-9.345489
 20
38.684340
 50
0.594648
  0
POLYLINE
  8
parque_municipal
  6
BYLAYER
 66
1
 70
1
 40
0.000000
 41
0.000000
  0
VERTEX
  8
parque_municipal
 10
-9.437124
 20
38.702196
  0
VERTEX
  8
parque_municipal
 10
-9.437124
 20
38.702201
  0
VERTEX
  8
parque_municipal
 10
-9.437105
 20
38.702236
  0
VERTEX
  8
parque_municipal
 10
-9.437096
 20
38.702241
  0
VERTEX
  8
parque_municipal
 10
-9.437083
 20
38.702248
  0
VERTEX
  8
parque_municipal
 10
-9.437002
 20
38.702289
  0
VERTEX
  8
parque_municipal
 10
-9.436961
 20
38.702239
  0
VERTEX
  8
parque_municipal
 10
-9.436911
 20
38.702264
  0
VERTEX
  8
parque_municipal
 10
-9.436871
 20
38.702284
  0
VERTEX
  8
parque_municipal
 10
-9.436863
 20
38.702288
  0
VERTEX
  8
parque_municipal
 10
-9.436869
 20
38.702295
  0
VERTEX
  8
parque_municipal
 10
-9.436843
 20
38.702308
  0
VERTEX
  8
parque_municipal
 10
-9.436811
 20
38.702325
  0
VERTEX
  8
parque_municipal
 10
-9.436793
 20
38.702334
  0
VERTEX
  8
parque_municipal
 10
-9.436826
 20
38.702371
  0
VERTEX
  8
parque_municipal
 10
-9.436856
 20
38.702404
  0
VERTEX
  8
parque_municipal
 10
-9.436845
 20
38.702411
  0
VERTEX
  8
parque_municipal
 10
-9.436860
 20
38.702429
  0
VERTEX
  8
parque_municipal
 10
-9.436851
 20
38.702435
  0
VERTEX
  8
parque_municipal
 10
-9.436892
 20
38.702486
  0
VERTEX
  8
parque_municipal
 10
-9.436899
 20
38.702494
  0
VERTEX
  8
parque_municipal
 10
-9.436911
 20
38.702489
  0
VERTEX
  8
parque_municipal
 10
-9.436920
 20
38.702500
  0
VERTEX
  8
parque_municipal
 10
-9.436960
 20
38.702547
  0
VERTEX
  8
parque_municipal
 10
-9.436968
 20
38.702544
  0
VERTEX
  8
parque_municipal
 10
-9.436978
 20
38.702555
  0
VERTEX
  8
parque_municipal
 10
-9.437005
 20
38.702587
  0
VERTEX
  8
parque_municipal
 10
-9.436973
 20
38.702602
  0
VERTEX
  8
parque_municipal
 10
-9.436954
 20
38.702612
  0
VERTEX
  8
parque_municipal
 10
-9.436912
 20
38.702631
  0
VERTEX
  8
parque_municipal
 10
-9.436936
 20
38.702660
  0
VERTEX
  8
parque_municipal
 10
-9.436979
 20
38.702710
  0
VERTEX
  8
parque_municipal
 10
-9.436996
 20
38.702730
  0
VERTEX
  8
parque_municipal
 10
-9.436987
 20
38.702735
  0
VERTEX
  8
parque_municipal
 10
-9.436986
 20
38.702735
  0
VERTEX
  8
parque_municipal
 10
-9.437006
 20
38.702760
  0
VERTEX
  8
parque_municipal
 10
-9.437020
 20
38.702776
  0
VERTEX
  8
parque_municipal
 10
-9.436975
 20
38.702797
  0
VERTEX
  8
parque_municipal
 10
-9.436952
 20
38.702809
  0
VERTEX
  8
parque_municipal
 10
-9.436928
 20
38.702820
  0
VERTEX
  8
parque_municipal
 10
-9.436966
 20
38.702865
  0
VERTEX
  8
parque_municipal
 10
-9.437013
 20
38.702919
  0
VERTEX
  8
parque_municipal
 10
-9.437006
 20
38.702924
  0
VERTEX
  8
parque_municipal
 10
-9.437019
 20
38.702940
  0
VERTEX
  8
parque_municipal
 10
-9.437039
 20
38.702964
  0
VERTEX
  8
parque_municipal
 10
-9.436999
 20
38.702985
  0
VERTEX
  8
parque_municipal
 10
-9.436965
 20
38.703002
  0
VERTEX
  8
parque_municipal
 10
-9.436949
 20
38.703010
  0
VERTEX
  8
parque_municipal
 10
-9.436984
 20
38.703051
  0
VERTEX
  8
parque_municipal
 10
-9.437035
 20
38.703109
  0
VERTEX
  8
parque_municipal
 10
-9.437022
 20
38.703117
  0
VERTEX
  8
parque_municipal
 10
-9.437043
 20
38.703142
  0
VERTEX
  8
parque_municipal
 10
-9.437059
 20
38.703161
  0
VERTEX
  8
parque_municipal
 10
-9.436993
 20
38.703196
  0
VERTEX
  8
parque_municipal
 10
-9.436966
 20
38.703210
  0
VERTEX
  8
parque_municipal
 10
-9.436994
 20
38.703241
  0
VERTEX
  8
parque_municipal
 10
-9.437010
 20
38.703260
  0
VERTEX
  8
parque_municipal
 10
-9.437025
 20
38.703277
  0
VERTEX
  8
parque_municipal
 10
-9.437047
 20
38.703268
  0
VERTEX
  8
parque_municipal
 10
-9.437067
 20
38.703290
  0
VERTEX
  8
parque_municipal
 10
-9.437071
 20
38.703295
  0
VERTEX
  8
parque_municipal
 10
-9.437092
 20
38.703286
  0
VERTEX
  8
parque_municipal
 10
-9.437094
 20
38.703286
  0
VERTEX
  8
parque_municipal
 10
-9.437106
 20
38.703299
  0
VERTEX
  8
parque_municipal
 10
-9.437138
 20
38.703283
  0
VERTEX
  8
parque_municipal
 10
-9.437144
 20
38.703280
  0
VERTEX
  8
parque_municipal
 10
-9.437131
 20
38.703265
  0
VERTEX
  8
parque_municipal
 10
-9.437183
 20
38.703239
  0
VERTEX
  8
parque_municipal
 10
-9.437189
 20
38.703236
  0
VERTEX
  8
parque_municipal
 10
-9.437182
 20
38.703226
  0
VERTEX
  8
parque_municipal
 10
-9.437240
 20
38.703199
  0
VERTEX
  8
parque_municipal
 10
-9.437311
 20
38.703166
  0
VERTEX
  8
parque_municipal
 10
-9.437308
 20
38.703194
  0
VERTEX
  8
parque_municipal
 10
-9.437304
 20
38.703246
  0
VERTEX
  8
parque_municipal
 10
-9.437302
 20
38.703276
  0
VERTEX
  8
parque_municipal
 10
-9.437301
 20
38.703280
  0
VERTEX
  8
parque_municipal
 10
-9.437299
 20
38.703293
  0
VERTEX
  8
parque_municipal
 10
-9.437293
 20
38.703332
  0
VERTEX
  8
parque_municipal
 10
-9.437285
 20
38.703375
  0
VERTEX
  8
parque_municipal
 10
-9.437280
 20
38.703407
  0
VERTEX
  8
parque_municipal
 10
-9.437277
 20
38.703423
  0
VERTEX
  8
parque_municipal
 10
-9.437269
 20
38.703462
  0
VERTEX
  8
parque_municipal
 10
-9.437260
 20
38.703506
  0
VERTEX
  8
parque_municipal
 10
-9.437251
 20
38.703552
  0
VERTEX
  8
parque_municipal
 10
-9.437243
 20
38.703594
  0
VERTEX
  8
parque_municipal
 10
-9.437240
 20
38.703610
  0
VERTEX
  8
parque_municipal
 10
-9.437237
 20
38.703623
  0
VERTEX
  8
parque_municipal
 10
-9.437232
 20
38.703642
  0
VERTEX
  8
parque_municipal
 10
-9.437223
 20
38.703681
  0
VERTEX
  8
parque_municipal
 10
-9.437216
 20
38.703715
  0
VERTEX
  8
parque_municipal
 10
-9.437207
 20
38.703753
  0
VERTEX
  8
parque_municipal
 10
-9.437206
 20
38.703759
  0
VERTEX
  8
parque_municipal
 10
-9.437209
 20
38.703796
  0
VERTEX
  8
parque_municipal
 10
-9.437207
 20
38.703808
  0
VERTEX
  8
parque_municipal
 10
-9.437200
 20
38.703839
  0
VERTEX
  8
parque_municipal
 10
-9.437191
 20
38.703875
  0
VERTEX
  8
parque_municipal
 10
-9.437181
 20
38.703921
  0
VERTEX
  8
parque_municipal
 10
-9.437174
 20
38.703952
  0
VERTEX
  8
parque_municipal
 10
-9.437173
 20
38.703959
  0
VERTEX
  8
parque_municipal
 10
-9.437171
 20
38.703964
  0
VERTEX
  8
parque_municipal
 10
-9.437168
 20
38.703969
  0
VERTEX
  8
parque_municipal
 10
-9.437165
 20
38.703974
  0
VERTEX
  8
parque_municipal
 10
-9.437162
 20
38.703978
  0
VERTEX
  8
parque_municipal
 10
-9.437157
 20
38.703982
  0
VERTEX
  8
parque_municipal
 10
-9.437152
 20
38.703986
  0
VERTEX
  8
parque_municipal
 10
-9.437147
 20
38.703989
  0
VERTEX
  8
parque_municipal
 10
-9.437141
 20
38.703992
  0
VERTEX
  8
parque_municipal
 10
-9.437137
 20
38.703993
  0
VERTEX
  8
parque_municipal
 10
-9.437134
 20
38.703994
  0
VERTEX
  8
parque_municipal
 10
-9.437128
 20
38.703995
  0
VERTEX
  8
parque_municipal
 10
-9.437121
 20
38.703996
  0
VERTEX
  8
parque_municipal
 10
-9.437108
 20
38.703996
  0
VERTEX
  8
parque_municipal
 10
-9.437086
 20
38.703995
  0
VERTEX
  8
parque_municipal
 10
-9.437052
 20
38.703994
  0
VERTEX
  8
parque_municipal
 10
-9.437028
 20
38.703993
  0
VERTEX
  8
parque_municipal
 10
-9.436987
 20
38.703991
  0
VERTEX
  8
parque_municipal
 10
-9.436950
 20
38.703990
  0
VERTEX
  8
parque_municipal
 10
-9.436921
 20
38.703989
  0
VERTEX
  8
parque_municipal
 10
-9.436870
 20
38.703987
  0
VERTEX
  8
parque_municipal
 10
-9.436858
 20
38.703984
  0
VERTEX
  8
parque_municipal
 10
-9.436853
 20
38.703983
  0
VERTEX
  8
parque_municipal
 10
-9.436844
 20
38.703981
  0
VERTEX
  8
parque_municipal
 10
-9.436838
 20
38.703979
  0
VERTEX
  8
parque_municipal
 10
-9.436830
 20
38.703976
  0
VERTEX
  8
parque_municipal
 10
-9.436822
 20
38.703974
  0
VERTEX
  8
parque_municipal
 10
-9.436811
 20
38.703970
  0
VERTEX
  8
parque_municipal
 10
-9.436801
 20
38.703965
  0
VERTEX
  8
parque_municipal
 10
-9.436794
 20
38.703962
  0
VERTEX
  8
parque_municipal
 10
-9.436780
 20
38.703955
  0
VERTEX
  8
parque_municipal
 10
-9.436769
 20
38.703948
  0
VERTEX
  8
parque_municipal
 10
-9.436757
 20
38.703941
  0
VERTEX
  8
parque_municipal
 10
-9.436747
 20
38.703934
  0
VERTEX
  8
parque_municipal
 10
-9.436743
 20
38.703931
  0
VERTEX
  8
parque_municipal
 10
-9.436732
 20
38.703922
  0
VERTEX
  8
parque_municipal
 10
-9.436724
 20
38.703914
  0
VERTEX
  8
parque_municipal
 10
-9.436711
 20
38.703901
  0
VERTEX
  8
parque_municipal
 10
-9.436697
 20
38.703886
  0
VERTEX
  8
parque_municipal
 10
-9.436685
 20
38.703873
  0
VERTEX
  8
parque_municipal
 10
-9.436624
 20
38.703804
  0
VERTEX
  8
parque_municipal
 10
-9.436574
 20
38.703752
  0
VERTEX
  8
parque_municipal
 10
-9.436533
 20
38.703707
  0
VERTEX
  8
parque_municipal
 10
-9.436496
 20
38.703669
  0
VERTEX
  8
parque_municipal
 10
-9.436462
 20
38.703635
  0
VERTEX
  8
parque_municipal
 10
-9.436436
 20
38.703608
  0
VERTEX
  8
parque_municipal
 10
-9.436387
 20
38.703556
  0
VERTEX
  8
parque_municipal
 10
-9.436325
 20
38.703489
  0
VERTEX
  8
parque_municipal
 10
-9.436262
 20
38.703419
  0
VERTEX
  8
parque_municipal
 10
-9.436232
 20
38.703385
  0
VERTEX
  8
parque_municipal
 10
-9.436211
 20
38.703365
  0
VERTEX
  8
parque_municipal
 10
-9.436155
 20
38.703298
  0
VERTEX
  8
parque_municipal
 10
-9.436146
 20
38.703269
  0
VERTEX
  8
parque_municipal
 10
-9.436145
 20
38.703254
  0
VERTEX
  8
parque_municipal
 10
-9.436147
 20
38.703245
  0
VERTEX
  8
parque_municipal
 10
-9.436171
 20
38.703259
  0
VERTEX
  8
parque_municipal
 10
-9.436224
 20
38.703293
  0
VERTEX
  8
parque_municipal
 10
-9.436229
 20
38.703296
  0
VERTEX
  8
parque_municipal
 10
-9.436259
 20
38.703309
  0
VERTEX
  8
parque_municipal
 10
-9.436287
 20
38.703318
  0
VERTEX
  8
parque_municipal
 10
-9.436306
 20
38.703325
  0
VERTEX
  8
parque_municipal
 10
-9.436351
 20
38.703330
  0
VERTEX
  8
parque_municipal
 10
-9.436398
 20
38.703336
  0
VERTEX
  8
parque_municipal
 10
-9.436453
 20
38.703336
  0
VERTEX
  8
parque_municipal
 10
-9.436515
 20
38.703326
  0
VERTEX
  8
parque_municipal
 10
-9.436512
 20
38.703305
  0
VERTEX
  8
parque_municipal
 10
-9.436509
 20
38.703288
  0
VERTEX
  8
parque_municipal
 10
-9.436511
 20
38.703267
  0
VERTEX
  8
parque_municipal
 10
-9.436514
 20
38.703235
  0
VERTEX
  8
parque_municipal
 10
-9.436549
 20
38.703231
  0
VERTEX
  8
parque_municipal
 10
-9.436584
 20
38.703227
  0
VERTEX
  8
parque_municipal
 10
-9.436584
 20
38.703236
  0
VERTEX
  8
parque_municipal
 10
-9.436607
 20
38.703233
  0
VERTEX
  8
parque_municipal
 10
-9.436626
 20
38.703231
  0
VERTEX
  8
parque_municipal
 10
-9.436632
 20
38.703222
  0
VERTEX
  8
parque_municipal
 10
-9.436631
 20
38.703211
  0
VERTEX
  8
parque_municipal
 10
-9.436628
 20
38.703194
  0
VERTEX
  8
parque_municipal
 10
-9.436646
 20
38.703200
  0
VERTEX
  8
parque_municipal
 10
-9.436661
 20
38.703206
  0
VERTEX
  8
parque_municipal
 10
-9.436666
 20
38.703208
  0
VERTEX
  8
parque_municipal
 10
-9.436680
 20
38.703216
  0
VERTEX
  8
parque_municipal
 10
-9.436697
 20
38.703226
  0
VERTEX
  8
parque_municipal
 10
-9.436713
 20
38.703235
  0
VERTEX
  8
parque_municipal
 10
-9.436726
 20
38.703219
  0
VERTEX
  8
parque_municipal
 10
-9.436737
 20
38.703207
  0
VERTEX
  8
parque_municipal
 10
-9.436742
 20
38.703197
  0
VERTEX
  8
parque_municipal
 10
-9.436754
 20
38.703176
  0
VERTEX
  8
parque_municipal
 10
-9.436756
 20
38.703161
  0
VERTEX
  8
parque_municipal
 10
-9.436760
 20
38.703138
  0
VERTEX
  8
parque_municipal
 10
-9.436758
 20
38.703120
  0
VERTEX
  8
parque_municipal
 10
-9.436754
 20
38.703094
  0
VERTEX
  8
parque_municipal
 10
-9.436748
 20
38.703081
  0
VERTEX
  8
parque_municipal
 10
-9.436735
 20
38.703053
  0
VERTEX
  8
parque_municipal
 10
-9.436731
 20
38.703045
  0
VERTEX
  8
parque_municipal
 10
-9.436727
 20
38.703037
  0
VERTEX
  8
parque_municipal
 10
-9.436710
 20
38.703014
  0
VERTEX
  8
parque_municipal
 10
-9.436682
 20
38.702975
  0
VERTEX
  8
parque_municipal
 10
-9.436676
 20
38.702967
  0
VERTEX
  8
parque_municipal
 10
-9.436667
 20
38.702955
  0
VERTEX
  8
parque_municipal
 10
-9.436667
 20
38.702952
  0
VERTEX
  8
parque_municipal
 10
-9.436667
 20
38.702949
  0
VERTEX
  8
parque_municipal
 10
-9.436659
 20
38.702935
  0
VERTEX
  8
parque_municipal
 10
-9.436649
 20
38.702918
  0
VERTEX
  8
parque_municipal
 10
-9.436623
 20
38.702873
  0
VERTEX
  8
parque_municipal
 10
-9.436597
 20
38.702827
  0
VERTEX
  8
parque_municipal
 10
-9.436589
 20
38.702813
  0
VERTEX
  8
parque_municipal
 10
-9.436581
 20
38.702791
  0
VERTEX
  8
parque_municipal
 10
-9.436574
 20
38.702768
  0
VERTEX
  8
parque_municipal
 10
-9.436574
 20
38.702766
  0
VERTEX
  8
parque_municipal
 10
-9.436564
 20
38.702769
  0
VERTEX
  8
parque_municipal
 10
-9.436534
 20
38.702780
  0
VERTEX
  8
parque_municipal
 10
-9.436496
 20
38.702794
  0
VERTEX
  8
parque_municipal
 10
-9.436465
 20
38.702806
  0
VERTEX
  8
parque_municipal
 10
-9.436420
 20
38.702823
  0
VERTEX
  8
parque_municipal
 10
-9.436371
 20
38.702841
  0
VERTEX
  8
parque_municipal
 10
-9.436371
 20
38.702815
  0
VERTEX
  8
parque_municipal
 10
-9.436370
 20
38.702805
  0
VERTEX
  8
parque_municipal
 10
-9.436394
 20
38.702796
  0
VERTEX
  8
parque_municipal
 10
-9.436412
 20
38.702789
  0
VERTEX
  8
parque_municipal
 10
-9.436452
 20
38.702775
  0
VERTEX
  8
parque_municipal
 10
-9.436490
 20
38.702761
  0
VERTEX
  8
parque_municipal
 10
-9.436483
 20
38.702749
  0
VERTEX
  8
parque_municipal
 10
-9.436471
 20
38.702729
  0
VERTEX
  8
parque_municipal
 10
-9.436470
 20
38.702726
  0
VERTEX
  8
parque_municipal
 10
-9.436477
 20
38.702724
  0
VERTEX
  8
parque_municipal
 10
-9.436471
 20
38.702714
  0
VERTEX
  8
parque_municipal
 10
-9.436461
 20
38.702698
  0
VERTEX
  8
parque_municipal
 10
-9.436456
 20
38.702689
  0
VERTEX
  8
parque_municipal
 10
-9.436452
 20
38.702682
  0
VERTEX
  8
parque_municipal
 10
-9.436430
 20
38.702689
  0
VERTEX
  8
parque_municipal
 10
-9.436418
 20
38.702668
  0
VERTEX
  8
parque_municipal
 10
-9.436404
 20
38.702644
  0
VERTEX
  8
parque_municipal
 10
-9.436396
 20
38.702630
  0
VERTEX
  8
parque_municipal
 10
-9.436385
 20
38.702624
  0
VERTEX
  8
parque_municipal
 10
-9.436376
 20
38.702619
  0
VERTEX
  8
parque_municipal
 10
-9.436375
 20
38.702619
  0
VERTEX
  8
parque_municipal
 10
-9.436383
 20
38.702616
  0
VERTEX
  8
parque_municipal
 10
-9.436389
 20
38.702615
  0
VERTEX
  8
parque_municipal
 10
-9.436390
 20
38.702615
  0
VERTEX
  8
parque_municipal
 10
-9.436398
 20
38.702616
  0
VERTEX
  8
parque_municipal
 10
-9.436406
 20
38.702617
  0
VERTEX
  8
parque_municipal
 10
-9.436426
 20
38.702610
  0
VERTEX
  8
parque_municipal
 10
-9.436438
 20
38.702605
  0
VERTEX
  8
parque_municipal
 10
-9.436463
 20
38.702596
  0
VERTEX
  8
parque_municipal
 10
-9.436498
 20
38.702583
  0
VERTEX
  8
parque_municipal
 10
-9.436512
 20
38.702577
  0
VERTEX
  8
parque_municipal
 10
-9.436501
 20
38.702556
  0
VERTEX
  8
parque_municipal
 10
-9.436488
 20
38.702532
  0
VERTEX
  8
parque_municipal
 10
-9.436468
 20
38.702493
  0
VERTEX
  8
parque_municipal
 10
-9.436436
 20
38.702503
  0
VERTEX
  8
parque_municipal
 10
-9.436417
 20
38.702467
  0
VERTEX
  8
parque_municipal
 10
-9.436404
 20
38.702443
  0
VERTEX
  8
parque_municipal
 10
-9.436385
 20
38.702436
  0
VERTEX
  8
parque_municipal
 10
-9.436382
 20
38.702426
  0
VERTEX
  8
parque_municipal
 10
-9.436392
 20
38.702423
  0
VERTEX
  8
parque_municipal
 10
-9.436394
 20
38.702422
  0
VERTEX
  8
parque_municipal
 10
-9.436420
 20
38.702425
  0
VERTEX
  8
parque_municipal
 10
-9.436449
 20
38.702415
  0
VERTEX
  8
parque_municipal
 10
-9.436516
 20
38.702393
  0
VERTEX
  8
parque_municipal
 10
-9.436528
 20
38.702389
  0
VERTEX
  8
parque_municipal
 10
-9.436516
 20
38.702369
  0
VERTEX
  8
parque_municipal
 10
-9.436491
 20
38.702322
  0
VERTEX
  8
parque_municipal
 10
-9.436485
 20
38.702310
  0
VERTEX
  8
parque_municipal
 10
-9.436468
 20
38.702317
  0
VERTEX
  8
parque_municipal
 10
-9.436467
 20
38.702317
  0
VERTEX
  8
parque_municipal
 10
-9.436461
 20
38.702305
  0
VERTEX
  8
parque_municipal
 10
-9.436443
 20
38.702273
  0
VERTEX
  8
parque_municipal
 10
-9.436428
 20
38.702245
  0
VERTEX
  8
parque_municipal
 10
-9.436448
 20
38.702251
  0
VERTEX
  8
parque_municipal
 10
-9.436491
 20
38.702264
  0
VERTEX
  8
parque_municipal
 10
-9.436516
 20
38.702271
  0
VERTEX
  8
parque_municipal
 10
-9.436624
 20
38.702301
  0
VERTEX
  8
parque_municipal
 10
-9.436618
 20
38.702268
  0
VERTEX
  8
parque_municipal
 10
-9.436639
 20
38.702110
  0
VERTEX
  8
parque_municipal
 10
-9.436639
 20
38.702109
  0
VERTEX
  8
parque_municipal
 10
-9.436696
 20
38.702104
  0
VERTEX
  8
parque_municipal
 10
-9.436715
 20
38.702102
  0
VERTEX
  8
parque_municipal
 10
-9.436709
 20
38.702080
  0
VERTEX
  8
parque_municipal
 10
-9.436755
 20
38.702074
  0
VERTEX
  8
parque_municipal
 10
-9.436876
 20
38.702060
  0
VERTEX
  8
parque_municipal
 10
-9.437000
 20
38.702045
  0
VERTEX
  8
parque_municipal
 10
-9.437025
 20
38.702042
  0
VERTEX
  8
parque_municipal
 10
-9.437094
 20
38.702037
  0
VERTEX
  8
parque_municipal
 10
-9.437102
 20
38.702082
  0
VERTEX
  8
parque_municipal
 10
-9.437114
 20
38.702146
  0
VERTEX
  8
parque_municipal
 10
-9.437123
 20
38.702195
  0
VERTEX
  8
parque_municipal
 10
-9.437124
 20
38.702196
  0
SEQEND
  0
POINT
  8
parque_municipal
  6
BYLAYER
 10
-9.436809
 20
38.703125
 50
0.639494
  0
POLYLINE
  8
parque_municipal
  6
BYLAYER
 66
1
 70
1
 40
0.000000
 41
0.000000
  0
VERTEX
  8
parque_municipal
 10
-9.365557
 20
38.695911
  0
VERTEX
  8
parque_municipal
 10
-9.365559
 20
38.695878
  0
VERTEX
  8
parque_municipal
 10
-9.365559
 20
38.695878
  0
VERTEX
  8
parque_municipal
 10
-9.365567
 20
38.695879
  0
VERTEX
  8
parque_municipal
 10
-9.365607
 20
38.695884
  0
VERTEX
  8
parque_municipal
 10
-9.365647
 20
38.695889
  0
VERTEX
  8
parque_municipal
 10
-9.365681
 20
38.695894
  0
VERTEX
  8
parque_municipal
 10
-9.365757
 20
38.695904
  0
VERTEX
  8
parque_municipal
 10
-9.365813
 20
38.695912
  0
VERTEX
  8
parque_municipal
 10
-9.365869
 20
38.695919
  0
VERTEX
  8
parque_municipal
 10
-9.365938
 20
38.695928
  0
VERTEX
  8
parque_municipal
 10
-9.365991
 20
38.695935
  0
VERTEX
  8
parque_municipal
 10
-9.366100
 20
38.695950
  0
VERTEX
  8
parque_municipal
 10
-9.366206
 20
38.695964
  0
VERTEX
  8
parque_municipal
 10
-9.366265
 20
38.695972
  0
VERTEX
  8
parque_municipal
 10
-9.366270
 20
38.695973
  0
VERTEX
  8
parque_municipal
 10
-9.366299
 20
38.695959
  0
VERTEX
  8
parque_municipal
 10
-9.366347
 20
38.695936
  0
VERTEX
  8
parque_municipal
 10
-9.366396
 20
38.695913
  0
VERTEX
  8
parque_municipal
 10
-9.366454
 20
38.695886
  0
VERTEX
  8
parque_municipal
 10
-9.366458
 20
38.695901
  0
VERTEX
  8
parque_municipal
 10
-9.366469
 20
38.695917
  0
VERTEX
  8
parque_municipal
 10
-9.366481
 20
38.695934
  0
VERTEX
  8
parque_municipal
 10
-9.366518
 20
38.695985
  0
VERTEX
  8
parque_municipal
 10
-9.366522
 20
38.695990
  0
VERTEX
  8
parque_municipal
 10
-9.366528
 20
38.695993
  0
VERTEX
  8
parque_municipal
 10
-9.366539
 20
38.695997
  0
VERTEX
  8
parque_municipal
 10
-9.366552
 20
38.696003
  0
VERTEX
  8
parque_municipal
 10
-9.366565
 20
38.696009
  0
VERTEX
  8
parque_municipal
 10
-9.366581
 20
38.696018
  0
VERTEX
  8
parque_municipal
 10
-9.366604
 20
38.695995
  0
VERTEX
  8
parque_municipal
 10
-9.366612
 20
38.695988
  0
VERTEX
  8
parque_municipal
 10
-9.366632
 20
38.696002
  0
VERTEX
  8
parque_municipal
 10
-9.366644
 20
38.696011
  0
VERTEX
  8
parque_municipal
 10
-9.366649
 20
38.696014
  0
VERTEX
  8
parque_municipal
 10
-9.366657
 20
38.696021
  0
VERTEX
  8
parque_municipal
 10
-9.366667
 20
38.696030
  0
VERTEX
  8
parque_municipal
 10
-9.366674
 20
38.696036
  0
VERTEX
  8
parque_municipal
 10
-9.366681
 20
38.696042
  0
VERTEX
  8
parque_municipal
 10
-9.366689
 20
38.696050
  0
VERTEX
  8
parque_municipal
 10
-9.366704
 20
38.696066
  0
VERTEX
  8
parque_municipal
 10
-9.366710
 20
38.696072
  0
VERTEX
  8
parque_municipal
 10
-9.366776
 20
38.696042
  0
VERTEX
  8
parque_municipal
 10
-9.366814
 20
38.696024
  0
VERTEX
  8
parque_municipal
 10
-9.366898
 20
38.695986
  0
VERTEX
  8
parque_municipal
 10
-9.366903
 20
38.695983
  0
VERTEX
  8
parque_municipal
 10
-9.366910
 20
38.695994
  0
VERTEX
  8
parque_municipal
 10
-9.366956
 20
38.696057
  0
VERTEX
  8
parque_municipal
 10
-9.366968
 20
38.696073
  0
VERTEX
  8
parque_municipal
 10
-9.367007
 20
38.696127
  0
VERTEX
  8
parque_municipal
 10
-9.367021
 20
38.696131
  0
VERTEX
  8
parque_municipal
 10
-9.367113
 20
38.696159
  0
VERTEX
  8
parque_municipal
 10
-9.367221
 20
38.696191
  0
VERTEX
  8
parque_municipal
 10
-9.367351
 20
38.696231
  0
VERTEX
  8
parque_municipal
 10
-9.367456
 20
38.696262
  0
VERTEX
  8
parque_municipal
 10
-9.367573
 20
38.696298
  0
VERTEX
  8
parque_municipal
 10
-9.367683
 20
38.696330
  0
VERTEX
  8
parque_municipal
 10
-9.367677
 20
38.696340
  0
VERTEX
  8
parque_municipal
 10
-9.367663
 20
38.696360
  0
VERTEX
  8
parque_municipal
 10
-9.367623
 20
38.696420
  0
VERTEX
  8
parque_municipal
 10
-9.367569
 20
38.696502
  0
VERTEX
  8
parque_municipal
 10
-9.367515
 20
38.696581
  0
VERTEX
  8
parque_municipal
 10
-9.367477
 20
38.696640
  0
VERTEX
  8
parque_municipal
 10
-9.367464
 20
38.696660
  0
VERTEX
  8
parque_municipal
 10
-9.367428
 20
38.696714
  0
VERTEX
  8
parque_municipal
 10
-9.367409
 20
38.696743
  0
VERTEX
  8
parque_municipal
 10
-9.367373
 20
38.696799
  0
VERTEX
  8
parque_municipal
 10
-9.367351
 20
38.696830
  0
VERTEX
  8
parque_municipal
 10
-9.367311
 20
38.696890
  0
VERTEX
  8
parque_municipal
 10
-9.367292
 20
38.696919
  0
VERTEX
  8
parque_municipal
 10
-9.367245
 20
38.696990
  0
VERTEX
  8
parque_municipal
 10
-9.367202
 20
38.697055
  0
VERTEX
  8
parque_municipal
 10
-9.367155
 20
38.697127
  0
VERTEX
  8
parque_municipal
 10
-9.367099
 20
38.697213
  0
VERTEX
  8
parque_municipal
 10
-9.367061
 20
38.697273
  0
VERTEX
  8
parque_municipal
 10
-9.366918
 20
38.697221
  0
VERTEX
  8
parque_municipal
 10
-9.366845
 20
38.697195
  0
VERTEX
  8
parque_municipal
 10
-9.366886
 20
38.697114
  0
VERTEX
  8
parque_municipal
 10
-9.366786
 20
38.697083
  0
VERTEX
  8
parque_municipal
 10
-9.366625
 20
38.697035
  0
VERTEX
  8
parque_municipal
 10
-9.366563
 20
38.697018
  0
VERTEX
  8
parque_municipal
 10
-9.366532
 20
38.697087
  0
VERTEX
  8
parque_municipal
 10
-9.366471
 20
38.697203
  0
VERTEX
  8
parque_municipal
 10
-9.366419
 20
38.697191
  0
VERTEX
  8
parque_municipal
 10
-9.366243
 20
38.697154
  0
VERTEX
  8
parque_municipal
 10
-9.366122
 20
38.697128
  0
VERTEX
  8
parque_municipal
 10
-9.366070
 20
38.697113
  0
VERTEX
  8
parque_municipal
 10
-9.366083
 20
38.697027
  0
VERTEX
  8
parque_municipal
 10
-9.366100
 20
38.696919
  0
VERTEX
  8
parque_municipal
 10
-9.365957
 20
38.696901
  0
VERTEX
  8
parque_municipal
 10
-9.365816
 20
38.696884
  0
VERTEX
  8
parque_municipal
 10
-9.365760
 20
38.696876
  0
VERTEX
  8
parque_municipal
 10
-9.365744
 20
38.696964
  0
VERTEX
  8
parque_municipal
 10
-9.365664
 20
38.696959
  0
VERTEX
  8
parque_municipal
 10
-9.365507
 20
38.696951
  0
VERTEX
  8
parque_municipal
 10
-9.365515
 20
38.696799
  0
VERTEX
  8
parque_municipal
 10
-9.365528
 20
38.696565
  0
VERTEX
  8
parque_municipal
 10
-9.365530
 20
38.696527
  0
VERTEX
  8
parque_municipal
 10
-9.365532
 20
38.696457
  0
VERTEX
  8
parque_municipal
 10
-9.365546
 20
38.696109
  0
VERTEX
  8
parque_municipal
 10
-9.365552
 20
38.696020
  0
VERTEX
  8
parque_municipal
 10
-9.365557
 20
38.695923
  0
VERTEX
  8
parque_municipal
 10
-9.365557
 20
38.695911
  0
SEQEND
  0
POINT
  8
parque_municipal
  6
BYLAYER
 10
-9.366476
 20
38.696532
 50
0.604990
  0
POLYLINE
  8
parque_municipal
  6
BYLAYER
 66
1
 70
1
 40
0.000000
 41
0.000000
  0
VERTEX
  8
parque_municipal
 10
-9.423921
 20
38.693571
  0
VERTEX
  8
parque_municipal
 10
-9.423918
 20
38.693573
  0
VERTEX
  8
parque_municipal
 10
-9.423937
 20
38.693593
  0
VERTEX
  8
parque_municipal
 10
-9.424014
 20
38.693687
  0
VERTEX
  8
parque_municipal
 10
-9.424049
 20
38.693879
  0
VERTEX
  8
parque_municipal
 10
-9.423720
 20
38.693918
  0
VERTEX
  8
parque_municipal
 10
-9.423313
 20
38.693973
  0
VERTEX
  8
parque_municipal
 10
-9.423282
 20
38.693977
  0
VERTEX
  8
parque_municipal
 10
-9.423243
 20
38.693982
  0
VERTEX
  8
parque_municipal
 10
-9.423240
 20
38.693982
  0
VERTEX
  8
parque_municipal
 10
-9.423240
 20
38.693982
  0
VERTEX
  8
parque_municipal
 10
-9.423204
 20
38.693985
  0
VERTEX
  8
parque_municipal
 10
-9.423179
 20
38.693991
  0
VERTEX
  8
parque_municipal
 10
-9.423170
 20
38.693997
  0
VERTEX
  8
parque_municipal
 10
-9.423168
 20
38.694006
  0
VERTEX
  8
parque_municipal
 10
-9.423188
 20
38.694177
  0
VERTEX
  8
parque_municipal
 10
-9.423184
 20
38.694184
  0
VERTEX
  8
parque_municipal
 10
-9.423179
 20
38.694188
  0
VERTEX
  8
parque_municipal
 10
-9.423170
 20
38.694194
  0
VERTEX
  8
parque_municipal
 10
-9.423164
 20
38.694196
  0
VERTEX
  8
parque_municipal
 10
-9.423158
 20
38.694199
  0
VERTEX
  8
parque_municipal
 10
-9.423115
 20
38.694216
  0
VERTEX
  8
parque_municipal
 10
-9.423108
 20
38.694219
  0
VERTEX
  8
parque_municipal
 10
-9.423104
 20
38.694221
  0
VERTEX
  8
parque_municipal
 10
-9.423059
 20
38.694240
  0
VERTEX
  8
parque_municipal
 10
-9.423049
 20
38.694245
  0
VERTEX
  8
parque_municipal
 10
-9.423035
 20
38.694251
  0
VERTEX
  8
parque_municipal
 10
-9.422848
 20
38.694340
  0
VERTEX
  8
parque_municipal
 10
-9.422832
 20
38.694335
  0
VERTEX
  8
parque_municipal
 10
-9.422831
 20
38.694335
  0
VERTEX
  8
parque_municipal
 10
-9.422795
 20
38.694324
  0
VERTEX
  8
parque_municipal
 10
-9.422792
 20
38.694324
  0
VERTEX
  8
parque_municipal
 10
-9.422789
 20
38.694323
  0
VERTEX
  8
parque_municipal
 10
-9.422787
 20
38.694323
  0
VERTEX
  8
parque_municipal
 10
-9.422784
 20
38.694322
  0
VERTEX
  8
parque_municipal
 10
-9.422781
 20
38.694322
  0
VERTEX
  8
parque_municipal
 10
-9.422778
 20
38.694321
  0
VERTEX
  8
parque_municipal
 10
-9.422775
 20
38.694321
  0
VERTEX
  8
parque_municipal
 10
-9.422772
 20
38.694321
  0
VERTEX
  8
parque_municipal
 10
-9.422769
 20
38.694321
  0
VERTEX
  8
parque_municipal
 10
-9.422766
 20
38.694321
  0
VERTEX
  8
parque_municipal
 10
-9.422763
 20
38.694321
  0
VERTEX
  8
parque_municipal
 10
-9.422760
 20
38.694321
  0
VERTEX
  8
parque_municipal
 10
-9.422757
 20
38.694321
  0
VERTEX
  8
parque_municipal
 10
-9.422754
 20
38.694321
  0
VERTEX
  8
parque_municipal
 10
-9.422751
 20
38.694321
  0
VERTEX
  8
parque_municipal
 10
-9.422748
 20
38.694322
  0
VERTEX
  8
parque_municipal
 10
-9.422748
 20
38.694322
  0
VERTEX
  8
parque_municipal
 10
-9.422742
 20
38.694323
  0
VERTEX
  8
parque_municipal
 10
-9.422737
 20
38.694324
  0
VERTEX
  8
parque_municipal
 10
-9.422732
 20
38.694325
  0
VERTEX
  8
parque_municipal
 10
-9.422727
 20
38.694326
  0
VERTEX
  8
parque_municipal
 10
-9.422722
 20
38.694327
  0
VERTEX
  8
parque_municipal
 10
-9.422717
 20
38.694328
  0
VERTEX
  8
parque_municipal
 10
-9.422711
 20
38.694329
  0
VERTEX
  8
parque_municipal
 10
-9.422706
 20
38.694331
  0
VERTEX
  8
parque_municipal
 10
-9.422701
 20
38.694332
  0
VERTEX
  8
parque_municipal
 10
-9.422696
 20
38.694334
  0
VERTEX
  8
parque_municipal
 10
-9.422691
 20
38.694335
  0
VERTEX
  8
parque_municipal
 10
-9.422686
 20
38.694337
  0
VERTEX
  8
parque_municipal
 10
-9.422681
 20
38.694339
  0
VERTEX
  8
parque_municipal
 10
-9.422676
 20
38.694340
  0
VERTEX
  8
parque_municipal
 10
-9.422671
 20
38.694342
  0
VERTEX
  8
parque_municipal
 10
-9.422667
 20
38.694344
  0
VERTEX
  8
parque_municipal
 10
-9.422662
 20
38.694346
  0
VERTEX
  8
parque_municipal
 10
-9.422657
 20
38.694348
  0
VERTEX
  8
parque_municipal
 10
-9.422652
 20
38.694350
  0
VERTEX
  8
parque_municipal
 10
-9.422648
 20
38.694352
  0
VERTEX
  8
parque_municipal
 10
-9.422643
 20
38.694354
  0
VERTEX
  8
parque_municipal
 10
-9.422639
 20
38.694357
  0
VERTEX
  8
parque_municipal
 10
-9.422634
 20
38.694359
  0
VERTEX
  8
parque_municipal
 10
-9.422630
 20
38.694361
  0
VERTEX
  8
parque_municipal
 10
-9.422566
 20
38.694392
  0
VERTEX
  8
parque_municipal
 10
-9.422565
 20
38.694391
  0
VERTEX
  8
parque_municipal
 10
-9.422565
 20
38.694390
  0
VERTEX
  8
parque_municipal
 10
-9.422563
 20
38.694389
  0
VERTEX
  8
parque_municipal
 10
-9.422562
 20
38.694389
  0
VERTEX
  8
parque_municipal
 10
-9.422561
 20
38.694388
  0
VERTEX
  8
parque_municipal
 10
-9.422560
 20
38.694387
  0
VERTEX
  8
parque_municipal
 10
-9.422559
 20
38.694386
  0
VERTEX
  8
parque_municipal
 10
-9.422557
 20
38.694386
  0
VERTEX
  8
parque_municipal
 10
-9.422556
 20
38.694386
  0
VERTEX
  8
parque_municipal
 10
-9.422555
 20
38.694385
  0
VERTEX
  8
parque_municipal
 10
-9.422553
 20
38.694385
  0
VERTEX
  8
parque_municipal
 10
-9.422552
 20
38.694384
  0
VERTEX
  8
parque_municipal
 10
-9.422550
 20
38.694384
  0
VERTEX
  8
parque_municipal
 10
-9.422549
 20
38.694384
  0
VERTEX
  8
parque_municipal
 10
-9.422547
 20
38.694384
  0
VERTEX
  8
parque_municipal
 10
-9.422546
 20
38.694384
  0
VERTEX
  8
parque_municipal
 10
-9.422544
 20
38.694384
  0
VERTEX
  8
parque_municipal
 10
-9.422543
 20
38.694384
  0
VERTEX
  8
parque_municipal
 10
-9.422541
 20
38.694384
  0
VERTEX
  8
parque_municipal
 10
-9.422540
 20
38.694385
  0
VERTEX
  8
parque_municipal
 10
-9.422538
 20
38.694385
  0
VERTEX
  8
parque_municipal
 10
-9.422537
 20
38.694385
  0
VERTEX
  8
parque_municipal
 10
-9.422536
 20
38.694386
  0
VERTEX
  8
parque_municipal
 10
-9.422535
 20
38.694386
  0
VERTEX
  8
parque_municipal
 10
-9.422520
 20
38.694369
  0
VERTEX
  8
parque_municipal
 10
-9.422512
 20
38.694359
  0
VERTEX
  8
parque_municipal
 10
-9.422497
 20
38.694339
  0
VERTEX
  8
parque_municipal
 10
-9.422456
 20
38.694361
  0
VERTEX
  8
parque_municipal
 10
-9.422489
 20
38.694400
  0
VERTEX
  8
parque_municipal
 10
-9.422489
 20
38.694401
  0
VERTEX
  8
parque_municipal
 10
-9.422490
 20
38.694403
  0
VERTEX
  8
parque_municipal
 10
-9.422490
 20
38.694404
  0
VERTEX
  8
parque_municipal
 10
-9.422490
 20
38.694405
  0
VERTEX
  8
parque_municipal
 10
-9.422489
 20
38.694407
  0
VERTEX
  8
parque_municipal
 10
-9.422489
 20
38.694408
  0
VERTEX
  8
parque_municipal
 10
-9.422489
 20
38.694409
  0
VERTEX
  8
parque_municipal
 10
-9.422488
 20
38.694411
  0
VERTEX
  8
parque_municipal
 10
-9.422488
 20
38.694412
  0
VERTEX
  8
parque_municipal
 10
-9.422487
 20
38.694413
  0
VERTEX
  8
parque_municipal
 10
-9.422487
 20
38.694414
  0
VERTEX
  8
parque_municipal
 10
-9.422486
 20
38.694416
  0
VERTEX
  8
parque_municipal
 10
-9.422485
 20
38.694417
  0
VERTEX
  8
parque_municipal
 10
-9.422484
 20
38.694418
  0
VERTEX
  8
parque_municipal
 10
-9.422483
 20
38.694419
  0
VERTEX
  8
parque_municipal
 10
-9.422482
 20
38.694420
  0
VERTEX
  8
parque_municipal
 10
-9.422481
 20
38.694421
  0
VERTEX
  8
parque_municipal
 10
-9.422479
 20
38.694423
  0
VERTEX
  8
parque_municipal
 10
-9.422476
 20
38.694425
  0
VERTEX
  8
parque_municipal
 10
-9.422473
 20
38.694427
  0
VERTEX
  8
parque_municipal
 10
-9.422470
 20
38.694429
  0
VERTEX
  8
parque_municipal
 10
-9.422467
 20
38.694430
  0
VERTEX
  8
parque_municipal
 10
-9.422464
 20
38.694432
  0
VERTEX
  8
parque_municipal
 10
-9.422461
 20
38.694434
  0
VERTEX
  8
parque_municipal
 10
-9.422458
 20
38.694435
  0
VERTEX
  8
parque_municipal
 10
-9.422455
 20
38.694437
  0
VERTEX
  8
parque_municipal
 10
-9.422452
 20
38.694439
  0
VERTEX
  8
parque_municipal
 10
-9.422449
 20
38.694440
  0
VERTEX
  8
parque_municipal
 10
-9.422445
 20
38.694441
  0
VERTEX
  8
parque_municipal
 10
-9.422443
 20
38.694442
  0
VERTEX
  8
parque_municipal
 10
-9.422370
 20
38.694478
  0
VERTEX
  8
parque_municipal
 10
-9.422188
 20
38.694578
  0
VERTEX
  8
parque_municipal
 10
-9.422188
 20
38.694618
  0
VERTEX
  8
parque_municipal
 10
-9.422187
 20
38.694623
  0
VERTEX
  8
parque_municipal
 10
-9.422186
 20
38.694624
  0
VERTEX
  8
parque_municipal
 10
-9.422184
 20
38.694626
  0
VERTEX
  8
parque_municipal
 10
-9.422176
 20
38.694631
  0
VERTEX
  8
parque_municipal
 10
-9.422170
 20
38.694633
  0
VERTEX
  8
parque_municipal
 10
-9.422144
 20
38.694640
  0
VERTEX
  8
parque_municipal
 10
-9.422025
 20
38.694651
  0
VERTEX
  8
parque_municipal
 10
-9.421994
 20
38.694653
  0
VERTEX
  8
parque_municipal
 10
-9.421977
 20
38.694653
  0
VERTEX
  8
parque_municipal
 10
-9.421976
 20
38.694652
  0
VERTEX
  8
parque_municipal
 10
-9.421891
 20
38.694648
  0
VERTEX
  8
parque_municipal
 10
-9.421750
 20
38.694634
  0
VERTEX
  8
parque_municipal
 10
-9.421553
 20
38.694605
  0
VERTEX
  8
parque_municipal
 10
-9.421526
 20
38.694599
  0
VERTEX
  8
parque_municipal
 10
-9.421503
 20
38.694591
  0
VERTEX
  8
parque_municipal
 10
-9.421485
 20
38.694584
  0
VERTEX
  8
parque_municipal
 10
-9.421466
 20
38.694573
  0
VERTEX
  8
parque_municipal
 10
-9.421454
 20
38.694565
  0
VERTEX
  8
parque_municipal
 10
-9.421429
 20
38.694545
  0
VERTEX
  8
parque_municipal
 10
-9.421355
 20
38.694465
  0
VERTEX
  8
parque_municipal
 10
-9.421429
 20
38.694434
  0
VERTEX
  8
parque_municipal
 10
-9.421476
 20
38.694413
  0
VERTEX
  8
parque_municipal
 10
-9.421487
 20
38.694408
  0
VERTEX
  8
parque_municipal
 10
-9.421493
 20
38.694406
  0
VERTEX
  8
parque_municipal
 10
-9.421463
 20
38.694364
  0
VERTEX
  8
parque_municipal
 10
-9.421494
 20
38.694352
  0
VERTEX
  8
parque_municipal
 10
-9.421738
 20
38.694264
  0
VERTEX
  8
parque_municipal
 10
-9.421744
 20
38.694261
  0
VERTEX
  8
parque_municipal
 10
-9.421767
 20
38.694253
  0
VERTEX
  8
parque_municipal
 10
-9.421795
 20
38.694242
  0
VERTEX
  8
parque_municipal
 10
-9.421902
 20
38.694200
  0
VERTEX
  8
parque_municipal
 10
-9.421927
 20
38.694189
  0
VERTEX
  8
parque_municipal
 10
-9.422005
 20
38.694159
  0
VERTEX
  8
parque_municipal
 10
-9.422018
 20
38.694154
  0
VERTEX
  8
parque_municipal
 10
-9.422028
 20
38.694150
  0
VERTEX
  8
parque_municipal
 10
-9.422030
 20
38.694148
  0
VERTEX
  8
parque_municipal
 10
-9.422032
 20
38.694145
  0
VERTEX
  8
parque_municipal
 10
-9.422034
 20
38.694140
  0
VERTEX
  8
parque_municipal
 10
-9.422039
 20
38.693949
  0
VERTEX
  8
parque_municipal
 10
-9.422040
 20
38.693924
  0
VERTEX
  8
parque_municipal
 10
-9.422040
 20
38.693894
  0
VERTEX
  8
parque_municipal
 10
-9.422042
 20
38.693862
  0
VERTEX
  8
parque_municipal
 10
-9.422042
 20
38.693860
  0
VERTEX
  8
parque_municipal
 10
-9.422039
 20
38.693840
  0
VERTEX
  8
parque_municipal
 10
-9.422033
 20
38.693812
  0
VERTEX
  8
parque_municipal
 10
-9.422033
 20
38.693810
  0
VERTEX
  8
parque_municipal
 10
-9.422028
 20
38.693792
  0
VERTEX
  8
parque_municipal
 10
-9.421986
 20
38.693675
  0
VERTEX
  8
parque_municipal
 10
-9.421928
 20
38.693508
  0
VERTEX
  8
parque_municipal
 10
-9.421880
 20
38.693351
  0
VERTEX
  8
parque_municipal
 10
-9.421836
 20
38.693203
  0
VERTEX
  8
parque_municipal
 10
-9.421820
 20
38.693159
  0
VERTEX
  8
parque_municipal
 10
-9.421785
 20
38.693062
  0
VERTEX
  8
parque_municipal
 10
-9.421768
 20
38.693014
  0
VERTEX
  8
parque_municipal
 10
-9.421743
 20
38.693020
  0
VERTEX
  8
parque_municipal
 10
-9.421545
 20
38.693070
  0
VERTEX
  8
parque_municipal
 10
-9.421432
 20
38.693099
  0
VERTEX
  8
parque_municipal
 10
-9.421431
 20
38.693099
  0
VERTEX
  8
parque_municipal
 10
-9.421312
 20
38.693122
  0
VERTEX
  8
parque_municipal
 10
-9.421215
 20
38.693146
  0
VERTEX
  8
parque_municipal
 10
-9.421108
 20
38.693174
  0
VERTEX
  8
parque_municipal
 10
-9.421052
 20
38.693188
  0
VERTEX
  8
parque_municipal
 10
-9.421042
 20
38.693191
  0
VERTEX
  8
parque_municipal
 10
-9.421013
 20
38.693198
  0
VERTEX
  8
parque_municipal
 10
-9.420989
 20
38.693205
  0
VERTEX
  8
parque_municipal
 10
-9.420942
 20
38.693220
  0
VERTEX
  8
parque_municipal
 10
-9.420920
 20
38.693229
  0
VERTEX
  8
parque_municipal
 10
-9.420895
 20
38.693241
  0
VERTEX
  8
parque_municipal
 10
-9.420854
 20
38.693266
  0
VERTEX
  8
parque_municipal
 10
-9.420846
 20
38.693272
  0
VERTEX
  8
parque_municipal
 10
-9.420832
 20
38.693288
  0
VERTEX
  8
parque_municipal
 10
-9.420831
 20
38.693288
  0
VERTEX
  8
parque_municipal
 10
-9.420814
 20
38.693313
  0
VERTEX
  8
parque_municipal
 10
-9.420809
 20
38.693330
  0
VERTEX
  8
parque_municipal
 10
-9.420806
 20
38.693342
  0
VERTEX
  8
parque_municipal
 10
-9.420805
 20
38.693358
  0
VERTEX
  8
parque_municipal
 10
-9.420805
 20
38.693379
  0
VERTEX
  8
parque_municipal
 10
-9.420803
 20
38.693431
  0
VERTEX
  8
parque_municipal
 10
-9.420785
 20
38.693431
  0
VERTEX
  8
parque_municipal
 10
-9.420785
 20
38.693430
  0
VERTEX
  8
parque_municipal
 10
-9.420787
 20
38.693373
  0
VERTEX
  8
parque_municipal
 10
-9.420775
 20
38.693373
  0
VERTEX
  8
parque_municipal
 10
-9.420775
 20
38.693372
  0
VERTEX
  8
parque_municipal
 10
-9.420788
 20
38.693308
  0
VERTEX
  8
parque_municipal
 10
-9.420795
 20
38.693285
  0
VERTEX
  8
parque_municipal
 10
-9.420817
 20
38.693199
  0
VERTEX
  8
parque_municipal
 10
-9.420858
 20
38.693061
  0
VERTEX
  8
parque_municipal
 10
-9.420898
 20
38.692925
  0
VERTEX
  8
parque_municipal
 10
-9.420901
 20
38.692912
  0
VERTEX
  8
parque_municipal
 10
-9.420907
 20
38.692890
  0
VERTEX
  8
parque_municipal
 10
-9.420995
 20
38.692588
  0
VERTEX
  8
parque_municipal
 10
-9.421045
 20
38.692420
  0
VERTEX
  8
parque_municipal
 10
-9.421049
 20
38.692407
  0
VERTEX
  8
parque_municipal
 10
-9.421056
 20
38.692380
  0
VERTEX
  8
parque_municipal
 10
-9.421058
 20
38.692376
  0
VERTEX
  8
parque_municipal
 10
-9.421082
 20
38.692293
  0
VERTEX
  8
parque_municipal
 10
-9.421112
 20
38.692182
  0
VERTEX
  8
parque_municipal
 10
-9.421112
 20
38.692178
  0
VERTEX
  8
parque_municipal
 10
-9.421113
 20
38.692173
  0
VERTEX
  8
parque_municipal
 10
-9.421114
 20
38.692169
  0
VERTEX
  8
parque_municipal
 10
-9.421115
 20
38.692164
  0
VERTEX
  8
parque_municipal
 10
-9.421116
 20
38.692160
  0
VERTEX
  8
parque_municipal
 10
-9.421118
 20
38.692155
  0
VERTEX
  8
parque_municipal
 10
-9.421119
 20
38.692151
  0
VERTEX
  8
parque_municipal
 10
-9.421120
 20
38.692146
  0
VERTEX
  8
parque_municipal
 10
-9.421122
 20
38.692142
  0
VERTEX
  8
parque_municipal
 10
-9.421123
 20
38.692137
  0
VERTEX
  8
parque_municipal
 10
-9.421125
 20
38.692133
  0
VERTEX
  8
parque_municipal
 10
-9.421127
 20
38.692129
  0
VERTEX
  8
parque_municipal
 10
-9.421128
 20
38.692124
  0
VERTEX
  8
parque_municipal
 10
-9.421130
 20
38.692120
  0
VERTEX
  8
parque_municipal
 10
-9.421132
 20
38.692115
  0
VERTEX
  8
parque_municipal
 10
-9.421134
 20
38.692111
  0
VERTEX
  8
parque_municipal
 10
-9.421136
 20
38.692107
  0
VERTEX
  8
parque_municipal
 10
-9.421139
 20
38.692103
  0
VERTEX
  8
parque_municipal
 10
-9.421141
 20
38.692098
  0
VERTEX
  8
parque_municipal
 10
-9.421143
 20
38.692094
  0
VERTEX
  8
parque_municipal
 10
-9.421146
 20
38.692090
  0
VERTEX
  8
parque_municipal
 10
-9.421149
 20
38.692086
  0
VERTEX
  8
parque_municipal
 10
-9.421151
 20
38.692082
  0
VERTEX
  8
parque_municipal
 10
-9.421154
 20
38.692078
  0
VERTEX
  8
parque_municipal
 10
-9.421157
 20
38.692074
  0
VERTEX
  8
parque_municipal
 10
-9.421160
 20
38.692070
  0
VERTEX
  8
parque_municipal
 10
-9.421163
 20
38.692066
  0
VERTEX
  8
parque_municipal
 10
-9.421166
 20
38.692062
  0
VERTEX
  8
parque_municipal
 10
-9.421169
 20
38.692058
  0
VERTEX
  8
parque_municipal
 10
-9.421172
 20
38.692054
  0
VERTEX
  8
parque_municipal
 10
-9.421175
 20
38.692050
  0
VERTEX
  8
parque_municipal
 10
-9.421179
 20
38.692047
  0
VERTEX
  8
parque_municipal
 10
-9.421182
 20
38.692043
  0
VERTEX
  8
parque_municipal
 10
-9.421186
 20
38.692039
  0
VERTEX
  8
parque_municipal
 10
-9.421189
 20
38.692036
  0
VERTEX
  8
parque_municipal
 10
-9.421193
 20
38.692032
  0
VERTEX
  8
parque_municipal
 10
-9.421198
 20
38.692026
  0
VERTEX
  8
parque_municipal
 10
-9.421270
 20
38.691949
  0
VERTEX
  8
parque_municipal
 10
-9.421300
 20
38.691923
  0
VERTEX
  8
parque_municipal
 10
-9.421325
 20
38.691903
  0
VERTEX
  8
parque_municipal
 10
-9.421333
 20
38.691897
  0
VERTEX
  8
parque_municipal
 10
-9.421344
 20
38.691889
  0
VERTEX
  8
parque_municipal
 10
-9.421349
 20
38.691894
  0
VERTEX
  8
parque_municipal
 10
-9.421353
 20
38.691900
  0
VERTEX
  8
parque_municipal
 10
-9.421420
 20
38.691978
  0
VERTEX
  8
parque_municipal
 10
-9.421430
 20
38.692001
  0
VERTEX
  8
parque_municipal
 10
-9.421458
 20
38.691994
  0
VERTEX
  8
parque_municipal
 10
-9.421482
 20
38.692054
  0
VERTEX
  8
parque_municipal
 10
-9.421466
 20
38.692058
  0
VERTEX
  8
parque_municipal
 10
-9.421465
 20
38.692057
  0
VERTEX
  8
parque_municipal
 10
-9.421463
 20
38.692057
  0
VERTEX
  8
parque_municipal
 10
-9.421462
 20
38.692056
  0
VERTEX
  8
parque_municipal
 10
-9.421461
 20
38.692056
  0
VERTEX
  8
parque_municipal
 10
-9.421460
 20
38.692056
  0
VERTEX
  8
parque_municipal
 10
-9.421459
 20
38.692055
  0
VERTEX
  8
parque_municipal
 10
-9.421457
 20
38.692055
  0
VERTEX
  8
parque_municipal
 10
-9.421456
 20
38.692055
  0
VERTEX
  8
parque_municipal
 10
-9.421455
 20
38.692055
  0
VERTEX
  8
parque_municipal
 10
-9.421454
 20
38.692054
  0
VERTEX
  8
parque_municipal
 10
-9.421453
 20
38.692054
  0
VERTEX
  8
parque_municipal
 10
-9.421451
 20
38.692054
  0
VERTEX
  8
parque_municipal
 10
-9.421450
 20
38.692054
  0
VERTEX
  8
parque_municipal
 10
-9.421449
 20
38.692054
  0
VERTEX
  8
parque_municipal
 10
-9.421449
 20
38.692054
  0
VERTEX
  8
parque_municipal
 10
-9.421448
 20
38.692058
  0
VERTEX
  8
parque_municipal
 10
-9.421447
 20
38.692058
  0
VERTEX
  8
parque_municipal
 10
-9.421446
 20
38.692058
  0
VERTEX
  8
parque_municipal
 10
-9.421445
 20
38.692058
  0
VERTEX
  8
parque_municipal
 10
-9.421443
 20
38.692058
  0
VERTEX
  8
parque_municipal
 10
-9.421442
 20
38.692059
  0
VERTEX
  8
parque_municipal
 10
-9.421441
 20
38.692059
  0
VERTEX
  8
parque_municipal
 10
-9.421440
 20
38.692059
  0
VERTEX
  8
parque_municipal
 10
-9.421439
 20
38.692060
  0
VERTEX
  8
parque_municipal
 10
-9.421438
 20
38.692061
  0
VERTEX
  8
parque_municipal
 10
-9.421437
 20
38.692061
  0
VERTEX
  8
parque_municipal
 10
-9.421436
 20
38.692062
  0
VERTEX
  8
parque_municipal
 10
-9.421435
 20
38.692063
  0
VERTEX
  8
parque_municipal
 10
-9.421435
 20
38.692064
  0
VERTEX
  8
parque_municipal
 10
-9.421434
 20
38.692064
  0
VERTEX
  8
parque_municipal
 10
-9.421434
 20
38.692065
  0
VERTEX
  8
parque_municipal
 10
-9.421433
 20
38.692066
  0
VERTEX
  8
parque_municipal
 10
-9.421433
 20
38.692067
  0
VERTEX
  8
parque_municipal
 10
-9.421432
 20
38.692068
  0
VERTEX
  8
parque_municipal
 10
-9.421432
 20
38.692069
  0
VERTEX
  8
parque_municipal
 10
-9.421432
 20
38.692070
  0
VERTEX
  8
parque_municipal
 10
-9.421432
 20
38.692071
  0
VERTEX
  8
parque_municipal
 10
-9.421432
 20
38.692072
  0
VERTEX
  8
parque_municipal
 10
-9.421432
 20
38.692073
  0
VERTEX
  8
parque_municipal
 10
-9.421432
 20
38.692074
  0
VERTEX
  8
parque_municipal
 10
-9.421433
 20
38.692075
  0
VERTEX
  8
parque_municipal
 10
-9.421433
 20
38.692076
  0
VERTEX
  8
parque_municipal
 10
-9.421434
 20
38.692077
  0
VERTEX
  8
parque_municipal
 10
-9.421434
 20
38.692077
  0
VERTEX
  8
parque_municipal
 10
-9.421435
 20
38.692078
  0
VERTEX
  8
parque_municipal
 10
-9.421436
 20
38.692079
  0
VERTEX
  8
parque_municipal
 10
-9.421437
 20
38.692080
  0
VERTEX
  8
parque_municipal
 10
-9.421437
 20
38.692080
  0
VERTEX
  8
parque_municipal
 10
-9.421438
 20
38.692081
  0
VERTEX
  8
parque_municipal
 10
-9.421439
 20
38.692082
  0
VERTEX
  8
parque_municipal
 10
-9.421426
 20
38.692085
  0
VERTEX
  8
parque_municipal
 10
-9.421441
 20
38.692122
  0
VERTEX
  8
parque_municipal
 10
-9.421443
 20
38.692122
  0
VERTEX
  8
parque_municipal
 10
-9.421449
 20
38.692136
  0
VERTEX
  8
parque_municipal
 10
-9.421426
 20
38.692141
  0
VERTEX
  8
parque_municipal
 10
-9.421408
 20
38.692146
  0
VERTEX
  8
parque_municipal
 10
-9.421422
 20
38.692179
  0
VERTEX
  8
parque_municipal
 10
-9.421442
 20
38.692174
  0
VERTEX
  8
parque_municipal
 10
-9.421461
 20
38.692169
  0
VERTEX
  8
parque_municipal
 10
-9.421466
 20
38.692183
  0
VERTEX
  8
parque_municipal
 10
-9.421463
 20
38.692184
  0
VERTEX
  8
parque_municipal
 10
-9.421479
 20
38.692224
  0
VERTEX
  8
parque_municipal
 10
-9.421491
 20
38.692221
  0
VERTEX
  8
parque_municipal
 10
-9.421500
 20
38.692225
  0
VERTEX
  8
parque_municipal
 10
-9.421507
 20
38.692224
  0
VERTEX
  8
parque_municipal
 10
-9.421512
 20
38.692217
  0
VERTEX
  8
parque_municipal
 10
-9.421550
 20
38.692208
  0
VERTEX
  8
parque_municipal
 10
-9.421550
 20
38.692208
  0
VERTEX
  8
parque_municipal
 10
-9.421550
 20
38.692209
  0
VERTEX
  8
parque_municipal
 10
-9.421550
 20
38.692211
  0
VERTEX
  8
parque_municipal
 10
-9.421550
 20
38.692212
  0
VERTEX
  8
parque_municipal
 10
-9.421550
 20
38.692213
  0
VERTEX
  8
parque_municipal
 10
-9.421551
 20
38.692214
  0
VERTEX
  8
parque_municipal
 10
-9.421551
 20
38.692215
  0
VERTEX
  8
parque_municipal
 10
-9.421552
 20
38.692216
  0
VERTEX
  8
parque_municipal
 10
-9.421553
 20
38.692217
  0
VERTEX
  8
parque_municipal
 10
-9.421553
 20
38.692218
  0
VERTEX
  8
parque_municipal
 10
-9.421554
 20
38.692219
  0
VERTEX
  8
parque_municipal
 10
-9.421555
 20
38.692220
  0
VERTEX
  8
parque_municipal
 10
-9.421556
 20
38.692221
  0
VERTEX
  8
parque_municipal
 10
-9.421557
 20
38.692221
  0
VERTEX
  8
parque_municipal
 10
-9.421558
 20
38.692222
  0
VERTEX
  8
parque_municipal
 10
-9.421559
 20
38.692223
  0
VERTEX
  8
parque_municipal
 10
-9.421561
 20
38.692223
  0
VERTEX
  8
parque_municipal
 10
-9.421562
 20
38.692224
  0
VERTEX
  8
parque_municipal
 10
-9.421563
 20
38.692225
  0
VERTEX
  8
parque_municipal
 10
-9.421565
 20
38.692225
  0
VERTEX
  8
parque_municipal
 10
-9.421566
 20
38.692225
  0
VERTEX
  8
parque_municipal
 10
-9.421567
 20
38.692226
  0
VERTEX
  8
parque_municipal
 10
-9.421569
 20
38.692226
  0
VERTEX
  8
parque_municipal
 10
-9.421570
 20
38.692226
  0
VERTEX
  8
parque_municipal
 10
-9.421570
 20
38.692226
  0
VERTEX
  8
parque_municipal
 10
-9.421572
 20
38.692226
  0
VERTEX
  8
parque_municipal
 10
-9.421573
 20
38.692226
  0
VERTEX
  8
parque_municipal
 10
-9.421575
 20
38.692226
  0
VERTEX
  8
parque_municipal
 10
-9.421576
 20
38.692226
  0
VERTEX
  8
parque_municipal
 10
-9.421578
 20
38.692226
  0
VERTEX
  8
parque_municipal
 10
-9.421579
 20
38.692225
  0
VERTEX
  8
parque_municipal
 10
-9.421580
 20
38.692225
  0
VERTEX
  8
parque_municipal
 10
-9.421582
 20
38.692225
  0
VERTEX
  8
parque_municipal
 10
-9.421583
 20
38.692224
  0
VERTEX
  8
parque_municipal
 10
-9.421584
 20
38.692224
  0
VERTEX
  8
parque_municipal
 10
-9.421586
 20
38.692223
  0
VERTEX
  8
parque_municipal
 10
-9.421587
 20
38.692222
  0
VERTEX
  8
parque_municipal
 10
-9.421588
 20
38.692222
  0
VERTEX
  8
parque_municipal
 10
-9.421589
 20
38.692221
  0
VERTEX
  8
parque_municipal
 10
-9.421590
 20
38.692220
  0
VERTEX
  8
parque_municipal
 10
-9.421591
 20
38.692219
  0
VERTEX
  8
parque_municipal
 10
-9.421592
 20
38.692218
  0
VERTEX
  8
parque_municipal
 10
-9.421593
 20
38.692217
  0
VERTEX
  8
parque_municipal
 10
-9.421593
 20
38.692216
  0
VERTEX
  8
parque_municipal
 10
-9.421594
 20
38.692215
  0
VERTEX
  8
parque_municipal
 10
-9.421594
 20
38.692214
  0
VERTEX
  8
parque_municipal
 10
-9.421595
 20
38.692213
  0
VERTEX
  8
parque_municipal
 10
-9.421595
 20
38.692212
  0
VERTEX
  8
parque_municipal
 10
-9.421596
 20
38.692211
  0
VERTEX
  8
parque_municipal
 10
-9.421596
 20
38.692210
  0
VERTEX
  8
parque_municipal
 10
-9.421596
 20
38.692209
  0
VERTEX
  8
parque_municipal
 10
-9.421596
 20
38.692207
  0
VERTEX
  8
parque_municipal
 10
-9.421596
 20
38.692206
  0
VERTEX
  8
parque_municipal
 10
-9.421596
 20
38.692205
  0
VERTEX
  8
parque_municipal
 10
-9.421595
 20
38.692204
  0
VERTEX
  8
parque_municipal
 10
-9.421595
 20
38.692203
  0
VERTEX
  8
parque_municipal
 10
-9.421595
 20
38.692202
  0
VERTEX
  8
parque_municipal
 10
-9.421594
 20
38.692201
  0
VERTEX
  8
parque_municipal
 10
-9.421594
 20
38.692200
  0
VERTEX
  8
parque_municipal
 10
-9.421660
 20
38.692184
  0
VERTEX
  8
parque_municipal
 10
-9.421649
 20
38.692154
  0
VERTEX
  8
parque_municipal
 10
-9.421688
 20
38.692145
  0
VERTEX
  8
parque_municipal
 10
-9.421684
 20
38.692135
  0
VERTEX
  8
parque_municipal
 10
-9.421810
 20
38.692105
  0
VERTEX
  8
parque_municipal
 10
-9.421851
 20
38.692095
  0
VERTEX
  8
parque_municipal
 10
-9.421915
 20
38.692261
  0
VERTEX
  8
parque_municipal
 10
-9.421982
 20
38.692245
  0
VERTEX
  8
parque_municipal
 10
-9.421916
 20
38.692071
  0
VERTEX
  8
parque_municipal
 10
-9.421930
 20
38.692068
  0
VERTEX
  8
parque_municipal
 10
-9.421967
 20
38.692064
  0
VERTEX
  8
parque_municipal
 10
-9.422056
 20
38.692052
  0
VERTEX
  8
parque_municipal
 10
-9.422072
 20
38.692051
  0
VERTEX
  8
parque_municipal
 10
-9.422118
 20
38.692055
  0
VERTEX
  8
parque_municipal
 10
-9.422125
 20
38.692059
  0
VERTEX
  8
parque_municipal
 10
-9.422130
 20
38.692065
  0
VERTEX
  8
parque_municipal
 10
-9.422335
 20
38.691997
  0
VERTEX
  8
parque_municipal
 10
-9.422358
 20
38.691984
  0
VERTEX
  8
parque_municipal
 10
-9.422371
 20
38.691971
  0
VERTEX
  8
parque_municipal
 10
-9.422376
 20
38.691961
  0
VERTEX
  8
parque_municipal
 10
-9.422375
 20
38.691954
  0
VERTEX
  8
parque_municipal
 10
-9.422325
 20
38.691858
  0
VERTEX
  8
parque_municipal
 10
-9.422281
 20
38.691752
  0
VERTEX
  8
parque_municipal
 10
-9.422440
 20
38.691700
  0
VERTEX
  8
parque_municipal
 10
-9.422578
 20
38.691654
  0
VERTEX
  8
parque_municipal
 10
-9.422751
 20
38.691594
  0
VERTEX
  8
parque_municipal
 10
-9.422837
 20
38.691566
  0
VERTEX
  8
parque_municipal
 10
-9.422917
 20
38.691539
  0
VERTEX
  8
parque_municipal
 10
-9.423176
 20
38.691454
  0
VERTEX
  8
parque_municipal
 10
-9.423152
 20
38.691414
  0
VERTEX
  8
parque_municipal
 10
-9.423310
 20
38.691359
  0
VERTEX
  8
parque_municipal
 10
-9.423403
 20
38.691329
  0
VERTEX
  8
parque_municipal
 10
-9.423494
 20
38.691297
  0
VERTEX
  8
parque_municipal
 10
-9.423506
 20
38.691314
  0
VERTEX
  8
parque_municipal
 10
-9.423529
 20
38.691350
  0
VERTEX
  8
parque_municipal
 10
-9.423496
 20
38.691368
  0
VERTEX
  8
parque_municipal
 10
-9.423598
 20
38.691470
  0
VERTEX
  8
parque_municipal
 10
-9.423707
 20
38.691583
  0
VERTEX
  8
parque_municipal
 10
-9.423709
 20
38.691585
  0
VERTEX
  8
parque_municipal
 10
-9.423715
 20
38.691591
  0
VERTEX
  8
parque_municipal
 10
-9.423717
 20
38.691593
  0
VERTEX
  8
parque_municipal
 10
-9.423754
 20
38.691631
  0
VERTEX
  8
parque_municipal
 10
-9.423768
 20
38.691640
  0
VERTEX
  8
parque_municipal
 10
-9.423862
 20
38.691732
  0
VERTEX
  8
parque_municipal
 10
-9.423870
 20
38.691740
  0
VERTEX
  8
parque_municipal
 10
-9.423882
 20
38.691732
  0
VERTEX
  8
parque_municipal
 10
-9.423894
 20
38.691746
  0
VERTEX
  8
parque_municipal
 10
-9.423900
 20
38.691752
  0
VERTEX
  8
parque_municipal
 10
-9.423936
 20
38.691788
  0
VERTEX
  8
parque_municipal
 10
-9.423936
 20
38.691788
  0
VERTEX
  8
parque_municipal
 10
-9.423947
 20
38.691802
  0
VERTEX
  8
parque_municipal
 10
-9.423936
 20
38.691809
  0
VERTEX
  8
parque_municipal
 10
-9.423933
 20
38.691810
  0
VERTEX
  8
parque_municipal
 10
-9.423968
 20
38.691845
  0
VERTEX
  8
parque_municipal
 10
-9.424028
 20
38.691905
  0
VERTEX
  8
parque_municipal
 10
-9.424125
 20
38.692006
  0
VERTEX
  8
parque_municipal
 10
-9.424247
 20
38.692136
  0
VERTEX
  8
parque_municipal
 10
-9.424393
 20
38.692284
  0
VERTEX
  8
parque_municipal
 10
-9.424556
 20
38.692454
  0
VERTEX
  8
parque_municipal
 10
-9.424589
 20
38.692487
  0
VERTEX
  8
parque_municipal
 10
-9.424590
 20
38.692488
  0
VERTEX
  8
parque_municipal
 10
-9.424675
 20
38.692572
  0
VERTEX
  8
parque_municipal
 10
-9.424766
 20
38.692673
  0
VERTEX
  8
parque_municipal
 10
-9.424831
 20
38.692745
  0
VERTEX
  8
parque_municipal
 10
-9.425018
 20
38.692949
  0
VERTEX
  8
parque_municipal
 10
-9.424898
 20
38.693027
  0
VERTEX
  8
parque_municipal
 10
-9.424879
 20
38.693039
  0
VERTEX
  8
parque_municipal
 10
-9.424851
 20
38.693058
  0
VERTEX
  8
parque_municipal
 10
-9.424814
 20
38.693082
  0
VERTEX
  8
parque_municipal
 10
-9.424808
 20
38.693086
  0
VERTEX
  8
parque_municipal
 10
-9.424802
 20
38.693090
  0
VERTEX
  8
parque_municipal
 10
-9.424769
 20
38.693114
  0
VERTEX
  8
parque_municipal
 10
-9.424768
 20
38.693118
  0
VERTEX
  8
parque_municipal
 10
-9.424768
 20
38.693120
  0
VERTEX
  8
parque_municipal
 10
-9.424767
 20
38.693122
  0
VERTEX
  8
parque_municipal
 10
-9.424767
 20
38.693124
  0
VERTEX
  8
parque_municipal
 10
-9.424766
 20
38.693126
  0
VERTEX
  8
parque_municipal
 10
-9.424765
 20
38.693128
  0
VERTEX
  8
parque_municipal
 10
-9.424764
 20
38.693130
  0
VERTEX
  8
parque_municipal
 10
-9.424763
 20
38.693132
  0
VERTEX
  8
parque_municipal
 10
-9.424762
 20
38.693134
  0
VERTEX
  8
parque_municipal
 10
-9.424761
 20
38.693136
  0
VERTEX
  8
parque_municipal
 10
-9.424759
 20
38.693138
  0
VERTEX
  8
parque_municipal
 10
-9.424758
 20
38.693140
  0
VERTEX
  8
parque_municipal
 10
-9.424757
 20
38.693142
  0
VERTEX
  8
parque_municipal
 10
-9.424755
 20
38.693144
  0
VERTEX
  8
parque_municipal
 10
-9.424754
 20
38.693146
  0
VERTEX
  8
parque_municipal
 10
-9.424752
 20
38.693147
  0
VERTEX
  8
parque_municipal
 10
-9.424750
 20
38.693149
  0
VERTEX
  8
parque_municipal
 10
-9.424748
 20
38.693151
  0
VERTEX
  8
parque_municipal
 10
-9.424747
 20
38.693152
  0
VERTEX
  8
parque_municipal
 10
-9.424745
 20
38.693154
  0
VERTEX
  8
parque_municipal
 10
-9.424743
 20
38.693155
  0
VERTEX
  8
parque_municipal
 10
-9.424741
 20
38.693157
  0
VERTEX
  8
parque_municipal
 10
-9.424738
 20
38.693158
  0
VERTEX
  8
parque_municipal
 10
-9.424736
 20
38.693160
  0
VERTEX
  8
parque_municipal
 10
-9.424734
 20
38.693161
  0
VERTEX
  8
parque_municipal
 10
-9.424732
 20
38.693162
  0
VERTEX
  8
parque_municipal
 10
-9.424729
 20
38.693163
  0
VERTEX
  8
parque_municipal
 10
-9.424727
 20
38.693165
  0
VERTEX
  8
parque_municipal
 10
-9.424724
 20
38.693166
  0
VERTEX
  8
parque_municipal
 10
-9.424722
 20
38.693167
  0
VERTEX
  8
parque_municipal
 10
-9.424719
 20
38.693168
  0
VERTEX
  8
parque_municipal
 10
-9.424717
 20
38.693168
  0
VERTEX
  8
parque_municipal
 10
-9.424714
 20
38.693169
  0
VERTEX
  8
parque_municipal
 10
-9.424714
 20
38.693169
  0
VERTEX
  8
parque_municipal
 10
-9.424712
 20
38.693170
  0
VERTEX
  8
parque_municipal
 10
-9.424709
 20
38.693171
  0
VERTEX
  8
parque_municipal
 10
-9.424706
 20
38.693171
  0
VERTEX
  8
parque_municipal
 10
-9.424704
 20
38.693172
  0
VERTEX
  8
parque_municipal
 10
-9.424703
 20
38.693176
  0
VERTEX
  8
parque_municipal
 10
-9.424715
 20
38.693190
  0
VERTEX
  8
parque_municipal
 10
-9.424715
 20
38.693191
  0
VERTEX
  8
parque_municipal
 10
-9.424713
 20
38.693192
  0
VERTEX
  8
parque_municipal
 10
-9.424702
 20
38.693198
  0
VERTEX
  8
parque_municipal
 10
-9.424689
 20
38.693204
  0
VERTEX
  8
parque_municipal
 10
-9.424681
 20
38.693208
  0
VERTEX
  8
parque_municipal
 10
-9.424675
 20
38.693211
  0
VERTEX
  8
parque_municipal
 10
-9.424664
 20
38.693216
  0
VERTEX
  8
parque_municipal
 10
-9.424662
 20
38.693217
  0
VERTEX
  8
parque_municipal
 10
-9.424648
 20
38.693224
  0
VERTEX
  8
parque_municipal
 10
-9.424635
 20
38.693230
  0
VERTEX
  8
parque_municipal
 10
-9.424626
 20
38.693235
  0
VERTEX
  8
parque_municipal
 10
-9.424554
 20
38.693271
  0
VERTEX
  8
parque_municipal
 10
-9.424522
 20
38.693287
  0
VERTEX
  8
parque_municipal
 10
-9.424439
 20
38.693328
  0
VERTEX
  8
parque_municipal
 10
-9.424343
 20
38.693370
  0
VERTEX
  8
parque_municipal
 10
-9.424308
 20
38.693386
  0
VERTEX
  8
parque_municipal
 10
-9.424247
 20
38.693414
  0
VERTEX
  8
parque_municipal
 10
-9.424165
 20
38.693452
  0
VERTEX
  8
parque_municipal
 10
-9.424018
 20
38.693523
  0
VERTEX
  8
parque_municipal
 10
-9.424016
 20
38.693524
  0
VERTEX
  8
parque_municipal
 10
-9.423939
 20
38.693562
  0
VERTEX
  8
parque_municipal
 10
-9.423939
 20
38.693562
  0
VERTEX
  8
parque_municipal
 10
-9.423921
 20
38.693571
  0
SEQEND
  0
POINT
  8
parque_municipal
  6
BYLAYER
 10
-9.422881
 20
38.692914
 50
0.000000
  0
POLYLINE
  8
parque_municipal
  6
BYLAYER
 66
1
 70
1
 40
0.000000
 41
0.000000
  0
VERTEX
  8
parque_municipal
 10
-9.421342
 20
38.699934
  0
VERTEX
  8
parque_municipal
 10
-9.421285
 20
38.699909
  0
VERTEX
  8
parque_municipal
 10
-9.421266
 20
38.699905
  0
VERTEX
  8
parque_municipal
 10
-9.421219
 20
38.699895
  0
VERTEX
  8
parque_municipal
 10
-9.421172
 20
38.699885
  0
VERTEX
  8
parque_municipal
 10
-9.421118
 20
38.699873
  0
VERTEX
  8
parque_municipal
 10
-9.421066
 20
38.699861
  0
VERTEX
  8
parque_municipal
 10
-9.420998
 20
38.699846
  0
VERTEX
  8
parque_municipal
 10
-9.420940
 20
38.699834
  0
VERTEX
  8
parque_municipal
 10
-9.420918
 20
38.699825
  0
VERTEX
  8
parque_municipal
 10
-9.420879
 20
38.699808
  0
VERTEX
  8
parque_municipal
 10
-9.420852
 20
38.699796
  0
VERTEX
  8
parque_municipal
 10
-9.420849
 20
38.699795
  0
VERTEX
  8
parque_municipal
 10
-9.420683
 20
38.699740
  0
VERTEX
  8
parque_municipal
 10
-9.420682
 20
38.699739
  0
VERTEX
  8
parque_municipal
 10
-9.420694
 20
38.699666
  0
VERTEX
  8
parque_municipal
 10
-9.420707
 20
38.699585
  0
VERTEX
  8
parque_municipal
 10
-9.420729
 20
38.699449
  0
VERTEX
  8
parque_municipal
 10
-9.420757
 20
38.699275
  0
VERTEX
  8
parque_municipal
 10
-9.420773
 20
38.699178
  0
VERTEX
  8
parque_municipal
 10
-9.420782
 20
38.699121
  0
VERTEX
  8
parque_municipal
 10
-9.420786
 20
38.699108
  0
VERTEX
  8
parque_municipal
 10
-9.420789
 20
38.699097
  0
VERTEX
  8
parque_municipal
 10
-9.420795
 20
38.699084
  0
VERTEX
  8
parque_municipal
 10
-9.420800
 20
38.699076
  0
VERTEX
  8
parque_municipal
 10
-9.420807
 20
38.699064
  0
VERTEX
  8
parque_municipal
 10
-9.420814
 20
38.699055
  0
VERTEX
  8
parque_municipal
 10
-9.420825
 20
38.699043
  0
VERTEX
  8
parque_municipal
 10
-9.420834
 20
38.699035
  0
VERTEX
  8
parque_municipal
 10
-9.420844
 20
38.699027
  0
VERTEX
  8
parque_municipal
 10
-9.420855
 20
38.699019
  0
VERTEX
  8
parque_municipal
 10
-9.420868
 20
38.699012
  0
VERTEX
  8
parque_municipal
 10
-9.420885
 20
38.699005
  0
VERTEX
  8
parque_municipal
 10
-9.420894
 20
38.699003
  0
VERTEX
  8
parque_municipal
 10
-9.420904
 20
38.699001
  0
VERTEX
  8
parque_municipal
 10
-9.420913
 20
38.699000
  0
VERTEX
  8
parque_municipal
 10
-9.420922
 20
38.699000
  0
VERTEX
  8
parque_municipal
 10
-9.420932
 20
38.699001
  0
VERTEX
  8
parque_municipal
 10
-9.420941
 20
38.699002
  0
VERTEX
  8
parque_municipal
 10
-9.420949
 20
38.699005
  0
VERTEX
  8
parque_municipal
 10
-9.420967
 20
38.699011
  0
VERTEX
  8
parque_municipal
 10
-9.420990
 20
38.699024
  0
VERTEX
  8
parque_municipal
 10
-9.420999
 20
38.699030
  0
VERTEX
  8
parque_municipal
 10
-9.421023
 20
38.699046
  0
VERTEX
  8
parque_municipal
 10
-9.421037
 20
38.699056
  0
VERTEX
  8
parque_municipal
 10
-9.421049
 20
38.699064
  0
VERTEX
  8
parque_municipal
 10
-9.421056
 20
38.699070
  0
VERTEX
  8
parque_municipal
 10
-9.421073
 20
38.699083
  0
VERTEX
  8
parque_municipal
 10
-9.421086
 20
38.699095
  0
VERTEX
  8
parque_municipal
 10
-9.421117
 20
38.699123
  0
VERTEX
  8
parque_municipal
 10
-9.421164
 20
38.699165
  0
VERTEX
  8
parque_municipal
 10
-9.421200
 20
38.699198
  0
VERTEX
  8
parque_municipal
 10
-9.421260
 20
38.699252
  0
VERTEX
  8
parque_municipal
 10
-9.421330
 20
38.699316
  0
VERTEX
  8
parque_municipal
 10
-9.421416
 20
38.699394
  0
VERTEX
  8
parque_municipal
 10
-9.421451
 20
38.699426
  0
VERTEX
  8
parque_municipal
 10
-9.421521
 20
38.699489
  0
VERTEX
  8
parque_municipal
 10
-9.421586
 20
38.699549
  0
VERTEX
  8
parque_municipal
 10
-9.421628
 20
38.699586
  0
VERTEX
  8
parque_municipal
 10
-9.421672
 20
38.699626
  0
VERTEX
  8
parque_municipal
 10
-9.421688
 20
38.699640
  0
VERTEX
  8
parque_municipal
 10
-9.421689
 20
38.699642
  0
VERTEX
  8
parque_municipal
 10
-9.421692
 20
38.699648
  0
VERTEX
  8
parque_municipal
 10
-9.421692
 20
38.699650
  0
VERTEX
  8
parque_municipal
 10
-9.421692
 20
38.699653
  0
VERTEX
  8
parque_municipal
 10
-9.421692
 20
38.699656
  0
VERTEX
  8
parque_municipal
 10
-9.421690
 20
38.699658
  0
VERTEX
  8
parque_municipal
 10
-9.421688
 20
38.699661
  0
VERTEX
  8
parque_municipal
 10
-9.421673
 20
38.699677
  0
VERTEX
  8
parque_municipal
 10
-9.421652
 20
38.699697
  0
VERTEX
  8
parque_municipal
 10
-9.421612
 20
38.699736
  0
VERTEX
  8
parque_municipal
 10
-9.421595
 20
38.699751
  0
VERTEX
  8
parque_municipal
 10
-9.421575
 20
38.699769
  0
VERTEX
  8
parque_municipal
 10
-9.421560
 20
38.699783
  0
VERTEX
  8
parque_municipal
 10
-9.421534
 20
38.699805
  0
VERTEX
  8
parque_municipal
 10
-9.421519
 20
38.699817
  0
VERTEX
  8
parque_municipal
 10
-9.421506
 20
38.699828
  0
VERTEX
  8
parque_municipal
 10
-9.421502
 20
38.699830
  0
VERTEX
  8
parque_municipal
 10
-9.421488
 20
38.699837
  0
VERTEX
  8
parque_municipal
 10
-9.421479
 20
38.699841
  0
VERTEX
  8
parque_municipal
 10
-9.421468
 20
38.699844
  0
VERTEX
  8
parque_municipal
 10
-9.421448
 20
38.699849
  0
VERTEX
  8
parque_municipal
 10
-9.421438
 20
38.699850
  0
VERTEX
  8
parque_municipal
 10
-9.421418
 20
38.699851
  0
VERTEX
  8
parque_municipal
 10
-9.421396
 20
38.699849
  0
VERTEX
  8
parque_municipal
 10
-9.421373
 20
38.699842
  0
VERTEX
  8
parque_municipal
 10
-9.421346
 20
38.699835
  0
VERTEX
  8
parque_municipal
 10
-9.421316
 20
38.699827
  0
VERTEX
  8
parque_municipal
 10
-9.421309
 20
38.699847
  0
VERTEX
  8
parque_municipal
 10
-9.421303
 20
38.699864
  0
VERTEX
  8
parque_municipal
 10
-9.421296
 20
38.699887
  0
VERTEX
  8
parque_municipal
 10
-9.421310
 20
38.699892
  0
VERTEX
  8
parque_municipal
 10
-9.421316
 20
38.699895
  0
VERTEX
  8
parque_municipal
 10
-9.421323
 20
38.699900
  0
VERTEX
  8
parque_municipal
 10
-9.421328
 20
38.699906
  0
VERTEX
  8
parque_municipal
 10
-9.421333
 20
38.699910
  0
VERTEX
  8
parque_municipal
 10
-9.421336
 20
38.699915
  0
VERTEX
  8
parque_municipal
 10
-9.421339
 20
38.699921
  0
VERTEX
  8
parque_municipal
 10
-9.421342
 20
38.699933
  0
VERTEX
  8
parque_municipal
 10
-9.421342
 20
38.699934
  0
SEQEND
  0
POINT
  8
parque_municipal
  6
BYLAYER
 10
-9.421113
 20
38.699512
 50
0.631783
  0
POLYLINE
  8
parque_municipal
  6
BYLAYER
 66
1
 70
1
 40
0.000000
 41
0.000000
  0
VERTEX
  8
parque_municipal
 10
-9.324355
 20
38.680787
  0
VERTEX
  8
parque_municipal
 10
-9.324355
 20
38.680787
  0
VERTEX
  8
parque_municipal
 10
-9.324342
 20
38.680837
  0
VERTEX
  8
parque_municipal
 10
-9.324341
 20
38.680842
  0
VERTEX
  8
parque_municipal
 10
-9.324336
 20
38.680842
  0
VERTEX
  8
parque_municipal
 10
-9.324306
 20
38.680841
  0
VERTEX
  8
parque_municipal
 10
-9.324294
 20
38.680845
  0
VERTEX
  8
parque_municipal
 10
-9.324285
 20
38.680850
  0
VERTEX
  8
parque_municipal
 10
-9.324278
 20
38.680855
  0
VERTEX
  8
parque_municipal
 10
-9.324270
 20
38.680863
  0
VERTEX
  8
parque_municipal
 10
-9.324265
 20
38.680870
  0
VERTEX
  8
parque_municipal
 10
-9.324260
 20
38.680878
  0
VERTEX
  8
parque_municipal
 10
-9.324258
 20
38.680885
  0
VERTEX
  8
parque_municipal
 10
-9.324256
 20
38.680897
  0
VERTEX
  8
parque_municipal
 10
-9.324250
 20
38.680923
  0
VERTEX
  8
parque_municipal
 10
-9.324245
 20
38.680951
  0
VERTEX
  8
parque_municipal
 10
-9.324243
 20
38.680959
  0
VERTEX
  8
parque_municipal
 10
-9.324242
 20
38.680957
  0
VERTEX
  8
parque_municipal
 10
-9.324193
 20
38.680950
  0
VERTEX
  8
parque_municipal
 10
-9.324156
 20
38.680947
  0
VERTEX
  8
parque_municipal
 10
-9.323780
 20
38.680897
  0
VERTEX
  8
parque_municipal
 10
-9.323549
 20
38.680868
  0
VERTEX
  8
parque_municipal
 10
-9.323546
 20
38.680881
  0
VERTEX
  8
parque_municipal
 10
-9.323503
 20
38.681088
  0
VERTEX
  8
parque_municipal
 10
-9.323500
 20
38.681102
  0
VERTEX
  8
parque_municipal
 10
-9.323613
 20
38.681115
  0
VERTEX
  8
parque_municipal
 10
-9.323838
 20
38.681145
  0
VERTEX
  8
parque_municipal
 10
-9.324071
 20
38.681175
  0
VERTEX
  8
parque_municipal
 10
-9.324108
 20
38.681180
  0
VERTEX
  8
parque_municipal
 10
-9.324192
 20
38.681190
  0
VERTEX
  8
parque_municipal
 10
-9.324192
 20
38.681190
  0
VERTEX
  8
parque_municipal
 10
-9.324191
 20
38.681191
  0
VERTEX
  8
parque_municipal
 10
-9.324190
 20
38.681194
  0
VERTEX
  8
parque_municipal
 10
-9.324174
 20
38.681221
  0
VERTEX
  8
parque_municipal
 10
-9.324160
 20
38.681245
  0
VERTEX
  8
parque_municipal
 10
-9.324154
 20
38.681257
  0
VERTEX
  8
parque_municipal
 10
-9.324148
 20
38.681267
  0
VERTEX
  8
parque_municipal
 10
-9.324146
 20
38.681271
  0
VERTEX
  8
parque_municipal
 10
-9.324144
 20
38.681276
  0
VERTEX
  8
parque_municipal
 10
-9.324144
 20
38.681281
  0
VERTEX
  8
parque_municipal
 10
-9.324144
 20
38.681285
  0
VERTEX
  8
parque_municipal
 10
-9.324145
 20
38.681290
  0
VERTEX
  8
parque_municipal
 10
-9.324147
 20
38.681295
  0
VERTEX
  8
parque_municipal
 10
-9.324149
 20
38.681299
  0
VERTEX
  8
parque_municipal
 10
-9.324152
 20
38.681303
  0
VERTEX
  8
parque_municipal
 10
-9.324156
 20
38.681307
  0
VERTEX
  8
parque_municipal
 10
-9.324160
 20
38.681310
  0
VERTEX
  8
parque_municipal
 10
-9.324165
 20
38.681313
  0
VERTEX
  8
parque_municipal
 10
-9.324168
 20
38.681314
  0
VERTEX
  8
parque_municipal
 10
-9.324200
 20
38.681325
  0
VERTEX
  8
parque_municipal
 10
-9.324189
 20
38.681343
  0
VERTEX
  8
parque_municipal
 10
-9.324188
 20
38.681346
  0
VERTEX
  8
parque_municipal
 10
-9.324175
 20
38.681368
  0
VERTEX
  8
parque_municipal
 10
-9.324173
 20
38.681372
  0
VERTEX
  8
parque_municipal
 10
-9.324165
 20
38.681369
  0
VERTEX
  8
parque_municipal
 10
-9.324140
 20
38.681361
  0
VERTEX
  8
parque_municipal
 10
-9.324112
 20
38.681350
  0
VERTEX
  8
parque_municipal
 10
-9.324101
 20
38.681347
  0
VERTEX
  8
parque_municipal
 10
-9.324101
 20
38.681347
  0
VERTEX
  8
parque_municipal
 10
-9.324095
 20
38.681363
  0
VERTEX
  8
parque_municipal
 10
-9.324064
 20
38.681436
  0
VERTEX
  8
parque_municipal
 10
-9.324037
 20
38.681503
  0
VERTEX
  8
parque_municipal
 10
-9.324012
 20
38.681562
  0
VERTEX
  8
parque_municipal
 10
-9.323986
 20
38.681625
  0
VERTEX
  8
parque_municipal
 10
-9.323973
 20
38.681655
  0
VERTEX
  8
parque_municipal
 10
-9.323966
 20
38.681673
  0
VERTEX
  8
parque_municipal
 10
-9.323962
 20
38.681674
  0
VERTEX
  8
parque_municipal
 10
-9.323961
 20
38.681677
  0
VERTEX
  8
parque_municipal
 10
-9.323943
 20
38.681719
  0
VERTEX
  8
parque_municipal
 10
-9.323925
 20
38.681762
  0
VERTEX
  8
parque_municipal
 10
-9.323922
 20
38.681769
  0
VERTEX
  8
parque_municipal
 10
-9.323915
 20
38.681775
  0
VERTEX
  8
parque_municipal
 10
-9.323893
 20
38.681792
  0
VERTEX
  8
parque_municipal
 10
-9.323869
 20
38.681811
  0
VERTEX
  8
parque_municipal
 10
-9.323845
 20
38.681829
  0
VERTEX
  8
parque_municipal
 10
-9.323832
 20
38.681839
  0
VERTEX
  8
parque_municipal
 10
-9.323826
 20
38.681847
  0
VERTEX
  8
parque_municipal
 10
-9.323762
 20
38.681825
  0
VERTEX
  8
parque_municipal
 10
-9.323722
 20
38.681812
  0
VERTEX
  8
parque_municipal
 10
-9.323689
 20
38.681800
  0
VERTEX
  8
parque_municipal
 10
-9.323664
 20
38.681791
  0
VERTEX
  8
parque_municipal
 10
-9.323625
 20
38.681773
  0
VERTEX
  8
parque_municipal
 10
-9.323599
 20
38.681761
  0
VERTEX
  8
parque_municipal
 10
-9.323574
 20
38.681748
  0
VERTEX
  8
parque_municipal
 10
-9.323547
 20
38.681734
  0
VERTEX
  8
parque_municipal
 10
-9.323516
 20
38.681715
  0
VERTEX
  8
parque_municipal
 10
-9.323491
 20
38.681699
  0
VERTEX
  8
parque_municipal
 10
-9.323468
 20
38.681684
  0
VERTEX
  8
parque_municipal
 10
-9.323441
 20
38.681664
  0
VERTEX
  8
parque_municipal
 10
-9.323414
 20
38.681643
  0
VERTEX
  8
parque_municipal
 10
-9.323395
 20
38.681627
  0
VERTEX
  8
parque_municipal
 10
-9.323381
 20
38.681613
  0
VERTEX
  8
parque_municipal
 10
-9.323362
 20
38.681593
  0
VERTEX
  8
parque_municipal
 10
-9.323344
 20
38.681573
  0
VERTEX
  8
parque_municipal
 10
-9.323327
 20
38.681554
  0
VERTEX
  8
parque_municipal
 10
-9.323315
 20
38.681538
  0
VERTEX
  8
parque_municipal
 10
-9.323302
 20
38.681521
  0
VERTEX
  8
parque_municipal
 10
-9.323288
 20
38.681499
  0
VERTEX
  8
parque_municipal
 10
-9.323273
 20
38.681474
  0
VERTEX
  8
parque_municipal
 10
-9.323256
 20
38.681441
  0
VERTEX
  8
parque_municipal
 10
-9.323245
 20
38.681415
  0
VERTEX
  8
parque_municipal
 10
-9.323239
 20
38.681400
  0
VERTEX
  8
parque_municipal
 10
-9.323230
 20
38.681378
  0
VERTEX
  8
parque_municipal
 10
-9.323224
 20
38.681356
  0
VERTEX
  8
parque_municipal
 10
-9.323216
 20
38.681330
  0
VERTEX
  8
parque_municipal
 10
-9.323209
 20
38.681300
  0
VERTEX
  8
parque_municipal
 10
-9.323206
 20
38.681284
  0
VERTEX
  8
parque_municipal
 10
-9.323203
 20
38.681259
  0
VERTEX
  8
parque_municipal
 10
-9.323201
 20
38.681245
  0
VERTEX
  8
parque_municipal
 10
-9.323199
 20
38.681218
  0
VERTEX
  8
parque_municipal
 10
-9.323198
 20
38.681188
  0
VERTEX
  8
parque_municipal
 10
-9.323198
 20
38.681172
  0
VERTEX
  8
parque_municipal
 10
-9.323199
 20
38.681152
  0
VERTEX
  8
parque_municipal
 10
-9.323201
 20
38.681131
  0
VERTEX
  8
parque_municipal
 10
-9.323204
 20
38.681108
  0
VERTEX
  8
parque_municipal
 10
-9.323206
 20
38.681096
  0
VERTEX
  8
parque_municipal
 10
-9.323211
 20
38.681071
  0
VERTEX
  8
parque_municipal
 10
-9.323213
 20
38.681061
  0
VERTEX
  8
parque_municipal
 10
-9.323218
 20
38.681044
  0
VERTEX
  8
parque_municipal
 10
-9.323229
 20
38.681005
  0
VERTEX
  8
parque_municipal
 10
-9.323236
 20
38.680982
  0
VERTEX
  8
parque_municipal
 10
-9.323242
 20
38.680965
  0
VERTEX
  8
parque_municipal
 10
-9.323252
 20
38.680939
  0
VERTEX
  8
parque_municipal
 10
-9.323266
 20
38.680907
  0
VERTEX
  8
parque_municipal
 10
-9.323291
 20
38.680848
  0
VERTEX
  8
parque_municipal
 10
-9.323336
 20
38.680743
  0
VERTEX
  8
parque_municipal
 10
-9.323373
 20
38.680657
  0
VERTEX
  8
parque_municipal
 10
-9.323413
 20
38.680564
  0
VERTEX
  8
parque_municipal
 10
-9.323440
 20
38.680499
  0
VERTEX
  8
parque_municipal
 10
-9.323454
 20
38.680462
  0
VERTEX
  8
parque_municipal
 10
-9.323470
 20
38.680420
  0
VERTEX
  8
parque_municipal
 10
-9.323485
 20
38.680371
  0
VERTEX
  8
parque_municipal
 10
-9.323506
 20
38.680308
  0
VERTEX
  8
parque_municipal
 10
-9.323517
 20
38.680268
  0
VERTEX
  8
parque_municipal
 10
-9.323539
 20
38.680197
  0
VERTEX
  8
parque_municipal
 10
-9.323561
 20
38.680126
  0
VERTEX
  8
parque_municipal
 10
-9.323586
 20
38.680036
  0
VERTEX
  8
parque_municipal
 10
-9.323604
 20
38.680039
  0
VERTEX
  8
parque_municipal
 10
-9.323624
 20
38.680044
  0
VERTEX
  8
parque_municipal
 10
-9.323618
 20
38.680063
  0
VERTEX
  8
parque_municipal
 10
-9.323653
 20
38.680073
  0
VERTEX
  8
parque_municipal
 10
-9.323692
 20
38.680084
  0
VERTEX
  8
parque_municipal
 10
-9.323709
 20
38.680055
  0
VERTEX
  8
parque_municipal
 10
-9.324036
 20
38.680099
  0
VERTEX
  8
parque_municipal
 10
-9.324161
 20
38.680116
  0
VERTEX
  8
parque_municipal
 10
-9.324250
 20
38.680127
  0
VERTEX
  8
parque_municipal
 10
-9.324590
 20
38.680173
  0
VERTEX
  8
parque_municipal
 10
-9.324703
 20
38.680188
  0
VERTEX
  8
parque_municipal
 10
-9.324884
 20
38.680212
  0
VERTEX
  8
parque_municipal
 10
-9.325170
 20
38.680250
  0
VERTEX
  8
parque_municipal
 10
-9.325166
 20
38.680277
  0
VERTEX
  8
parque_municipal
 10
-9.325162
 20
38.680294
  0
VERTEX
  8
parque_municipal
 10
-9.325068
 20
38.680750
  0
VERTEX
  8
parque_municipal
 10
-9.325065
 20
38.680765
  0
VERTEX
  8
parque_municipal
 10
-9.325052
 20
38.680823
  0
VERTEX
  8
parque_municipal
 10
-9.325043
 20
38.680822
  0
VERTEX
  8
parque_municipal
 10
-9.324945
 20
38.680810
  0
VERTEX
  8
parque_municipal
 10
-9.324936
 20
38.680855
  0
VERTEX
  8
parque_municipal
 10
-9.324934
 20
38.680861
  0
VERTEX
  8
parque_municipal
 10
-9.324839
 20
38.680849
  0
VERTEX
  8
parque_municipal
 10
-9.324742
 20
38.680837
  0
VERTEX
  8
parque_municipal
 10
-9.324646
 20
38.680825
  0
VERTEX
  8
parque_municipal
 10
-9.324550
 20
38.680812
  0
VERTEX
  8
parque_municipal
 10
-9.324453
 20
38.680800
  0
VERTEX
  8
parque_municipal
 10
-9.324355
 20
38.680787
  0
SEQEND
  0
POINT
  8
parque_municipal
  6
BYLAYER
 10
-9.324034
 20
38.680780
 50
0.000000
  0
POLYLINE
  8
parque_municipal
  6
BYLAYER
 66
1
 70
1
 40
0.000000
 41
0.000000
  0
VERTEX
  8
parque_municipal
 10
-9.336957
 20
38.693908
  0
VERTEX
  8
parque_municipal
 10
-9.337007
 20
38.693798
  0
VERTEX
  8
parque_municipal
 10
-9.337040
 20
38.693727
  0
VERTEX
  8
parque_municipal
 10
-9.337083
 20
38.693604
  0
VERTEX
  8
parque_municipal
 10
-9.337170
 20
38.693305
  0
VERTEX
  8
parque_municipal
 10
-9.337209
 20
38.693152
  0
VERTEX
  8
parque_municipal
 10
-9.337543
 20
38.693210
  0
VERTEX
  8
parque_municipal
 10
-9.337508
 20
38.693294
  0
VERTEX
  8
parque_municipal
 10
-9.337489
 20
38.693341
  0
VERTEX
  8
parque_municipal
 10
-9.337455
 20
38.693422
  0
VERTEX
  8
parque_municipal
 10
-9.337469
 20
38.693438
  0
VERTEX
  8
parque_municipal
 10
-9.337490
 20
38.693443
  0
VERTEX
  8
parque_municipal
 10
-9.337498
 20
38.693444
  0
VERTEX
  8
parque_municipal
 10
-9.337517
 20
38.693454
  0
VERTEX
  8
parque_municipal
 10
-9.337559
 20
38.693462
  0
VERTEX
  8
parque_municipal
 10
-9.337679
 20
38.693486
  0
VERTEX
  8
parque_municipal
 10
-9.337692
 20
38.693486
  0
VERTEX
  8
parque_municipal
 10
-9.337802
 20
38.693443
  0
VERTEX
  8
parque_municipal
 10
-9.337920
 20
38.693411
  0
VERTEX
  8
parque_municipal
 10
-9.338536
 20
38.693513
  0
VERTEX
  8
parque_municipal
 10
-9.338683
 20
38.693539
  0
VERTEX
  8
parque_municipal
 10
-9.339029
 20
38.693605
  0
VERTEX
  8
parque_municipal
 10
-9.339177
 20
38.693117
  0
VERTEX
  8
parque_municipal
 10
-9.339180
 20
38.693090
  0
VERTEX
  8
parque_municipal
 10
-9.339318
 20
38.693097
  0
VERTEX
  8
parque_municipal
 10
-9.340028
 20
38.693132
  0
VERTEX
  8
parque_municipal
 10
-9.340028
 20
38.693146
  0
VERTEX
  8
parque_municipal
 10
-9.340027
 20
38.693166
  0
VERTEX
  8
parque_municipal
 10
-9.340070
 20
38.693166
  0
VERTEX
  8
parque_municipal
 10
-9.340075
 20
38.693523
  0
VERTEX
  8
parque_municipal
 10
-9.340075
 20
38.693558
  0
VERTEX
  8
parque_municipal
 10
-9.340066
 20
38.693652
  0
VERTEX
  8
parque_municipal
 10
-9.340029
 20
38.693818
  0
VERTEX
  8
parque_municipal
 10
-9.339989
 20
38.694171
  0
VERTEX
  8
parque_municipal
 10
-9.339960
 20
38.694364
  0
VERTEX
  8
parque_municipal
 10
-9.339955
 20
38.694396
  0
VERTEX
  8
parque_municipal
 10
-9.339952
 20
38.694409
  0
VERTEX
  8
parque_municipal
 10
-9.339754
 20
38.694386
  0
VERTEX
  8
parque_municipal
 10
-9.338480
 20
38.694252
  0
VERTEX
  8
parque_municipal
 10
-9.338441
 20
38.694250
  0
VERTEX
  8
parque_municipal
 10
-9.338424
 20
38.694248
  0
VERTEX
  8
parque_municipal
 10
-9.338383
 20
38.694381
  0
VERTEX
  8
parque_municipal
 10
-9.338351
 20
38.694486
  0
VERTEX
  8
parque_municipal
 10
-9.338326
 20
38.694565
  0
VERTEX
  8
parque_municipal
 10
-9.338287
 20
38.694671
  0
VERTEX
  8
parque_municipal
 10
-9.338271
 20
38.694713
  0
VERTEX
  8
parque_municipal
 10
-9.338269
 20
38.694714
  0
VERTEX
  8
parque_municipal
 10
-9.338266
 20
38.694715
  0
VERTEX
  8
parque_municipal
 10
-9.337958
 20
38.694640
  0
VERTEX
  8
parque_municipal
 10
-9.337524
 20
38.694537
  0
VERTEX
  8
parque_municipal
 10
-9.337525
 20
38.694534
  0
VERTEX
  8
parque_municipal
 10
-9.337540
 20
38.694495
  0
VERTEX
  8
parque_municipal
 10
-9.337425
 20
38.694468
  0
VERTEX
  8
parque_municipal
 10
-9.337410
 20
38.694506
  0
VERTEX
  8
parque_municipal
 10
-9.337409
 20
38.694509
  0
VERTEX
  8
parque_municipal
 10
-9.337382
 20
38.694502
  0
VERTEX
  8
parque_municipal
 10
-9.337342
 20
38.694493
  0
VERTEX
  8
parque_municipal
 10
-9.337240
 20
38.694467
  0
VERTEX
  8
parque_municipal
 10
-9.337123
 20
38.694437
  0
VERTEX
  8
parque_municipal
 10
-9.337046
 20
38.694417
  0
VERTEX
  8
parque_municipal
 10
-9.337027
 20
38.694410
  0
VERTEX
  8
parque_municipal
 10
-9.336873
 20
38.694355
  0
VERTEX
  8
parque_municipal
 10
-9.336905
 20
38.694306
  0
VERTEX
  8
parque_municipal
 10
-9.336998
 20
38.694122
  0
VERTEX
  8
parque_municipal
 10
-9.337005
 20
38.694120
  0
VERTEX
  8
parque_municipal
 10
-9.336961
 20
38.694040
  0
VERTEX
  8
parque_municipal
 10
-9.336957
 20
38.693908
  0
SEQEND
  0
POINT
  8
parque_municipal
  6
BYLAYER
 10
-9.338521
 20
38.693881
 50
0.000000
  0
POLYLINE
  8
parque_municipal
  6
BYLAYER
 66
1
 70
1
 40
0.000000
 41
0.000000
  0
VERTEX
  8
parque_municipal
 10
-9.355997
 20
38.688726
  0
VERTEX
  8
parque_municipal
 10
-9.355962
 20
38.688726
  0
VERTEX
  8
parque_municipal
 10
-9.355908
 20
38.688727
  0
VERTEX
  8
parque_municipal
 10
-9.355839
 20
38.688727
  0
VERTEX
  8
parque_municipal
 10
-9.355798
 20
38.688728
  0
VERTEX
  8
parque_municipal
 10
-9.355761
 20
38.688728
  0
VERTEX
  8
parque_municipal
 10
-9.355717
 20
38.688729
  0
VERTEX
  8
parque_municipal
 10
-9.355672
 20
38.688729
  0
VERTEX
  8
parque_municipal
 10
-9.355631
 20
38.688729
  0
VERTEX
  8
parque_municipal
 10
-9.355616
 20
38.688730
  0
VERTEX
  8
parque_municipal
 10
-9.355617
 20
38.688718
  0
VERTEX
  8
parque_municipal
 10
-9.355617
 20
38.688697
  0
VERTEX
  8
parque_municipal
 10
-9.355619
 20
38.688647
  0
VERTEX
  8
parque_municipal
 10
-9.355620
 20
38.688611
  0
VERTEX
  8
parque_municipal
 10
-9.355620
 20
38.688597
  0
VERTEX
  8
parque_municipal
 10
-9.355621
 20
38.688558
  0
VERTEX
  8
parque_municipal
 10
-9.355622
 20
38.688522
  0
VERTEX
  8
parque_municipal
 10
-9.355623
 20
38.688492
  0
VERTEX
  8
parque_municipal
 10
-9.355624
 20
38.688483
  0
VERTEX
  8
parque_municipal
 10
-9.355623
 20
38.688469
  0
VERTEX
  8
parque_municipal
 10
-9.355623
 20
38.688452
  0
VERTEX
  8
parque_municipal
 10
-9.355623
 20
38.688444
  0
VERTEX
  8
parque_municipal
 10
-9.355622
 20
38.688440
  0
VERTEX
  8
parque_municipal
 10
-9.355618
 20
38.688403
  0
VERTEX
  8
parque_municipal
 10
-9.355614
 20
38.688361
  0
VERTEX
  8
parque_municipal
 10
-9.355610
 20
38.688321
  0
VERTEX
  8
parque_municipal
 10
-9.355607
 20
38.688293
  0
VERTEX
  8
parque_municipal
 10
-9.355606
 20
38.688275
  0
VERTEX
  8
parque_municipal
 10
-9.355603
 20
38.688246
  0
VERTEX
  8
parque_municipal
 10
-9.355601
 20
38.688223
  0
VERTEX
  8
parque_municipal
 10
-9.355599
 20
38.688210
  0
VERTEX
  8
parque_municipal
 10
-9.355598
 20
38.688195
  0
VERTEX
  8
parque_municipal
 10
-9.355595
 20
38.688168
  0
VERTEX
  8
parque_municipal
 10
-9.355613
 20
38.688169
  0
VERTEX
  8
parque_municipal
 10
-9.355639
 20
38.688170
  0
VERTEX
  8
parque_municipal
 10
-9.355686
 20
38.688172
  0
VERTEX
  8
parque_municipal
 10
-9.355714
 20
38.688173
  0
VERTEX
  8
parque_municipal
 10
-9.355741
 20
38.688174
  0
VERTEX
  8
parque_municipal
 10
-9.355769
 20
38.688174
  0
VERTEX
  8
parque_municipal
 10
-9.355783
 20
38.688175
  0
VERTEX
  8
parque_municipal
 10
-9.355797
 20
38.688175
  0
VERTEX
  8
parque_municipal
 10
-9.355831
 20
38.688177
  0
VERTEX
  8
parque_municipal
 10
-9.355877
 20
38.688180
  0
VERTEX
  8
parque_municipal
 10
-9.355909
 20
38.688182
  0
VERTEX
  8
parque_municipal
 10
-9.355928
 20
38.688183
  0
VERTEX
  8
parque_municipal
 10
-9.355961
 20
38.688184
  0
VERTEX
  8
parque_municipal
 10
-9.355990
 20
38.688184
  0
VERTEX
  8
parque_municipal
 10
-9.356018
 20
38.688185
  0
VERTEX
  8
parque_municipal
 10
-9.356027
 20
38.688185
  0
VERTEX
  8
parque_municipal
 10
-9.356027
 20
38.688185
  0
VERTEX
  8
parque_municipal
 10
-9.356028
 20
38.688166
  0
VERTEX
  8
parque_municipal
 10
-9.356028
 20
38.688146
  0
VERTEX
  8
parque_municipal
 10
-9.356028
 20
38.688140
  0
VERTEX
  8
parque_municipal
 10
-9.356031
 20
38.688110
  0
VERTEX
  8
parque_municipal
 10
-9.356035
 20
38.688068
  0
VERTEX
  8
parque_municipal
 10
-9.356038
 20
38.688035
  0
VERTEX
  8
parque_municipal
 10
-9.356040
 20
38.688019
  0
VERTEX
  8
parque_municipal
 10
-9.356047
 20
38.687975
  0
VERTEX
  8
parque_municipal
 10
-9.356050
 20
38.687945
  0
VERTEX
  8
parque_municipal
 10
-9.356054
 20
38.687945
  0
VERTEX
  8
parque_municipal
 10
-9.356099
 20
38.687949
  0
VERTEX
  8
parque_municipal
 10
-9.356129
 20
38.687952
  0
VERTEX
  8
parque_municipal
 10
-9.356170
 20
38.687955
  0
VERTEX
  8
parque_municipal
 10
-9.356220
 20
38.687959
  0
VERTEX
  8
parque_municipal
 10
-9.356244
 20
38.687962
  0
VERTEX
  8
parque_municipal
 10
-9.356277
 20
38.687964
  0
VERTEX
  8
parque_municipal
 10
-9.356308
 20
38.687967
  0
VERTEX
  8
parque_municipal
 10
-9.356347
 20
38.687970
  0
VERTEX
  8
parque_municipal
 10
-9.356379
 20
38.687973
  0
VERTEX
  8
parque_municipal
 10
-9.356411
 20
38.687976
  0
VERTEX
  8
parque_municipal
 10
-9.356447
 20
38.687979
  0
VERTEX
  8
parque_municipal
 10
-9.356486
 20
38.687982
  0
VERTEX
  8
parque_municipal
 10
-9.356537
 20
38.687987
  0
VERTEX
  8
parque_municipal
 10
-9.356568
 20
38.687990
  0
VERTEX
  8
parque_municipal
 10
-9.356596
 20
38.687992
  0
VERTEX
  8
parque_municipal
 10
-9.356601
 20
38.687993
  0
VERTEX
  8
parque_municipal
 10
-9.356607
 20
38.687995
  0
VERTEX
  8
parque_municipal
 10
-9.356611
 20
38.687997
  0
VERTEX
  8
parque_municipal
 10
-9.356615
 20
38.688000
  0
VERTEX
  8
parque_municipal
 10
-9.356618
 20
38.688004
  0
VERTEX
  8
parque_municipal
 10
-9.356621
 20
38.688007
  0
VERTEX
  8
parque_municipal
 10
-9.356623
 20
38.688011
  0
VERTEX
  8
parque_municipal
 10
-9.356625
 20
38.688019
  0
VERTEX
  8
parque_municipal
 10
-9.356625
 20
38.688020
  0
VERTEX
  8
parque_municipal
 10
-9.356625
 20
38.688033
  0
VERTEX
  8
parque_municipal
 10
-9.356625
 20
38.688068
  0
VERTEX
  8
parque_municipal
 10
-9.356626
 20
38.688111
  0
VERTEX
  8
parque_municipal
 10
-9.356626
 20
38.688144
  0
VERTEX
  8
parque_municipal
 10
-9.356626
 20
38.688165
  0
VERTEX
  8
parque_municipal
 10
-9.356626
 20
38.688186
  0
VERTEX
  8
parque_municipal
 10
-9.356626
 20
38.688214
  0
VERTEX
  8
parque_municipal
 10
-9.356627
 20
38.688232
  0
VERTEX
  8
parque_municipal
 10
-9.356628
 20
38.688280
  0
VERTEX
  8
parque_municipal
 10
-9.356630
 20
38.688332
  0
VERTEX
  8
parque_municipal
 10
-9.356631
 20
38.688370
  0
VERTEX
  8
parque_municipal
 10
-9.356632
 20
38.688400
  0
VERTEX
  8
parque_municipal
 10
-9.356633
 20
38.688424
  0
VERTEX
  8
parque_municipal
 10
-9.356632
 20
38.688440
  0
VERTEX
  8
parque_municipal
 10
-9.356631
 20
38.688469
  0
VERTEX
  8
parque_municipal
 10
-9.356629
 20
38.688494
  0
VERTEX
  8
parque_municipal
 10
-9.356626
 20
38.688541
  0
VERTEX
  8
parque_municipal
 10
-9.356623
 20
38.688579
  0
VERTEX
  8
parque_municipal
 10
-9.356621
 20
38.688613
  0
VERTEX
  8
parque_municipal
 10
-9.356620
 20
38.688633
  0
VERTEX
  8
parque_municipal
 10
-9.356618
 20
38.688659
  0
VERTEX
  8
parque_municipal
 10
-9.356616
 20
38.688687
  0
VERTEX
  8
parque_municipal
 10
-9.356614
 20
38.688714
  0
VERTEX
  8
parque_municipal
 10
-9.356613
 20
38.688734
  0
VERTEX
  8
parque_municipal
 10
-9.356612
 20
38.688749
  0
VERTEX
  8
parque_municipal
 10
-9.356587
 20
38.688750
  0
VERTEX
  8
parque_municipal
 10
-9.356534
 20
38.688751
  0
VERTEX
  8
parque_municipal
 10
-9.356501
 20
38.688752
  0
VERTEX
  8
parque_municipal
 10
-9.356474
 20
38.688752
  0
VERTEX
  8
parque_municipal
 10
-9.356401
 20
38.688753
  0
VERTEX
  8
parque_municipal
 10
-9.356339
 20
38.688753
  0
VERTEX
  8
parque_municipal
 10
-9.356316
 20
38.688753
  0
VERTEX
  8
parque_municipal
 10
-9.356311
 20
38.688753
  0
VERTEX
  8
parque_municipal
 10
-9.356302
 20
38.688753
  0
VERTEX
  8
parque_municipal
 10
-9.356301
 20
38.688712
  0
VERTEX
  8
parque_municipal
 10
-9.356272
 20
38.688712
  0
VERTEX
  8
parque_municipal
 10
-9.356213
 20
38.688711
  0
VERTEX
  8
parque_municipal
 10
-9.356149
 20
38.688711
  0
VERTEX
  8
parque_municipal
 10
-9.356102
 20
38.688711
  0
VERTEX
  8
parque_municipal
 10
-9.356055
 20
38.688711
  0
VERTEX
  8
parque_municipal
 10
-9.356049
 20
38.688711
  0
VERTEX
  8
parque_municipal
 10
-9.356049
 20
38.688725
  0
VERTEX
  8
parque_municipal
 10
-9.355997
 20
38.688726
  0
SEQEND
  0
POINT
  8
parque_municipal
  6
BYLAYER
 10
-9.356159
 20
38.688385
 50
0.599895
  0
POLYLINE
  8
parque_municipal
  6
BYLAYER
 66
1
 70
1
 40
0.000000
 41
0.000000
  0
VERTEX
  8
parque_municipal
 10
-9.404781
 20
38.710721
  0
VERTEX
  8
parque_municipal
 10
-9.404743
 20
38.710658
  0
VERTEX
  8
parque_municipal
 10
-9.404720
 20
38.710614
  0
VERTEX
  8
parque_municipal
 10
-9.404700
 20
38.710570
  0
VERTEX
  8
parque_municipal
 10
-9.404681
 20
38.710525
  0
VERTEX
  8
parque_municipal
 10
-9.404673
 20
38.710503
  0
VERTEX
  8
parque_municipal
 10
-9.404659
 20
38.710447
  0
VERTEX
  8
parque_municipal
 10
-9.404652
 20
38.710410
  0
VERTEX
  8
parque_municipal
 10
-9.404645
 20
38.710354
  0
VERTEX
  8
parque_municipal
 10
-9.404642
 20
38.710317
  0
VERTEX
  8
parque_municipal
 10
-9.404641
 20
38.710298
  0
VERTEX
  8
parque_municipal
 10
-9.404662
 20
38.710147
  0
VERTEX
  8
parque_municipal
 10
-9.404697
 20
38.709783
  0
VERTEX
  8
parque_municipal
 10
-9.404722
 20
38.709516
  0
VERTEX
  8
parque_municipal
 10
-9.404725
 20
38.709514
  0
VERTEX
  8
parque_municipal
 10
-9.404727
 20
38.709512
  0
VERTEX
  8
parque_municipal
 10
-9.404729
 20
38.709511
  0
VERTEX
  8
parque_municipal
 10
-9.404731
 20
38.709510
  0
VERTEX
  8
parque_municipal
 10
-9.404733
 20
38.709508
  0
VERTEX
  8
parque_municipal
 10
-9.404735
 20
38.709507
  0
VERTEX
  8
parque_municipal
 10
-9.404737
 20
38.709506
  0
VERTEX
  8
parque_municipal
 10
-9.404740
 20
38.709505
  0
VERTEX
  8
parque_municipal
 10
-9.404742
 20
38.709504
  0
VERTEX
  8
parque_municipal
 10
-9.404744
 20
38.709503
  0
VERTEX
  8
parque_municipal
 10
-9.404747
 20
38.709502
  0
VERTEX
  8
parque_municipal
 10
-9.404749
 20
38.709502
  0
VERTEX
  8
parque_municipal
 10
-9.404752
 20
38.709501
  0
VERTEX
  8
parque_municipal
 10
-9.404754
 20
38.709500
  0
VERTEX
  8
parque_municipal
 10
-9.404757
 20
38.709500
  0
VERTEX
  8
parque_municipal
 10
-9.404759
 20
38.709500
  0
VERTEX
  8
parque_municipal
 10
-9.404803
 20
38.709493
  0
VERTEX
  8
parque_municipal
 10
-9.405284
 20
38.709434
  0
VERTEX
  8
parque_municipal
 10
-9.405286
 20
38.709472
  0
VERTEX
  8
parque_municipal
 10
-9.405317
 20
38.709639
  0
VERTEX
  8
parque_municipal
 10
-9.405328
 20
38.709702
  0
VERTEX
  8
parque_municipal
 10
-9.405333
 20
38.709729
  0
VERTEX
  8
parque_municipal
 10
-9.405339
 20
38.709761
  0
VERTEX
  8
parque_municipal
 10
-9.405358
 20
38.709884
  0
VERTEX
  8
parque_municipal
 10
-9.405360
 20
38.709892
  0
VERTEX
  8
parque_municipal
 10
-9.405382
 20
38.710037
  0
VERTEX
  8
parque_municipal
 10
-9.405370
 20
38.710039
  0
VERTEX
  8
parque_municipal
 10
-9.405355
 20
38.710040
  0
VERTEX
  8
parque_municipal
 10
-9.405309
 20
38.710045
  0
VERTEX
  8
parque_municipal
 10
-9.405307
 20
38.710030
  0
VERTEX
  8
parque_municipal
 10
-9.405260
 20
38.710035
  0
VERTEX
  8
parque_municipal
 10
-9.405263
 20
38.710050
  0
VERTEX
  8
parque_municipal
 10
-9.405211
 20
38.710055
  0
VERTEX
  8
parque_municipal
 10
-9.405207
 20
38.710034
  0
VERTEX
  8
parque_municipal
 10
-9.405145
 20
38.710041
  0
VERTEX
  8
parque_municipal
 10
-9.405135
 20
38.710042
  0
VERTEX
  8
parque_municipal
 10
-9.405139
 20
38.710063
  0
VERTEX
  8
parque_municipal
 10
-9.405128
 20
38.710064
  0
VERTEX
  8
parque_municipal
 10
-9.405100
 20
38.710067
  0
VERTEX
  8
parque_municipal
 10
-9.405114
 20
38.710149
  0
VERTEX
  8
parque_municipal
 10
-9.405117
 20
38.710148
  0
VERTEX
  8
parque_municipal
 10
-9.405129
 20
38.710219
  0
VERTEX
  8
parque_municipal
 10
-9.405159
 20
38.710216
  0
VERTEX
  8
parque_municipal
 10
-9.405161
 20
38.710228
  0
VERTEX
  8
parque_municipal
 10
-9.405179
 20
38.710226
  0
VERTEX
  8
parque_municipal
 10
-9.405250
 20
38.710219
  0
VERTEX
  8
parque_municipal
 10
-9.405232
 20
38.710113
  0
VERTEX
  8
parque_municipal
 10
-9.405273
 20
38.710109
  0
VERTEX
  8
parque_municipal
 10
-9.405299
 20
38.710107
  0
VERTEX
  8
parque_municipal
 10
-9.405365
 20
38.710100
  0
VERTEX
  8
parque_municipal
 10
-9.405380
 20
38.710098
  0
VERTEX
  8
parque_municipal
 10
-9.405393
 20
38.710097
  0
VERTEX
  8
parque_municipal
 10
-9.405414
 20
38.710234
  0
VERTEX
  8
parque_municipal
 10
-9.405430
 20
38.710337
  0
VERTEX
  8
parque_municipal
 10
-9.405432
 20
38.710354
  0
VERTEX
  8
parque_municipal
 10
-9.405452
 20
38.710484
  0
VERTEX
  8
parque_municipal
 10
-9.405448
 20
38.710484
  0
VERTEX
  8
parque_municipal
 10
-9.405438
 20
38.710485
  0
VERTEX
  8
parque_municipal
 10
-9.405416
 20
38.710487
  0
VERTEX
  8
parque_municipal
 10
-9.405364
 20
38.710492
  0
VERTEX
  8
parque_municipal
 10
-9.405338
 20
38.710495
  0
VERTEX
  8
parque_municipal
 10
-9.405335
 20
38.710495
  0
VERTEX
  8
parque_municipal
 10
-9.405337
 20
38.710504
  0
VERTEX
  8
parque_municipal
 10
-9.405349
 20
38.710586
  0
VERTEX
  8
parque_municipal
 10
-9.405360
 20
38.710585
  0
VERTEX
  8
parque_municipal
 10
-9.405391
 20
38.710582
  0
VERTEX
  8
parque_municipal
 10
-9.405392
 20
38.710614
  0
VERTEX
  8
parque_municipal
 10
-9.405471
 20
38.710607
  0
VERTEX
  8
parque_municipal
 10
-9.405539
 20
38.711038
  0
VERTEX
  8
parque_municipal
 10
-9.405562
 20
38.711185
  0
VERTEX
  8
parque_municipal
 10
-9.405632
 20
38.711656
  0
VERTEX
  8
parque_municipal
 10
-9.405495
 20
38.711672
  0
VERTEX
  8
parque_municipal
 10
-9.405494
 20
38.711673
  0
VERTEX
  8
parque_municipal
 10
-9.405449
 20
38.711643
  0
VERTEX
  8
parque_municipal
 10
-9.405449
 20
38.711629
  0
VERTEX
  8
parque_municipal
 10
-9.405423
 20
38.711608
  0
VERTEX
  8
parque_municipal
 10
-9.405218
 20
38.711573
  0
VERTEX
  8
parque_municipal
 10
-9.405016
 20
38.711541
  0
VERTEX
  8
parque_municipal
 10
-9.405017
 20
38.711434
  0
VERTEX
  8
parque_municipal
 10
-9.405009
 20
38.711296
  0
VERTEX
  8
parque_municipal
 10
-9.405004
 20
38.711267
  0
VERTEX
  8
parque_municipal
 10
-9.404993
 20
38.711205
  0
VERTEX
  8
parque_municipal
 10
-9.404983
 20
38.711167
  0
VERTEX
  8
parque_municipal
 10
-9.404971
 20
38.711123
  0
VERTEX
  8
parque_municipal
 10
-9.404944
 20
38.711045
  0
VERTEX
  8
parque_municipal
 10
-9.404898
 20
38.710917
  0
VERTEX
  8
parque_municipal
 10
-9.404805
 20
38.710756
  0
VERTEX
  8
parque_municipal
 10
-9.404781
 20
38.710721
  0
SEQEND
  0
POINT
  8
parque_municipal
  6
BYLAYER
 10
-9.405120
 20
38.710522
 50
0.623997
  0
POLYLINE
  8
parque_municipal
  6
BYLAYER
 66
1
 70
1
 40
0.000000
 41
0.000000
  0
VERTEX
  8
parque_municipal
 10
-9.388102
 20
38.704725
  0
VERTEX
  8
parque_municipal
 10
-9.388203
 20
38.704697
  0
VERTEX
  8
parque_municipal
 10
-9.388324
 20
38.705065
  0
VERTEX
  8
parque_municipal
 10
-9.388044
 20
38.705148
  0
VERTEX
  8
parque_municipal
 10
-9.387887
 20
38.704790
  0
VERTEX
  8
parque_municipal
 10
-9.387470
 20
38.704932
  0
VERTEX
  8
parque_municipal
 10
-9.387470
 20
38.704774
  0
VERTEX
  8
parque_municipal
 10
-9.387472
 20
38.704748
  0
VERTEX
  8
parque_municipal
 10
-9.387480
 20
38.704527
  0
VERTEX
  8
parque_municipal
 10
-9.387498
 20
38.704506
  0
VERTEX
  8
parque_municipal
 10
-9.387508
 20
38.704496
  0
VERTEX
  8
parque_municipal
 10
-9.387523
 20
38.704490
  0
VERTEX
  8
parque_municipal
 10
-9.387916
 20
38.704374
  0
VERTEX
  8
parque_municipal
 10
-9.388102
 20
38.704725
  0
SEQEND
  0
POINT
  8
parque_municipal
  6
BYLAYER
 10
-9.387873
 20
38.704743
 50
0.615515
  0
POLYLINE
  8
parque_municipal
  6
BYLAYER
 66
1
 70
1
 40
0.000000
 41
0.000000
  0
VERTEX
  8
parque_municipal
 10
-9.384952
 20
38.716731
  0
VERTEX
  8
parque_municipal
 10
-9.384930
 20
38.716640
  0
VERTEX
  8
parque_municipal
 10
-9.384914
 20
38.716574
  0
VERTEX
  8
parque_municipal
 10
-9.384890
 20
38.716463
  0
VERTEX
  8
parque_municipal
 10
-9.384861
 20
38.716348
  0
VERTEX
  8
parque_municipal
 10
-9.384674
 20
38.715770
  0
VERTEX
  8
parque_municipal
 10
-9.384598
 20
38.715539
  0
VERTEX
  8
parque_municipal
 10
-9.384471
 20
38.715291
  0
VERTEX
  8
parque_municipal
 10
-9.384362
 20
38.715070
  0
VERTEX
  8
parque_municipal
 10
-9.384294
 20
38.714971
  0
VERTEX
  8
parque_municipal
 10
-9.384118
 20
38.714778
  0
VERTEX
  8
parque_municipal
 10
-9.383987
 20
38.714664
  0
VERTEX
  8
parque_municipal
 10
-9.383862
 20
38.714553
  0
VERTEX
  8
parque_municipal
 10
-9.383811
 20
38.714430
  0
VERTEX
  8
parque_municipal
 10
-9.383773
 20
38.714271
  0
VERTEX
  8
parque_municipal
 10
-9.383528
 20
38.714293
  0
VERTEX
  8
parque_municipal
 10
-9.383464
 20
38.714242
  0
VERTEX
  8
parque_municipal
 10
-9.383086
 20
38.714468
  0
VERTEX
  8
parque_municipal
 10
-9.383088
 20
38.714372
  0
VERTEX
  8
parque_municipal
 10
-9.382763
 20
38.714403
  0
VERTEX
  8
parque_municipal
 10
-9.382468
 20
38.714420
  0
VERTEX
  8
parque_municipal
 10
-9.382135
 20
38.714418
  0
VERTEX
  8
parque_municipal
 10
-9.381760
 20
38.714425
  0
VERTEX
  8
parque_municipal
 10
-9.381651
 20
38.714426
  0
VERTEX
  8
parque_municipal
 10
-9.381631
 20
38.714326
  0
VERTEX
  8
parque_municipal
 10
-9.381629
 20
38.714222
  0
VERTEX
  8
parque_municipal
 10
-9.381628
 20
38.714159
  0
VERTEX
  8
parque_municipal
 10
-9.381726
 20
38.714153
  0
VERTEX
  8
parque_municipal
 10
-9.381934
 20
38.714144
  0
VERTEX
  8
parque_municipal
 10
-9.381987
 20
38.714142
  0
VERTEX
  8
parque_municipal
 10
-9.382243
 20
38.714137
  0
VERTEX
  8
parque_municipal
 10
-9.382334
 20
38.714130
  0
VERTEX
  8
parque_municipal
 10
-9.382638
 20
38.714102
  0
VERTEX
  8
parque_municipal
 10
-9.383100
 20
38.714053
  0
VERTEX
  8
parque_municipal
 10
-9.383390
 20
38.714023
  0
VERTEX
  8
parque_municipal
 10
-9.383981
 20
38.713950
  0
VERTEX
  8
parque_municipal
 10
-9.384107
 20
38.713935
  0
VERTEX
  8
parque_municipal
 10
-9.384142
 20
38.713932
  0
VERTEX
  8
parque_municipal
 10
-9.384172
 20
38.714023
  0
VERTEX
  8
parque_municipal
 10
-9.384230
 20
38.714118
  0
VERTEX
  8
parque_municipal
 10
-9.384326
 20
38.714238
  0
VERTEX
  8
parque_municipal
 10
-9.384515
 20
38.714392
  0
VERTEX
  8
parque_municipal
 10
-9.384714
 20
38.714547
  0
VERTEX
  8
parque_municipal
 10
-9.384835
 20
38.714650
  0
VERTEX
  8
parque_municipal
 10
-9.384969
 20
38.714731
  0
VERTEX
  8
parque_municipal
 10
-9.385098
 20
38.714842
  0
VERTEX
  8
parque_municipal
 10
-9.385188
 20
38.714989
  0
VERTEX
  8
parque_municipal
 10
-9.385246
 20
38.715137
  0
VERTEX
  8
parque_municipal
 10
-9.385246
 20
38.715307
  0
VERTEX
  8
parque_municipal
 10
-9.385207
 20
38.715492
  0
VERTEX
  8
parque_municipal
 10
-9.385147
 20
38.715646
  0
VERTEX
  8
parque_municipal
 10
-9.385093
 20
38.715767
  0
VERTEX
  8
parque_municipal
 10
-9.385074
 20
38.715886
  0
VERTEX
  8
parque_municipal
 10
-9.385079
 20
38.715990
  0
VERTEX
  8
parque_municipal
 10
-9.385119
 20
38.716072
  0
VERTEX
  8
parque_municipal
 10
-9.385176
 20
38.716140
  0
VERTEX
  8
parque_municipal
 10
-9.385251
 20
38.716200
  0
VERTEX
  8
parque_municipal
 10
-9.385322
 20
38.716240
  0
VERTEX
  8
parque_municipal
 10
-9.385428
 20
38.716294
  0
VERTEX
  8
parque_municipal
 10
-9.385527
 20
38.716364
  0
VERTEX
  8
parque_municipal
 10
-9.385574
 20
38.716449
  0
VERTEX
  8
parque_municipal
 10
-9.385594
 20
38.716572
  0
VERTEX
  8
parque_municipal
 10
-9.385575
 20
38.716715
  0
VERTEX
  8
parque_municipal
 10
-9.385559
 20
38.716792
  0
VERTEX
  8
parque_municipal
 10
-9.385556
 20
38.716828
  0
VERTEX
  8
parque_municipal
 10
-9.385381
 20
38.716800
  0
VERTEX
  8
parque_municipal
 10
-9.385163
 20
38.716761
  0
VERTEX
  8
parque_municipal
 10
-9.384952
 20
38.716731
  0
SEQEND
  0
POINT
  8
parque_municipal
  6
BYLAYER
 10
-9.384202
 20
38.715025
 50
0.000000
  0
POLYLINE
  8
parque_municipal
  6
BYLAYER
 66
1
 70
1
 40
0.000000
 41
0.000000
  0
VERTEX
  8
parque_municipal
 10
-9.434580
 20
38.703078
  0
VERTEX
  8
parque_municipal
 10
-9.434560
 20
38.703213
  0
VERTEX
  8
parque_municipal
 10
-9.434503
 20
38.703241
  0
VERTEX
  8
parque_municipal
 10
-9.434502
 20
38.703246
  0
VERTEX
  8
parque_municipal
 10
-9.434474
 20
38.703378
  0
VERTEX
  8
parque_municipal
 10
-9.434454
 20
38.703442
  0
VERTEX
  8
parque_municipal
 10
-9.434129
 20
38.703398
  0
VERTEX
  8
parque_municipal
 10
-9.434082
 20
38.703394
  0
VERTEX
  8
parque_municipal
 10
-9.434073
 20
38.703452
  0
VERTEX
  8
parque_municipal
 10
-9.434071
 20
38.703469
  0
VERTEX
  8
parque_municipal
 10
-9.434076
 20
38.703469
  0
VERTEX
  8
parque_municipal
 10
-9.434114
 20
38.703474
  0
VERTEX
  8
parque_municipal
 10
-9.434082
 20
38.703614
  0
VERTEX
  8
parque_municipal
 10
-9.434104
 20
38.703901
  0
VERTEX
  8
parque_municipal
 10
-9.434368
 20
38.703897
  0
VERTEX
  8
parque_municipal
 10
-9.434336
 20
38.704069
  0
VERTEX
  8
parque_municipal
 10
-9.434311
 20
38.704202
  0
VERTEX
  8
parque_municipal
 10
-9.434310
 20
38.704206
  0
VERTEX
  8
parque_municipal
 10
-9.434301
 20
38.704212
  0
VERTEX
  8
parque_municipal
 10
-9.434291
 20
38.704218
  0
VERTEX
  8
parque_municipal
 10
-9.434280
 20
38.704223
  0
VERTEX
  8
parque_municipal
 10
-9.434269
 20
38.704228
  0
VERTEX
  8
parque_municipal
 10
-9.434262
 20
38.704230
  0
VERTEX
  8
parque_municipal
 10
-9.434258
 20
38.704232
  0
VERTEX
  8
parque_municipal
 10
-9.434247
 20
38.704235
  0
VERTEX
  8
parque_municipal
 10
-9.434235
 20
38.704238
  0
VERTEX
  8
parque_municipal
 10
-9.434223
 20
38.704241
  0
VERTEX
  8
parque_municipal
 10
-9.434211
 20
38.704243
  0
VERTEX
  8
parque_municipal
 10
-9.434199
 20
38.704244
  0
VERTEX
  8
parque_municipal
 10
-9.434187
 20
38.704245
  0
VERTEX
  8
parque_municipal
 10
-9.434175
 20
38.704245
  0
VERTEX
  8
parque_municipal
 10
-9.434162
 20
38.704245
  0
VERTEX
  8
parque_municipal
 10
-9.434149
 20
38.704244
  0
VERTEX
  8
parque_municipal
 10
-9.434137
 20
38.704243
  0
VERTEX
  8
parque_municipal
 10
-9.434125
 20
38.704241
  0
VERTEX
  8
parque_municipal
 10
-9.434113
 20
38.704238
  0
VERTEX
  8
parque_municipal
 10
-9.434101
 20
38.704234
  0
VERTEX
  8
parque_municipal
 10
-9.434089
 20
38.704230
  0
VERTEX
  8
parque_municipal
 10
-9.434078
 20
38.704225
  0
VERTEX
  8
parque_municipal
 10
-9.434068
 20
38.704220
  0
VERTEX
  8
parque_municipal
 10
-9.434058
 20
38.704214
  0
VERTEX
  8
parque_municipal
 10
-9.433880
 20
38.704112
  0
VERTEX
  8
parque_municipal
 10
-9.433866
 20
38.704103
  0
VERTEX
  8
parque_municipal
 10
-9.433852
 20
38.704094
  0
VERTEX
  8
parque_municipal
 10
-9.433924
 20
38.703942
  0
VERTEX
  8
parque_municipal
 10
-9.433936
 20
38.703917
  0
VERTEX
  8
parque_municipal
 10
-9.433957
 20
38.703872
  0
VERTEX
  8
parque_municipal
 10
-9.433969
 20
38.703880
  0
VERTEX
  8
parque_municipal
 10
-9.433825
 20
38.703527
  0
VERTEX
  8
parque_municipal
 10
-9.433740
 20
38.703408
  0
VERTEX
  8
parque_municipal
 10
-9.433589
 20
38.703478
  0
VERTEX
  8
parque_municipal
 10
-9.433414
 20
38.703546
  0
VERTEX
  8
parque_municipal
 10
-9.433214
 20
38.703269
  0
VERTEX
  8
parque_municipal
 10
-9.433164
 20
38.703195
  0
VERTEX
  8
parque_municipal
 10
-9.433507
 20
38.703035
  0
VERTEX
  8
parque_municipal
 10
-9.433351
 20
38.702817
  0
VERTEX
  8
parque_municipal
 10
-9.433340
 20
38.702801
  0
VERTEX
  8
parque_municipal
 10
-9.433330
 20
38.702787
  0
VERTEX
  8
parque_municipal
 10
-9.433291
 20
38.702735
  0
VERTEX
  8
parque_municipal
 10
-9.433287
 20
38.702730
  0
VERTEX
  8
parque_municipal
 10
-9.433276
 20
38.702714
  0
VERTEX
  8
parque_municipal
 10
-9.433175
 20
38.702569
  0
VERTEX
  8
parque_municipal
 10
-9.433013
 20
38.702335
  0
VERTEX
  8
parque_municipal
 10
-9.433406
 20
38.702161
  0
VERTEX
  8
parque_municipal
 10
-9.433408
 20
38.702107
  0
VERTEX
  8
parque_municipal
 10
-9.433442
 20
38.702107
  0
VERTEX
  8
parque_municipal
 10
-9.433462
 20
38.702055
  0
VERTEX
  8
parque_municipal
 10
-9.433409
 20
38.701987
  0
VERTEX
  8
parque_municipal
 10
-9.433300
 20
38.701810
  0
VERTEX
  8
parque_municipal
 10
-9.433198
 20
38.701770
  0
VERTEX
  8
parque_municipal
 10
-9.433027
 20
38.701842
  0
VERTEX
  8
parque_municipal
 10
-9.432758
 20
38.701958
  0
VERTEX
  8
parque_municipal
 10
-9.432733
 20
38.701925
  0
VERTEX
  8
parque_municipal
 10
-9.432664
 20
38.701958
  0
VERTEX
  8
parque_municipal
 10
-9.432564
 20
38.702009
  0
VERTEX
  8
parque_municipal
 10
-9.432606
 20
38.701931
  0
VERTEX
  8
parque_municipal
 10
-9.432622
 20
38.701899
  0
VERTEX
  8
parque_municipal
 10
-9.432711
 20
38.701732
  0
VERTEX
  8
parque_municipal
 10
-9.432738
 20
38.701681
  0
VERTEX
  8
parque_municipal
 10
-9.432798
 20
38.701569
  0
VERTEX
  8
parque_municipal
 10
-9.432856
 20
38.701431
  0
VERTEX
  8
parque_municipal
 10
-9.432780
 20
38.701339
  0
VERTEX
  8
parque_municipal
 10
-9.432652
 20
38.701188
  0
VERTEX
  8
parque_municipal
 10
-9.432239
 20
38.700919
  0
VERTEX
  8
parque_municipal
 10
-9.432235
 20
38.700918
  0
VERTEX
  8
parque_municipal
 10
-9.432185
 20
38.700908
  0
VERTEX
  8
parque_municipal
 10
-9.432163
 20
38.700903
  0
VERTEX
  8
parque_municipal
 10
-9.431983
 20
38.700874
  0
VERTEX
  8
parque_municipal
 10
-9.431779
 20
38.700851
  0
VERTEX
  8
parque_municipal
 10
-9.431788
 20
38.701092
  0
VERTEX
  8
parque_municipal
 10
-9.431799
 20
38.701346
  0
VERTEX
  8
parque_municipal
 10
-9.431796
 20
38.701346
  0
VERTEX
  8
parque_municipal
 10
-9.431783
 20
38.701345
  0
VERTEX
  8
parque_municipal
 10
-9.431777
 20
38.701345
  0
VERTEX
  8
parque_municipal
 10
-9.431748
 20
38.701347
  0
VERTEX
  8
parque_municipal
 10
-9.431732
 20
38.701348
  0
VERTEX
  8
parque_municipal
 10
-9.431722
 20
38.701147
  0
VERTEX
  8
parque_municipal
 10
-9.431721
 20
38.701136
  0
VERTEX
  8
parque_municipal
 10
-9.431719
 20
38.701101
  0
VERTEX
  8
parque_municipal
 10
-9.431715
 20
38.701023
  0
VERTEX
  8
parque_municipal
 10
-9.431718
 20
38.701021
  0
VERTEX
  8
parque_municipal
 10
-9.431688
 20
38.700983
  0
VERTEX
  8
parque_municipal
 10
-9.431558
 20
38.700807
  0
VERTEX
  8
parque_municipal
 10
-9.431247
 20
38.700373
  0
VERTEX
  8
parque_municipal
 10
-9.431220
 20
38.700336
  0
VERTEX
  8
parque_municipal
 10
-9.431159
 20
38.700158
  0
VERTEX
  8
parque_municipal
 10
-9.430567
 20
38.699522
  0
VERTEX
  8
parque_municipal
 10
-9.430326
 20
38.699204
  0
VERTEX
  8
parque_municipal
 10
-9.430195
 20
38.699036
  0
VERTEX
  8
parque_municipal
 10
-9.430190
 20
38.698910
  0
VERTEX
  8
parque_municipal
 10
-9.430372
 20
38.698895
  0
VERTEX
  8
parque_municipal
 10
-9.430391
 20
38.698716
  0
VERTEX
  8
parque_municipal
 10
-9.430471
 20
38.698662
  0
VERTEX
  8
parque_municipal
 10
-9.430606
 20
38.698621
  0
VERTEX
  8
parque_municipal
 10
-9.430707
 20
38.698680
  0
VERTEX
  8
parque_municipal
 10
-9.430746
 20
38.698687
  0
VERTEX
  8
parque_municipal
 10
-9.430767
 20
38.698687
  0
VERTEX
  8
parque_municipal
 10
-9.430805
 20
38.698676
  0
VERTEX
  8
parque_municipal
 10
-9.430814
 20
38.698673
  0
VERTEX
  8
parque_municipal
 10
-9.430841
 20
38.698668
  0
VERTEX
  8
parque_municipal
 10
-9.431026
 20
38.698754
  0
VERTEX
  8
parque_municipal
 10
-9.431203
 20
38.698826
  0
VERTEX
  8
parque_municipal
 10
-9.431320
 20
38.698882
  0
VERTEX
  8
parque_municipal
 10
-9.431317
 20
38.698887
  0
VERTEX
  8
parque_municipal
 10
-9.431318
 20
38.698899
  0
VERTEX
  8
parque_municipal
 10
-9.431327
 20
38.698921
  0
VERTEX
  8
parque_municipal
 10
-9.431441
 20
38.699105
  0
VERTEX
  8
parque_municipal
 10
-9.431435
 20
38.699107
  0
VERTEX
  8
parque_municipal
 10
-9.431459
 20
38.699137
  0
VERTEX
  8
parque_municipal
 10
-9.431448
 20
38.699144
  0
VERTEX
  8
parque_municipal
 10
-9.431482
 20
38.699182
  0
VERTEX
  8
parque_municipal
 10
-9.431583
 20
38.699297
  0
VERTEX
  8
parque_municipal
 10
-9.431575
 20
38.699313
  0
VERTEX
  8
parque_municipal
 10
-9.431568
 20
38.699329
  0
VERTEX
  8
parque_municipal
 10
-9.431562
 20
38.699346
  0
VERTEX
  8
parque_municipal
 10
-9.431558
 20
38.699362
  0
VERTEX
  8
parque_municipal
 10
-9.431555
 20
38.699379
  0
VERTEX
  8
parque_municipal
 10
-9.431554
 20
38.699396
  0
VERTEX
  8
parque_municipal
 10
-9.431557
 20
38.699407
  0
VERTEX
  8
parque_municipal
 10
-9.431561
 20
38.699420
  0
VERTEX
  8
parque_municipal
 10
-9.431565
 20
38.699432
  0
VERTEX
  8
parque_municipal
 10
-9.431572
 20
38.699444
  0
VERTEX
  8
parque_municipal
 10
-9.431580
 20
38.699456
  0
VERTEX
  8
parque_municipal
 10
-9.431589
 20
38.699466
  0
VERTEX
  8
parque_municipal
 10
-9.431600
 20
38.699476
  0
VERTEX
  8
parque_municipal
 10
-9.431612
 20
38.699485
  0
VERTEX
  8
parque_municipal
 10
-9.431625
 20
38.699493
  0
VERTEX
  8
parque_municipal
 10
-9.431639
 20
38.699500
  0
VERTEX
  8
parque_municipal
 10
-9.431653
 20
38.699506
  0
VERTEX
  8
parque_municipal
 10
-9.431669
 20
38.699511
  0
VERTEX
  8
parque_municipal
 10
-9.431893
 20
38.699582
  0
VERTEX
  8
parque_municipal
 10
-9.432030
 20
38.699622
  0
VERTEX
  8
parque_municipal
 10
-9.432042
 20
38.699625
  0
VERTEX
  8
parque_municipal
 10
-9.432052
 20
38.699629
  0
VERTEX
  8
parque_municipal
 10
-9.432055
 20
38.699633
  0
VERTEX
  8
parque_municipal
 10
-9.432061
 20
38.699641
  0
VERTEX
  8
parque_municipal
 10
-9.432066
 20
38.699655
  0
VERTEX
  8
parque_municipal
 10
-9.432070
 20
38.699666
  0
VERTEX
  8
parque_municipal
 10
-9.432073
 20
38.699677
  0
VERTEX
  8
parque_municipal
 10
-9.432080
 20
38.699696
  0
VERTEX
  8
parque_municipal
 10
-9.432084
 20
38.699716
  0
VERTEX
  8
parque_municipal
 10
-9.432163
 20
38.699859
  0
VERTEX
  8
parque_municipal
 10
-9.432260
 20
38.700005
  0
VERTEX
  8
parque_municipal
 10
-9.432474
 20
38.700319
  0
VERTEX
  8
parque_municipal
 10
-9.432469
 20
38.700323
  0
VERTEX
  8
parque_municipal
 10
-9.432505
 20
38.700363
  0
VERTEX
  8
parque_municipal
 10
-9.432568
 20
38.700392
  0
VERTEX
  8
parque_municipal
 10
-9.432640
 20
38.700419
  0
VERTEX
  8
parque_municipal
 10
-9.432745
 20
38.700465
  0
VERTEX
  8
parque_municipal
 10
-9.432807
 20
38.700512
  0
VERTEX
  8
parque_municipal
 10
-9.432827
 20
38.700543
  0
VERTEX
  8
parque_municipal
 10
-9.432857
 20
38.700629
  0
VERTEX
  8
parque_municipal
 10
-9.432953
 20
38.700744
  0
VERTEX
  8
parque_municipal
 10
-9.433044
 20
38.700856
  0
VERTEX
  8
parque_municipal
 10
-9.433102
 20
38.700934
  0
VERTEX
  8
parque_municipal
 10
-9.433238
 20
38.701109
  0
VERTEX
  8
parque_municipal
 10
-9.433340
 20
38.701216
  0
VERTEX
  8
parque_municipal
 10
-9.433361
 20
38.701238
  0
VERTEX
  8
parque_municipal
 10
-9.433381
 20
38.701309
  0
VERTEX
  8
parque_municipal
 10
-9.433423
 20
38.701416
  0
VERTEX
  8
parque_municipal
 10
-9.433459
 20
38.701467
  0
VERTEX
  8
parque_municipal
 10
-9.433517
 20
38.701543
  0
VERTEX
  8
parque_municipal
 10
-9.433611
 20
38.701675
  0
VERTEX
  8
parque_municipal
 10
-9.433685
 20
38.701650
  0
VERTEX
  8
parque_municipal
 10
-9.433671
 20
38.701628
  0
VERTEX
  8
parque_municipal
 10
-9.433672
 20
38.701626
  0
VERTEX
  8
parque_municipal
 10
-9.433689
 20
38.701583
  0
VERTEX
  8
parque_municipal
 10
-9.433690
 20
38.701580
  0
VERTEX
  8
parque_municipal
 10
-9.433694
 20
38.701571
  0
VERTEX
  8
parque_municipal
 10
-9.433697
 20
38.701565
  0
VERTEX
  8
parque_municipal
 10
-9.433703
 20
38.701566
  0
VERTEX
  8
parque_municipal
 10
-9.433752
 20
38.701578
  0
VERTEX
  8
parque_municipal
 10
-9.433783
 20
38.701586
  0
VERTEX
  8
parque_municipal
 10
-9.433803
 20
38.701591
  0
VERTEX
  8
parque_municipal
 10
-9.433808
 20
38.701592
  0
VERTEX
  8
parque_municipal
 10
-9.433811
 20
38.701586
  0
VERTEX
  8
parque_municipal
 10
-9.433814
 20
38.701577
  0
VERTEX
  8
parque_municipal
 10
-9.433819
 20
38.701564
  0
VERTEX
  8
parque_municipal
 10
-9.433821
 20
38.701559
  0
VERTEX
  8
parque_municipal
 10
-9.433833
 20
38.701565
  0
VERTEX
  8
parque_municipal
 10
-9.433839
 20
38.701570
  0
VERTEX
  8
parque_municipal
 10
-9.433845
 20
38.701575
  0
VERTEX
  8
parque_municipal
 10
-9.433976
 20
38.701780
  0
VERTEX
  8
parque_municipal
 10
-9.434038
 20
38.701771
  0
VERTEX
  8
parque_municipal
 10
-9.434266
 20
38.702120
  0
VERTEX
  8
parque_municipal
 10
-9.434091
 20
38.702159
  0
VERTEX
  8
parque_municipal
 10
-9.434097
 20
38.702256
  0
VERTEX
  8
parque_municipal
 10
-9.434099
 20
38.702464
  0
VERTEX
  8
parque_municipal
 10
-9.434056
 20
38.702675
  0
VERTEX
  8
parque_municipal
 10
-9.434116
 20
38.702930
  0
VERTEX
  8
parque_municipal
 10
-9.434341
 20
38.703103
  0
VERTEX
  8
parque_municipal
 10
-9.434417
 20
38.703096
  0
VERTEX
  8
parque_municipal
 10
-9.434492
 20
38.703088
  0
VERTEX
  8
parque_municipal
 10
-9.434499
 20
38.703087
  0
VERTEX
  8
parque_municipal
 10
-9.434498
 20
38.703083
  0
VERTEX
  8
parque_municipal
 10
-9.434580
 20
38.703078
  0
SEQEND
  0
POINT
  8
parque_municipal
  6
BYLAYER
 10
-9.432500
 20
38.701094
 50
0.637372
  0
POLYLINE
  8
parque_municipal
  6
BYLAYER
 66
1
 70
1
 40
0.000000
 41
0.000000
  0
VERTEX
  8
parque_municipal
 10
-9.360564
 20
38.694829
  0
VERTEX
  8
parque_municipal
 10
-9.360579
 20
38.694830
  0
VERTEX
  8
parque_municipal
 10
-9.360579
 20
38.694830
  0
VERTEX
  8
parque_municipal
 10
-9.360598
 20
38.694831
  0
VERTEX
  8
parque_municipal
 10
-9.360539
 20
38.695090
  0
VERTEX
  8
parque_municipal
 10
-9.360331
 20
38.695080
  0
VERTEX
  8
parque_municipal
 10
-9.360180
 20
38.695934
  0
VERTEX
  8
parque_municipal
 10
-9.360105
 20
38.695874
  0
VERTEX
  8
parque_municipal
 10
-9.360082
 20
38.695858
  0
VERTEX
  8
parque_municipal
 10
-9.359426
 20
38.695370
  0
VERTEX
  8
parque_municipal
 10
-9.359507
 20
38.694908
  0
VERTEX
  8
parque_municipal
 10
-9.359521
 20
38.694830
  0
VERTEX
  8
parque_municipal
 10
-9.359538
 20
38.694734
  0
VERTEX
  8
parque_municipal
 10
-9.359578
 20
38.694725
  0
VERTEX
  8
parque_municipal
 10
-9.359640
 20
38.694714
  0
VERTEX
  8
parque_municipal
 10
-9.359794
 20
38.694731
  0
VERTEX
  8
parque_municipal
 10
-9.359788
 20
38.694770
  0
VERTEX
  8
parque_municipal
 10
-9.359780
 20
38.694825
  0
VERTEX
  8
parque_municipal
 10
-9.359982
 20
38.694841
  0
VERTEX
  8
parque_municipal
 10
-9.359979
 20
38.694856
  0
VERTEX
  8
parque_municipal
 10
-9.360164
 20
38.694874
  0
VERTEX
  8
parque_municipal
 10
-9.360227
 20
38.694880
  0
VERTEX
  8
parque_municipal
 10
-9.360232
 20
38.694850
  0
VERTEX
  8
parque_municipal
 10
-9.360234
 20
38.694840
  0
VERTEX
  8
parque_municipal
 10
-9.360253
 20
38.694843
  0
VERTEX
  8
parque_municipal
 10
-9.360257
 20
38.694808
  0
VERTEX
  8
parque_municipal
 10
-9.360557
 20
38.694829
  0
VERTEX
  8
parque_municipal
 10
-9.360564
 20
38.694829
  0
SEQEND
  0
POINT
  8
parque_municipal
  6
BYLAYER
 10
-9.359950
 20
38.695222
 50
0.601785
  0
POLYLINE
  8
parque_municipal
  6
BYLAYER
 66
1
 70
1
 40
0.000000
 41
0.000000
  0
VERTEX
  8
parque_municipal
 10
-9.360564
 20
38.694829
  0
VERTEX
  8
parque_municipal
 10
-9.360579
 20
38.694830
  0
VERTEX
  8
parque_municipal
 10
-9.360579
 20
38.694830
  0
VERTEX
  8
parque_municipal
 10
-9.360598
 20
38.694831
  0
VERTEX
  8
parque_municipal
 10
-9.360539
 20
38.695090
  0
VERTEX
  8
parque_municipal
 10
-9.360331
 20
38.695080
  0
VERTEX
  8
parque_municipal
 10
-9.360180
 20
38.695934
  0
VERTEX
  8
parque_municipal
 10
-9.360105
 20
38.695874
  0
VERTEX
  8
parque_municipal
 10
-9.360082
 20
38.695858
  0
VERTEX
  8
parque_municipal
 10
-9.359426
 20
38.695370
  0
VERTEX
  8
parque_municipal
 10
-9.359507
 20
38.694908
  0
VERTEX
  8
parque_municipal
 10
-9.359521
 20
38.694830
  0
VERTEX
  8
parque_municipal
 10
-9.359538
 20
38.694734
  0
VERTEX
  8
parque_municipal
 10
-9.359578
 20
38.694725
  0
VERTEX
  8
parque_municipal
 10
-9.359640
 20
38.694714
  0
VERTEX
  8
parque_municipal
 10
-9.359794
 20
38.694731
  0
VERTEX
  8
parque_municipal
 10
-9.359788
 20
38.694770
  0
VERTEX
  8
parque_municipal
 10
-9.359780
 20
38.694825
  0
VERTEX
  8
parque_municipal
 10
-9.359982
 20
38.694841
  0
VERTEX
  8
parque_municipal
 10
-9.359979
 20
38.694856
  0
VERTEX
  8
parque_municipal
 10
-9.360164
 20
38.694874
  0
VERTEX
  8
parque_municipal
 10
-9.360227
 20
38.694880
  0
VERTEX
  8
parque_municipal
 10
-9.360232
 20
38.694850
  0
VERTEX
  8
parque_municipal
 10
-9.360234
 20
38.694840
  0
VERTEX
  8
parque_municipal
 10
-9.360253
 20
38.694843
  0
VERTEX
  8
parque_municipal
 10
-9.360257
 20
38.694808
  0
VERTEX
  8
parque_municipal
 10
-9.360557
 20
38.694829
  0
VERTEX
  8
parque_municipal
 10
-9.360564
 20
38.694829
  0
SEQEND
  0
POINT
  8
parque_municipal
  6
BYLAYER
 10
-9.359950
 20
38.695222
 50
0.601785
  0
POLYLINE
  8
parque_municipal
  6
BYLAYER
 66
1
 70
1
 40
0.000000
 41
0.000000
  0
VERTEX
  8
parque_municipal
 10
-9.422983
 20
38.694828
  0
VERTEX
  8
parque_municipal
 10
-9.422991
 20
38.694820
  0
VERTEX
  8
parque_municipal
 10
-9.422993
 20
38.694818
  0
VERTEX
  8
parque_municipal
 10
-9.422998
 20
38.694814
  0
VERTEX
  8
parque_municipal
 10
-9.423002
 20
38.694810
  0
VERTEX
  8
parque_municipal
 10
-9.423006
 20
38.694806
  0
VERTEX
  8
parque_municipal
 10
-9.423011
 20
38.694803
  0
VERTEX
  8
parque_municipal
 10
-9.423015
 20
38.694799
  0
VERTEX
  8
parque_municipal
 10
-9.423020
 20
38.694795
  0
VERTEX
  8
parque_municipal
 10
-9.423024
 20
38.694792
  0
VERTEX
  8
parque_municipal
 10
-9.423029
 20
38.694788
  0
VERTEX
  8
parque_municipal
 10
-9.423034
 20
38.694785
  0
VERTEX
  8
parque_municipal
 10
-9.423039
 20
38.694782
  0
VERTEX
  8
parque_municipal
 10
-9.423044
 20
38.694778
  0
VERTEX
  8
parque_municipal
 10
-9.423049
 20
38.694775
  0
VERTEX
  8
parque_municipal
 10
-9.423054
 20
38.694772
  0
VERTEX
  8
parque_municipal
 10
-9.423059
 20
38.694769
  0
VERTEX
  8
parque_municipal
 10
-9.423064
 20
38.694766
  0
VERTEX
  8
parque_municipal
 10
-9.423069
 20
38.694763
  0
VERTEX
  8
parque_municipal
 10
-9.423074
 20
38.694760
  0
VERTEX
  8
parque_municipal
 10
-9.423076
 20
38.694759
  0
VERTEX
  8
parque_municipal
 10
-9.423079
 20
38.694757
  0
VERTEX
  8
parque_municipal
 10
-9.423081
 20
38.694756
  0
VERTEX
  8
parque_municipal
 10
-9.423084
 20
38.694755
  0
VERTEX
  8
parque_municipal
 10
-9.423086
 20
38.694755
  0
VERTEX
  8
parque_municipal
 10
-9.423089
 20
38.694754
  0
VERTEX
  8
parque_municipal
 10
-9.423091
 20
38.694753
  0
VERTEX
  8
parque_municipal
 10
-9.423094
 20
38.694752
  0
VERTEX
  8
parque_municipal
 10
-9.423097
 20
38.694752
  0
VERTEX
  8
parque_municipal
 10
-9.423099
 20
38.694751
  0
VERTEX
  8
parque_municipal
 10
-9.423102
 20
38.694751
  0
VERTEX
  8
parque_municipal
 10
-9.423105
 20
38.694750
  0
VERTEX
  8
parque_municipal
 10
-9.423108
 20
38.694750
  0
VERTEX
  8
parque_municipal
 10
-9.423110
 20
38.694749
  0
VERTEX
  8
parque_municipal
 10
-9.423113
 20
38.694749
  0
VERTEX
  8
parque_municipal
 10
-9.423116
 20
38.694749
  0
VERTEX
  8
parque_municipal
 10
-9.423119
 20
38.694749
  0
VERTEX
  8
parque_municipal
 10
-9.423122
 20
38.694749
  0
VERTEX
  8
parque_municipal
 10
-9.423124
 20
38.694749
  0
VERTEX
  8
parque_municipal
 10
-9.423127
 20
38.694749
  0
VERTEX
  8
parque_municipal
 10
-9.423130
 20
38.694749
  0
VERTEX
  8
parque_municipal
 10
-9.423133
 20
38.694750
  0
VERTEX
  8
parque_municipal
 10
-9.423136
 20
38.694750
  0
VERTEX
  8
parque_municipal
 10
-9.423138
 20
38.694751
  0
VERTEX
  8
parque_municipal
 10
-9.423141
 20
38.694751
  0
VERTEX
  8
parque_municipal
 10
-9.423144
 20
38.694752
  0
VERTEX
  8
parque_municipal
 10
-9.423146
 20
38.694752
  0
VERTEX
  8
parque_municipal
 10
-9.423149
 20
38.694753
  0
VERTEX
  8
parque_municipal
 10
-9.423152
 20
38.694754
  0
VERTEX
  8
parque_municipal
 10
-9.423154
 20
38.694755
  0
VERTEX
  8
parque_municipal
 10
-9.423157
 20
38.694755
  0
VERTEX
  8
parque_municipal
 10
-9.423159
 20
38.694756
  0
VERTEX
  8
parque_municipal
 10
-9.423160
 20
38.694757
  0
VERTEX
  8
parque_municipal
 10
-9.423163
 20
38.694758
  0
VERTEX
  8
parque_municipal
 10
-9.423165
 20
38.694759
  0
VERTEX
  8
parque_municipal
 10
-9.423168
 20
38.694761
  0
VERTEX
  8
parque_municipal
 10
-9.423170
 20
38.694762
  0
VERTEX
  8
parque_municipal
 10
-9.423173
 20
38.694763
  0
VERTEX
  8
parque_municipal
 10
-9.423175
 20
38.694765
  0
VERTEX
  8
parque_municipal
 10
-9.423178
 20
38.694766
  0
VERTEX
  8
parque_municipal
 10
-9.423180
 20
38.694768
  0
VERTEX
  8
parque_municipal
 10
-9.423182
 20
38.694770
  0
VERTEX
  8
parque_municipal
 10
-9.423185
 20
38.694771
  0
VERTEX
  8
parque_municipal
 10
-9.423187
 20
38.694773
  0
VERTEX
  8
parque_municipal
 10
-9.423189
 20
38.694775
  0
VERTEX
  8
parque_municipal
 10
-9.423191
 20
38.694777
  0
VERTEX
  8
parque_municipal
 10
-9.423193
 20
38.694779
  0
VERTEX
  8
parque_municipal
 10
-9.423195
 20
38.694781
  0
VERTEX
  8
parque_municipal
 10
-9.423197
 20
38.694783
  0
VERTEX
  8
parque_municipal
 10
-9.423198
 20
38.694785
  0
VERTEX
  8
parque_municipal
 10
-9.423200
 20
38.694787
  0
VERTEX
  8
parque_municipal
 10
-9.423202
 20
38.694789
  0
VERTEX
  8
parque_municipal
 10
-9.423203
 20
38.694791
  0
VERTEX
  8
parque_municipal
 10
-9.423204
 20
38.694793
  0
VERTEX
  8
parque_municipal
 10
-9.423206
 20
38.694795
  0
VERTEX
  8
parque_municipal
 10
-9.423207
 20
38.694798
  0
VERTEX
  8
parque_municipal
 10
-9.423208
 20
38.694800
  0
VERTEX
  8
parque_municipal
 10
-9.423209
 20
38.694802
  0
VERTEX
  8
parque_municipal
 10
-9.423210
 20
38.694805
  0
VERTEX
  8
parque_municipal
 10
-9.423211
 20
38.694807
  0
VERTEX
  8
parque_municipal
 10
-9.423212
 20
38.694809
  0
VERTEX
  8
parque_municipal
 10
-9.423213
 20
38.694812
  0
VERTEX
  8
parque_municipal
 10
-9.423214
 20
38.694814
  0
VERTEX
  8
parque_municipal
 10
-9.423214
 20
38.694817
  0
VERTEX
  8
parque_municipal
 10
-9.423215
 20
38.694819
  0
VERTEX
  8
parque_municipal
 10
-9.423215
 20
38.694821
  0
VERTEX
  8
parque_municipal
 10
-9.423215
 20
38.694827
  0
VERTEX
  8
parque_municipal
 10
-9.423215
 20
38.694834
  0
VERTEX
  8
parque_municipal
 10
-9.423214
 20
38.694841
  0
VERTEX
  8
parque_municipal
 10
-9.423214
 20
38.694848
  0
VERTEX
  8
parque_municipal
 10
-9.423214
 20
38.694855
  0
VERTEX
  8
parque_municipal
 10
-9.423214
 20
38.694863
  0
VERTEX
  8
parque_municipal
 10
-9.423214
 20
38.694870
  0
VERTEX
  8
parque_municipal
 10
-9.423214
 20
38.694877
  0
VERTEX
  8
parque_municipal
 10
-9.423214
 20
38.694884
  0
VERTEX
  8
parque_municipal
 10
-9.423214
 20
38.694892
  0
VERTEX
  8
parque_municipal
 10
-9.423214
 20
38.694899
  0
VERTEX
  8
parque_municipal
 10
-9.423214
 20
38.694906
  0
VERTEX
  8
parque_municipal
 10
-9.423214
 20
38.694913
  0
VERTEX
  8
parque_municipal
 10
-9.423214
 20
38.694920
  0
VERTEX
  8
parque_municipal
 10
-9.423252
 20
38.695098
  0
VERTEX
  8
parque_municipal
 10
-9.423177
 20
38.695107
  0
VERTEX
  8
parque_municipal
 10
-9.423189
 20
38.695177
  0
VERTEX
  8
parque_municipal
 10
-9.422886
 20
38.695210
  0
VERTEX
  8
parque_municipal
 10
-9.422870
 20
38.695173
  0
VERTEX
  8
parque_municipal
 10
-9.422877
 20
38.695113
  0
VERTEX
  8
parque_municipal
 10
-9.422868
 20
38.695113
  0
VERTEX
  8
parque_municipal
 10
-9.422849
 20
38.695031
  0
VERTEX
  8
parque_municipal
 10
-9.422848
 20
38.695029
  0
VERTEX
  8
parque_municipal
 10
-9.422848
 20
38.695028
  0
VERTEX
  8
parque_municipal
 10
-9.422847
 20
38.695026
  0
VERTEX
  8
parque_municipal
 10
-9.422847
 20
38.695024
  0
VERTEX
  8
parque_municipal
 10
-9.422847
 20
38.695022
  0
VERTEX
  8
parque_municipal
 10
-9.422847
 20
38.695020
  0
VERTEX
  8
parque_municipal
 10
-9.422847
 20
38.695018
  0
VERTEX
  8
parque_municipal
 10
-9.422847
 20
38.695017
  0
VERTEX
  8
parque_municipal
 10
-9.422847
 20
38.695015
  0
VERTEX
  8
parque_municipal
 10
-9.422847
 20
38.695013
  0
VERTEX
  8
parque_municipal
 10
-9.422847
 20
38.695011
  0
VERTEX
  8
parque_municipal
 10
-9.422848
 20
38.695009
  0
VERTEX
  8
parque_municipal
 10
-9.422848
 20
38.695008
  0
VERTEX
  8
parque_municipal
 10
-9.422849
 20
38.695006
  0
VERTEX
  8
parque_municipal
 10
-9.422850
 20
38.695004
  0
VERTEX
  8
parque_municipal
 10
-9.422850
 20
38.695002
  0
VERTEX
  8
parque_municipal
 10
-9.422851
 20
38.695001
  0
VERTEX
  8
parque_municipal
 10
-9.422852
 20
38.694999
  0
VERTEX
  8
parque_municipal
 10
-9.422853
 20
38.694997
  0
VERTEX
  8
parque_municipal
 10
-9.422854
 20
38.694996
  0
VERTEX
  8
parque_municipal
 10
-9.422856
 20
38.694992
  0
VERTEX
  8
parque_municipal
 10
-9.422859
 20
38.694987
  0
VERTEX
  8
parque_municipal
 10
-9.422862
 20
38.694981
  0
VERTEX
  8
parque_municipal
 10
-9.422865
 20
38.694976
  0
VERTEX
  8
parque_municipal
 10
-9.422868
 20
38.694970
  0
VERTEX
  8
parque_municipal
 10
-9.422872
 20
38.694964
  0
VERTEX
  8
parque_municipal
 10
-9.422875
 20
38.694959
  0
VERTEX
  8
parque_municipal
 10
-9.422878
 20
38.694954
  0
VERTEX
  8
parque_municipal
 10
-9.422882
 20
38.694948
  0
VERTEX
  8
parque_municipal
 10
-9.422885
 20
38.694943
  0
VERTEX
  8
parque_municipal
 10
-9.422889
 20
38.694937
  0
VERTEX
  8
parque_municipal
 10
-9.422893
 20
38.694932
  0
VERTEX
  8
parque_municipal
 10
-9.422897
 20
38.694927
  0
VERTEX
  8
parque_municipal
 10
-9.422901
 20
38.694922
  0
VERTEX
  8
parque_municipal
 10
-9.422905
 20
38.694916
  0
VERTEX
  8
parque_municipal
 10
-9.422909
 20
38.694911
  0
VERTEX
  8
parque_municipal
 10
-9.422913
 20
38.694906
  0
VERTEX
  8
parque_municipal
 10
-9.422914
 20
38.694904
  0
VERTEX
  8
parque_municipal
 10
-9.422922
 20
38.694895
  0
VERTEX
  8
parque_municipal
 10
-9.422929
 20
38.694887
  0
VERTEX
  8
parque_municipal
 10
-9.422936
 20
38.694878
  0
VERTEX
  8
parque_municipal
 10
-9.422944
 20
38.694870
  0
VERTEX
  8
parque_municipal
 10
-9.422952
 20
38.694862
  0
VERTEX
  8
parque_municipal
 10
-9.422959
 20
38.694853
  0
VERTEX
  8
parque_municipal
 10
-9.422967
 20
38.694845
  0
VERTEX
  8
parque_municipal
 10
-9.422975
 20
38.694837
  0
VERTEX
  8
parque_municipal
 10
-9.422983
 20
38.694828
  0
SEQEND
  0
POLYLINE
  8
parque_municipal
  6
BYLAYER
 66
1
 70
1
 40
0.000000
 41
0.000000
  0
VERTEX
  8
parque_municipal
 10
-9.423588
 20
38.695636
  0
VERTEX
  8
parque_municipal
 10
-9.423602
 20
38.695633
  0
VERTEX
  8
parque_municipal
 10
-9.423587
 20
38.695769
  0
VERTEX
  8
parque_municipal
 10
-9.423554
 20
38.695764
  0
VERTEX
  8
parque_municipal
 10
-9.423453
 20
38.695753
  0
VERTEX
  8
parque_municipal
 10
-9.423204
 20
38.695721
  0
VERTEX
  8
parque_municipal
 10
-9.423198
 20
38.695720
  0
VERTEX
  8
parque_municipal
 10
-9.423192
 20
38.695720
  0
VERTEX
  8
parque_municipal
 10
-9.423186
 20
38.695719
  0
VERTEX
  8
parque_municipal
 10
-9.423180
 20
38.695718
  0
VERTEX
  8
parque_municipal
 10
-9.423173
 20
38.695717
  0
VERTEX
  8
parque_municipal
 10
-9.423168
 20
38.695716
  0
VERTEX
  8
parque_municipal
 10
-9.423161
 20
38.695714
  0
VERTEX
  8
parque_municipal
 10
-9.423155
 20
38.695713
  0
VERTEX
  8
parque_municipal
 10
-9.423149
 20
38.695712
  0
VERTEX
  8
parque_municipal
 10
-9.423143
 20
38.695710
  0
VERTEX
  8
parque_municipal
 10
-9.423137
 20
38.695709
  0
VERTEX
  8
parque_municipal
 10
-9.423131
 20
38.695707
  0
VERTEX
  8
parque_municipal
 10
-9.423126
 20
38.695706
  0
VERTEX
  8
parque_municipal
 10
-9.423120
 20
38.695704
  0
VERTEX
  8
parque_municipal
 10
-9.423114
 20
38.695702
  0
VERTEX
  8
parque_municipal
 10
-9.423108
 20
38.695701
  0
VERTEX
  8
parque_municipal
 10
-9.423102
 20
38.695699
  0
VERTEX
  8
parque_municipal
 10
-9.423096
 20
38.695697
  0
VERTEX
  8
parque_municipal
 10
-9.423091
 20
38.695695
  0
VERTEX
  8
parque_municipal
 10
-9.423085
 20
38.695693
  0
VERTEX
  8
parque_municipal
 10
-9.423081
 20
38.695691
  0
VERTEX
  8
parque_municipal
 10
-9.423079
 20
38.695691
  0
VERTEX
  8
parque_municipal
 10
-9.423074
 20
38.695689
  0
VERTEX
  8
parque_municipal
 10
-9.423068
 20
38.695686
  0
VERTEX
  8
parque_municipal
 10
-9.423063
 20
38.695684
  0
VERTEX
  8
parque_municipal
 10
-9.423057
 20
38.695682
  0
VERTEX
  8
parque_municipal
 10
-9.423057
 20
38.695682
  0
VERTEX
  8
parque_municipal
 10
-9.423052
 20
38.695679
  0
VERTEX
  8
parque_municipal
 10
-9.423048
 20
38.695677
  0
VERTEX
  8
parque_municipal
 10
-9.423043
 20
38.695675
  0
VERTEX
  8
parque_municipal
 10
-9.423038
 20
38.695672
  0
VERTEX
  8
parque_municipal
 10
-9.423034
 20
38.695670
  0
VERTEX
  8
parque_municipal
 10
-9.423029
 20
38.695667
  0
VERTEX
  8
parque_municipal
 10
-9.423025
 20
38.695664
  0
VERTEX
  8
parque_municipal
 10
-9.423020
 20
38.695662
  0
VERTEX
  8
parque_municipal
 10
-9.423016
 20
38.695659
  0
VERTEX
  8
parque_municipal
 10
-9.423011
 20
38.695656
  0
VERTEX
  8
parque_municipal
 10
-9.423007
 20
38.695653
  0
VERTEX
  8
parque_municipal
 10
-9.423003
 20
38.695650
  0
VERTEX
  8
parque_municipal
 10
-9.422998
 20
38.695647
  0
VERTEX
  8
parque_municipal
 10
-9.422994
 20
38.695644
  0
VERTEX
  8
parque_municipal
 10
-9.422990
 20
38.695641
  0
VERTEX
  8
parque_municipal
 10
-9.422986
 20
38.695638
  0
VERTEX
  8
parque_municipal
 10
-9.422982
 20
38.695635
  0
VERTEX
  8
parque_municipal
 10
-9.422978
 20
38.695632
  0
VERTEX
  8
parque_municipal
 10
-9.422974
 20
38.695629
  0
VERTEX
  8
parque_municipal
 10
-9.422971
 20
38.695625
  0
VERTEX
  8
parque_municipal
 10
-9.422967
 20
38.695622
  0
VERTEX
  8
parque_municipal
 10
-9.422963
 20
38.695619
  0
VERTEX
  8
parque_municipal
 10
-9.422960
 20
38.695616
  0
VERTEX
  8
parque_municipal
 10
-9.422953
 20
38.695609
  0
VERTEX
  8
parque_municipal
 10
-9.422945
 20
38.695603
  0
VERTEX
  8
parque_municipal
 10
-9.422938
 20
38.695597
  0
VERTEX
  8
parque_municipal
 10
-9.422931
 20
38.695590
  0
VERTEX
  8
parque_municipal
 10
-9.422924
 20
38.695584
  0
VERTEX
  8
parque_municipal
 10
-9.422916
 20
38.695577
  0
VERTEX
  8
parque_municipal
 10
-9.422909
 20
38.695571
  0
VERTEX
  8
parque_municipal
 10
-9.422905
 20
38.695568
  0
VERTEX
  8
parque_municipal
 10
-9.422903
 20
38.695565
  0
VERTEX
  8
parque_municipal
 10
-9.422901
 20
38.695564
  0
VERTEX
  8
parque_municipal
 10
-9.422899
 20
38.695561
  0
VERTEX
  8
parque_municipal
 10
-9.422897
 20
38.695559
  0
VERTEX
  8
parque_municipal
 10
-9.422895
 20
38.695557
  0
VERTEX
  8
parque_municipal
 10
-9.422893
 20
38.695555
  0
VERTEX
  8
parque_municipal
 10
-9.422891
 20
38.695553
  0
VERTEX
  8
parque_municipal
 10
-9.422889
 20
38.695550
  0
VERTEX
  8
parque_municipal
 10
-9.422888
 20
38.695548
  0
VERTEX
  8
parque_municipal
 10
-9.422886
 20
38.695546
  0
VERTEX
  8
parque_municipal
 10
-9.422885
 20
38.695543
  0
VERTEX
  8
parque_municipal
 10
-9.422883
 20
38.695541
  0
VERTEX
  8
parque_municipal
 10
-9.422882
 20
38.695538
  0
VERTEX
  8
parque_municipal
 10
-9.422880
 20
38.695536
  0
VERTEX
  8
parque_municipal
 10
-9.422879
 20
38.695533
  0
VERTEX
  8
parque_municipal
 10
-9.422878
 20
38.695531
  0
VERTEX
  8
parque_municipal
 10
-9.422877
 20
38.695528
  0
VERTEX
  8
parque_municipal
 10
-9.422876
 20
38.695526
  0
VERTEX
  8
parque_municipal
 10
-9.422875
 20
38.695523
  0
VERTEX
  8
parque_municipal
 10
-9.422875
 20
38.695521
  0
VERTEX
  8
parque_municipal
 10
-9.422874
 20
38.695518
  0
VERTEX
  8
parque_municipal
 10
-9.422873
 20
38.695515
  0
VERTEX
  8
parque_municipal
 10
-9.422873
 20
38.695513
  0
VERTEX
  8
parque_municipal
 10
-9.422872
 20
38.695510
  0
VERTEX
  8
parque_municipal
 10
-9.422872
 20
38.695509
  0
VERTEX
  8
parque_municipal
 10
-9.422871
 20
38.695505
  0
VERTEX
  8
parque_municipal
 10
-9.422870
 20
38.695501
  0
VERTEX
  8
parque_municipal
 10
-9.422869
 20
38.695497
  0
VERTEX
  8
parque_municipal
 10
-9.422868
 20
38.695493
  0
VERTEX
  8
parque_municipal
 10
-9.422867
 20
38.695489
  0
VERTEX
  8
parque_municipal
 10
-9.422865
 20
38.695485
  0
VERTEX
  8
parque_municipal
 10
-9.422864
 20
38.695482
  0
VERTEX
  8
parque_municipal
 10
-9.422862
 20
38.695478
  0
VERTEX
  8
parque_municipal
 10
-9.422861
 20
38.695474
  0
VERTEX
  8
parque_municipal
 10
-9.422859
 20
38.695470
  0
VERTEX
  8
parque_municipal
 10
-9.422857
 20
38.695467
  0
VERTEX
  8
parque_municipal
 10
-9.422855
 20
38.695463
  0
VERTEX
  8
parque_municipal
 10
-9.422853
 20
38.695459
  0
VERTEX
  8
parque_municipal
 10
-9.422851
 20
38.695456
  0
VERTEX
  8
parque_municipal
 10
-9.422849
 20
38.695452
  0
VERTEX
  8
parque_municipal
 10
-9.422847
 20
38.695448
  0
VERTEX
  8
parque_municipal
 10
-9.422845
 20
38.695445
  0
VERTEX
  8
parque_municipal
 10
-9.422842
 20
38.695441
  0
VERTEX
  8
parque_municipal
 10
-9.422840
 20
38.695438
  0
VERTEX
  8
parque_municipal
 10
-9.422837
 20
38.695435
  0
VERTEX
  8
parque_municipal
 10
-9.422835
 20
38.695431
  0
VERTEX
  8
parque_municipal
 10
-9.422832
 20
38.695428
  0
VERTEX
  8
parque_municipal
 10
-9.422829
 20
38.695423
  0
VERTEX
  8
parque_municipal
 10
-9.422826
 20
38.695417
  0
VERTEX
  8
parque_municipal
 10
-9.422823
 20
38.695412
  0
VERTEX
  8
parque_municipal
 10
-9.422916
 20
38.695390
  0
VERTEX
  8
parque_municipal
 10
-9.422880
 20
38.695303
  0
VERTEX
  8
parque_municipal
 10
-9.423209
 20
38.695266
  0
VERTEX
  8
parque_municipal
 10
-9.423366
 20
38.695355
  0
VERTEX
  8
parque_municipal
 10
-9.423444
 20
38.695400
  0
VERTEX
  8
parque_municipal
 10
-9.423480
 20
38.695393
  0
VERTEX
  8
parque_municipal
 10
-9.423598
 20
38.695457
  0
VERTEX
  8
parque_municipal
 10
-9.423601
 20
38.695477
  0
VERTEX
  8
parque_municipal
 10
-9.423550
 20
38.695532
  0
VERTEX
  8
parque_municipal
 10
-9.423455
 20
38.695549
  0
VERTEX
  8
parque_municipal
 10
-9.423461
 20
38.695584
  0
VERTEX
  8
parque_municipal
 10
-9.423470
 20
38.695619
  0
VERTEX
  8
parque_municipal
 10
-9.423395
 20
38.695630
  0
VERTEX
  8
parque_municipal
 10
-9.423404
 20
38.695664
  0
VERTEX
  8
parque_municipal
 10
-9.423518
 20
38.695647
  0
VERTEX
  8
parque_municipal
 10
-9.423584
 20
38.695636
  0
VERTEX
  8
parque_municipal
 10
-9.423588
 20
38.695636
  0
SEQEND
  0
POINT
  8
parque_municipal
  6
BYLAYER
 10
-9.423053
 20
38.694996
 50
0.000000
  0
POLYLINE
  8
parque_municipal
  6
BYLAYER
 66
1
 70
1
 40
0.000000
 41
0.000000
  0
VERTEX
  8
parque_municipal
 10
-9.423587
 20
38.695769
  0
VERTEX
  8
parque_municipal
 10
-9.423602
 20
38.695633
  0
VERTEX
  8
parque_municipal
 10
-9.423623
 20
38.695609
  0
VERTEX
  8
parque_municipal
 10
-9.423621
 20
38.695608
  0
VERTEX
  8
parque_municipal
 10
-9.423622
 20
38.695601
  0
VERTEX
  8
parque_municipal
 10
-9.423645
 20
38.695576
  0
VERTEX
  8
parque_municipal
 10
-9.423633
 20
38.695569
  0
VERTEX
  8
parque_municipal
 10
-9.423648
 20
38.695553
  0
VERTEX
  8
parque_municipal
 10
-9.423666
 20
38.695563
  0
VERTEX
  8
parque_municipal
 10
-9.423707
 20
38.695521
  0
VERTEX
  8
parque_municipal
 10
-9.423735
 20
38.695492
  0
VERTEX
  8
parque_municipal
 10
-9.423503
 20
38.695367
  0
VERTEX
  8
parque_municipal
 10
-9.423510
 20
38.695347
  0
VERTEX
  8
parque_municipal
 10
-9.423522
 20
38.695318
  0
VERTEX
  8
parque_municipal
 10
-9.423535
 20
38.695297
  0
VERTEX
  8
parque_municipal
 10
-9.423565
 20
38.695311
  0
VERTEX
  8
parque_municipal
 10
-9.423671
 20
38.695219
  0
VERTEX
  8
parque_municipal
 10
-9.423761
 20
38.695212
  0
VERTEX
  8
parque_municipal
 10
-9.423739
 20
38.695117
  0
VERTEX
  8
parque_municipal
 10
-9.423692
 20
38.695122
  0
VERTEX
  8
parque_municipal
 10
-9.423523
 20
38.695031
  0
VERTEX
  8
parque_municipal
 10
-9.423470
 20
38.695086
  0
VERTEX
  8
parque_municipal
 10
-9.423461
 20
38.695087
  0
VERTEX
  8
parque_municipal
 10
-9.423431
 20
38.694887
  0
VERTEX
  8
parque_municipal
 10
-9.423450
 20
38.694885
  0
VERTEX
  8
parque_municipal
 10
-9.423442
 20
38.694849
  0
VERTEX
  8
parque_municipal
 10
-9.423510
 20
38.694839
  0
VERTEX
  8
parque_municipal
 10
-9.423489
 20
38.694738
  0
VERTEX
  8
parque_municipal
 10
-9.423470
 20
38.694740
  0
VERTEX
  8
parque_municipal
 10
-9.423467
 20
38.694719
  0
VERTEX
  8
parque_municipal
 10
-9.423458
 20
38.694720
  0
VERTEX
  8
parque_municipal
 10
-9.423446
 20
38.694665
  0
VERTEX
  8
parque_municipal
 10
-9.423481
 20
38.694661
  0
VERTEX
  8
parque_municipal
 10
-9.423530
 20
38.694687
  0
VERTEX
  8
parque_municipal
 10
-9.423553
 20
38.694656
  0
VERTEX
  8
parque_municipal
 10
-9.423555
 20
38.694653
  0
VERTEX
  8
parque_municipal
 10
-9.423714
 20
38.694635
  0
VERTEX
  8
parque_municipal
 10
-9.423976
 20
38.694603
  0
VERTEX
  8
parque_municipal
 10
-9.424229
 20
38.694573
  0
VERTEX
  8
parque_municipal
 10
-9.424375
 20
38.694556
  0
VERTEX
  8
parque_municipal
 10
-9.424420
 20
38.694647
  0
VERTEX
  8
parque_municipal
 10
-9.424363
 20
38.694666
  0
VERTEX
  8
parque_municipal
 10
-9.424500
 20
38.694930
  0
VERTEX
  8
parque_municipal
 10
-9.424603
 20
38.695128
  0
VERTEX
  8
parque_municipal
 10
-9.424728
 20
38.695371
  0
VERTEX
  8
parque_municipal
 10
-9.424796
 20
38.695513
  0
VERTEX
  8
parque_municipal
 10
-9.424872
 20
38.695488
  0
VERTEX
  8
parque_municipal
 10
-9.424897
 20
38.695538
  0
VERTEX
  8
parque_municipal
 10
-9.424899
 20
38.695540
  0
VERTEX
  8
parque_municipal
 10
-9.424900
 20
38.695541
  0
VERTEX
  8
parque_municipal
 10
-9.424901
 20
38.695543
  0
VERTEX
  8
parque_municipal
 10
-9.424901
 20
38.695544
  0
VERTEX
  8
parque_municipal
 10
-9.424902
 20
38.695546
  0
VERTEX
  8
parque_municipal
 10
-9.424903
 20
38.695548
  0
VERTEX
  8
parque_municipal
 10
-9.424904
 20
38.695550
  0
VERTEX
  8
parque_municipal
 10
-9.424904
 20
38.695551
  0
VERTEX
  8
parque_municipal
 10
-9.424905
 20
38.695553
  0
VERTEX
  8
parque_municipal
 10
-9.424905
 20
38.695555
  0
VERTEX
  8
parque_municipal
 10
-9.424905
 20
38.695557
  0
VERTEX
  8
parque_municipal
 10
-9.424905
 20
38.695559
  0
VERTEX
  8
parque_municipal
 10
-9.424905
 20
38.695561
  0
VERTEX
  8
parque_municipal
 10
-9.424905
 20
38.695562
  0
VERTEX
  8
parque_municipal
 10
-9.424905
 20
38.695564
  0
VERTEX
  8
parque_municipal
 10
-9.424905
 20
38.695566
  0
VERTEX
  8
parque_municipal
 10
-9.424905
 20
38.695568
  0
VERTEX
  8
parque_municipal
 10
-9.424905
 20
38.695570
  0
VERTEX
  8
parque_municipal
 10
-9.424904
 20
38.695571
  0
VERTEX
  8
parque_municipal
 10
-9.424903
 20
38.695573
  0
VERTEX
  8
parque_municipal
 10
-9.424903
 20
38.695575
  0
VERTEX
  8
parque_municipal
 10
-9.424902
 20
38.695577
  0
VERTEX
  8
parque_municipal
 10
-9.424901
 20
38.695578
  0
VERTEX
  8
parque_municipal
 10
-9.424900
 20
38.695580
  0
VERTEX
  8
parque_municipal
 10
-9.424899
 20
38.695582
  0
VERTEX
  8
parque_municipal
 10
-9.424898
 20
38.695583
  0
VERTEX
  8
parque_municipal
 10
-9.424898
 20
38.695583
  0
VERTEX
  8
parque_municipal
 10
-9.424897
 20
38.695586
  0
VERTEX
  8
parque_municipal
 10
-9.424895
 20
38.695589
  0
VERTEX
  8
parque_municipal
 10
-9.424894
 20
38.695592
  0
VERTEX
  8
parque_municipal
 10
-9.424892
 20
38.695595
  0
VERTEX
  8
parque_municipal
 10
-9.424890
 20
38.695598
  0
VERTEX
  8
parque_municipal
 10
-9.424888
 20
38.695601
  0
VERTEX
  8
parque_municipal
 10
-9.424886
 20
38.695603
  0
VERTEX
  8
parque_municipal
 10
-9.424884
 20
38.695606
  0
VERTEX
  8
parque_municipal
 10
-9.424882
 20
38.695609
  0
VERTEX
  8
parque_municipal
 10
-9.424882
 20
38.695610
  0
VERTEX
  8
parque_municipal
 10
-9.424880
 20
38.695612
  0
VERTEX
  8
parque_municipal
 10
-9.424878
 20
38.695615
  0
VERTEX
  8
parque_municipal
 10
-9.424876
 20
38.695617
  0
VERTEX
  8
parque_municipal
 10
-9.424874
 20
38.695620
  0
VERTEX
  8
parque_municipal
 10
-9.424871
 20
38.695623
  0
VERTEX
  8
parque_municipal
 10
-9.424869
 20
38.695625
  0
VERTEX
  8
parque_municipal
 10
-9.424869
 20
38.695625
  0
VERTEX
  8
parque_municipal
 10
-9.424867
 20
38.695628
  0
VERTEX
  8
parque_municipal
 10
-9.424864
 20
38.695631
  0
VERTEX
  8
parque_municipal
 10
-9.424862
 20
38.695633
  0
VERTEX
  8
parque_municipal
 10
-9.424859
 20
38.695636
  0
VERTEX
  8
parque_municipal
 10
-9.424857
 20
38.695638
  0
VERTEX
  8
parque_municipal
 10
-9.424854
 20
38.695641
  0
VERTEX
  8
parque_municipal
 10
-9.424852
 20
38.695642
  0
VERTEX
  8
parque_municipal
 10
-9.424851
 20
38.695644
  0
VERTEX
  8
parque_municipal
 10
-9.424849
 20
38.695646
  0
VERTEX
  8
parque_municipal
 10
-9.424848
 20
38.695647
  0
VERTEX
  8
parque_municipal
 10
-9.424846
 20
38.695649
  0
VERTEX
  8
parque_municipal
 10
-9.424844
 20
38.695650
  0
VERTEX
  8
parque_municipal
 10
-9.424842
 20
38.695651
  0
VERTEX
  8
parque_municipal
 10
-9.424840
 20
38.695653
  0
VERTEX
  8
parque_municipal
 10
-9.424838
 20
38.695654
  0
VERTEX
  8
parque_municipal
 10
-9.424836
 20
38.695655
  0
VERTEX
  8
parque_municipal
 10
-9.424834
 20
38.695656
  0
VERTEX
  8
parque_municipal
 10
-9.424832
 20
38.695658
  0
VERTEX
  8
parque_municipal
 10
-9.424830
 20
38.695659
  0
VERTEX
  8
parque_municipal
 10
-9.424828
 20
38.695660
  0
VERTEX
  8
parque_municipal
 10
-9.424825
 20
38.695660
  0
VERTEX
  8
parque_municipal
 10
-9.424823
 20
38.695661
  0
VERTEX
  8
parque_municipal
 10
-9.424821
 20
38.695662
  0
VERTEX
  8
parque_municipal
 10
-9.424818
 20
38.695663
  0
VERTEX
  8
parque_municipal
 10
-9.424818
 20
38.695663
  0
VERTEX
  8
parque_municipal
 10
-9.424753
 20
38.695673
  0
VERTEX
  8
parque_municipal
 10
-9.424498
 20
38.695717
  0
VERTEX
  8
parque_municipal
 10
-9.424238
 20
38.695760
  0
VERTEX
  8
parque_municipal
 10
-9.424124
 20
38.695780
  0
VERTEX
  8
parque_municipal
 10
-9.424116
 20
38.695751
  0
VERTEX
  8
parque_municipal
 10
-9.424164
 20
38.695741
  0
VERTEX
  8
parque_municipal
 10
-9.424079
 20
38.695476
  0
VERTEX
  8
parque_municipal
 10
-9.424306
 20
38.695432
  0
VERTEX
  8
parque_municipal
 10
-9.424319
 20
38.695475
  0
VERTEX
  8
parque_municipal
 10
-9.424378
 20
38.695463
  0
VERTEX
  8
parque_municipal
 10
-9.424425
 20
38.695487
  0
VERTEX
  8
parque_municipal
 10
-9.424458
 20
38.695442
  0
VERTEX
  8
parque_municipal
 10
-9.424413
 20
38.695423
  0
VERTEX
  8
parque_municipal
 10
-9.424359
 20
38.695254
  0
VERTEX
  8
parque_municipal
 10
-9.424416
 20
38.695243
  0
VERTEX
  8
parque_municipal
 10
-9.424382
 20
38.695140
  0
VERTEX
  8
parque_municipal
 10
-9.424355
 20
38.695047
  0
VERTEX
  8
parque_municipal
 10
-9.424330
 20
38.695051
  0
VERTEX
  8
parque_municipal
 10
-9.424324
 20
38.695032
  0
VERTEX
  8
parque_municipal
 10
-9.424348
 20
38.695028
  0
VERTEX
  8
parque_municipal
 10
-9.424321
 20
38.694938
  0
VERTEX
  8
parque_municipal
 10
-9.424201
 20
38.694960
  0
VERTEX
  8
parque_municipal
 10
-9.424156
 20
38.694939
  0
VERTEX
  8
parque_municipal
 10
-9.424154
 20
38.694942
  0
VERTEX
  8
parque_municipal
 10
-9.424130
 20
38.694975
  0
VERTEX
  8
parque_municipal
 10
-9.424129
 20
38.694977
  0
VERTEX
  8
parque_municipal
 10
-9.423803
 20
38.695043
  0
VERTEX
  8
parque_municipal
 10
-9.423906
 20
38.695354
  0
VERTEX
  8
parque_municipal
 10
-9.423880
 20
38.695359
  0
VERTEX
  8
parque_municipal
 10
-9.423932
 20
38.695518
  0
VERTEX
  8
parque_municipal
 10
-9.424000
 20
38.695504
  0
VERTEX
  8
parque_municipal
 10
-9.424003
 20
38.695519
  0
VERTEX
  8
parque_municipal
 10
-9.423917
 20
38.695534
  0
VERTEX
  8
parque_municipal
 10
-9.423854
 20
38.695343
  0
VERTEX
  8
parque_municipal
 10
-9.423793
 20
38.695354
  0
VERTEX
  8
parque_municipal
 10
-9.423795
 20
38.695357
  0
VERTEX
  8
parque_municipal
 10
-9.423797
 20
38.695361
  0
VERTEX
  8
parque_municipal
 10
-9.423799
 20
38.695365
  0
VERTEX
  8
parque_municipal
 10
-9.423800
 20
38.695369
  0
VERTEX
  8
parque_municipal
 10
-9.423802
 20
38.695373
  0
VERTEX
  8
parque_municipal
 10
-9.423804
 20
38.695377
  0
VERTEX
  8
parque_municipal
 10
-9.423806
 20
38.695381
  0
VERTEX
  8
parque_municipal
 10
-9.423807
 20
38.695385
  0
VERTEX
  8
parque_municipal
 10
-9.423809
 20
38.695389
  0
VERTEX
  8
parque_municipal
 10
-9.423810
 20
38.695393
  0
VERTEX
  8
parque_municipal
 10
-9.423811
 20
38.695397
  0
VERTEX
  8
parque_municipal
 10
-9.423812
 20
38.695401
  0
VERTEX
  8
parque_municipal
 10
-9.423814
 20
38.695405
  0
VERTEX
  8
parque_municipal
 10
-9.423815
 20
38.695409
  0
VERTEX
  8
parque_municipal
 10
-9.423816
 20
38.695413
  0
VERTEX
  8
parque_municipal
 10
-9.423816
 20
38.695417
  0
VERTEX
  8
parque_municipal
 10
-9.423817
 20
38.695421
  0
VERTEX
  8
parque_municipal
 10
-9.423818
 20
38.695425
  0
VERTEX
  8
parque_municipal
 10
-9.423818
 20
38.695430
  0
VERTEX
  8
parque_municipal
 10
-9.423819
 20
38.695434
  0
VERTEX
  8
parque_municipal
 10
-9.423820
 20
38.695438
  0
VERTEX
  8
parque_municipal
 10
-9.423820
 20
38.695442
  0
VERTEX
  8
parque_municipal
 10
-9.423820
 20
38.695446
  0
VERTEX
  8
parque_municipal
 10
-9.423820
 20
38.695450
  0
VERTEX
  8
parque_municipal
 10
-9.423820
 20
38.695454
  0
VERTEX
  8
parque_municipal
 10
-9.423820
 20
38.695459
  0
VERTEX
  8
parque_municipal
 10
-9.423820
 20
38.695463
  0
VERTEX
  8
parque_municipal
 10
-9.423820
 20
38.695467
  0
VERTEX
  8
parque_municipal
 10
-9.423820
 20
38.695471
  0
VERTEX
  8
parque_municipal
 10
-9.423819
 20
38.695475
  0
VERTEX
  8
parque_municipal
 10
-9.423819
 20
38.695479
  0
VERTEX
  8
parque_municipal
 10
-9.423819
 20
38.695483
  0
VERTEX
  8
parque_municipal
 10
-9.423818
 20
38.695485
  0
VERTEX
  8
parque_municipal
 10
-9.423817
 20
38.695487
  0
VERTEX
  8
parque_municipal
 10
-9.423816
 20
38.695490
  0
VERTEX
  8
parque_municipal
 10
-9.423816
 20
38.695492
  0
VERTEX
  8
parque_municipal
 10
-9.423815
 20
38.695495
  0
VERTEX
  8
parque_municipal
 10
-9.423814
 20
38.695497
  0
VERTEX
  8
parque_municipal
 10
-9.423814
 20
38.695500
  0
VERTEX
  8
parque_municipal
 10
-9.423813
 20
38.695502
  0
VERTEX
  8
parque_municipal
 10
-9.423813
 20
38.695505
  0
VERTEX
  8
parque_municipal
 10
-9.423813
 20
38.695508
  0
VERTEX
  8
parque_municipal
 10
-9.423813
 20
38.695510
  0
VERTEX
  8
parque_municipal
 10
-9.423813
 20
38.695513
  0
VERTEX
  8
parque_municipal
 10
-9.423813
 20
38.695515
  0
VERTEX
  8
parque_municipal
 10
-9.423813
 20
38.695518
  0
VERTEX
  8
parque_municipal
 10
-9.423813
 20
38.695520
  0
VERTEX
  8
parque_municipal
 10
-9.423813
 20
38.695523
  0
VERTEX
  8
parque_municipal
 10
-9.423813
 20
38.695526
  0
VERTEX
  8
parque_municipal
 10
-9.423814
 20
38.695528
  0
VERTEX
  8
parque_municipal
 10
-9.423814
 20
38.695531
  0
VERTEX
  8
parque_municipal
 10
-9.423815
 20
38.695533
  0
VERTEX
  8
parque_municipal
 10
-9.423816
 20
38.695536
  0
VERTEX
  8
parque_municipal
 10
-9.423816
 20
38.695538
  0
VERTEX
  8
parque_municipal
 10
-9.423817
 20
38.695541
  0
VERTEX
  8
parque_municipal
 10
-9.423818
 20
38.695543
  0
VERTEX
  8
parque_municipal
 10
-9.423819
 20
38.695545
  0
VERTEX
  8
parque_municipal
 10
-9.423820
 20
38.695547
  0
VERTEX
  8
parque_municipal
 10
-9.423821
 20
38.695550
  0
VERTEX
  8
parque_municipal
 10
-9.423823
 20
38.695553
  0
VERTEX
  8
parque_municipal
 10
-9.423825
 20
38.695556
  0
VERTEX
  8
parque_municipal
 10
-9.423826
 20
38.695559
  0
VERTEX
  8
parque_municipal
 10
-9.423828
 20
38.695562
  0
VERTEX
  8
parque_municipal
 10
-9.423830
 20
38.695564
  0
VERTEX
  8
parque_municipal
 10
-9.423832
 20
38.695567
  0
VERTEX
  8
parque_municipal
 10
-9.423834
 20
38.695570
  0
VERTEX
  8
parque_municipal
 10
-9.423836
 20
38.695572
  0
VERTEX
  8
parque_municipal
 10
-9.423839
 20
38.695575
  0
VERTEX
  8
parque_municipal
 10
-9.423841
 20
38.695577
  0
VERTEX
  8
parque_municipal
 10
-9.423843
 20
38.695580
  0
VERTEX
  8
parque_municipal
 10
-9.423846
 20
38.695582
  0
VERTEX
  8
parque_municipal
 10
-9.423848
 20
38.695585
  0
VERTEX
  8
parque_municipal
 10
-9.423851
 20
38.695587
  0
VERTEX
  8
parque_municipal
 10
-9.423854
 20
38.695589
  0
VERTEX
  8
parque_municipal
 10
-9.423856
 20
38.695592
  0
VERTEX
  8
parque_municipal
 10
-9.423859
 20
38.695594
  0
VERTEX
  8
parque_municipal
 10
-9.423862
 20
38.695596
  0
VERTEX
  8
parque_municipal
 10
-9.423865
 20
38.695598
  0
VERTEX
  8
parque_municipal
 10
-9.423868
 20
38.695600
  0
VERTEX
  8
parque_municipal
 10
-9.423871
 20
38.695602
  0
VERTEX
  8
parque_municipal
 10
-9.423874
 20
38.695604
  0
VERTEX
  8
parque_municipal
 10
-9.423877
 20
38.695606
  0
VERTEX
  8
parque_municipal
 10
-9.423880
 20
38.695608
  0
VERTEX
  8
parque_municipal
 10
-9.423884
 20
38.695610
  0
VERTEX
  8
parque_municipal
 10
-9.423887
 20
38.695611
  0
VERTEX
  8
parque_municipal
 10
-9.423890
 20
38.695613
  0
VERTEX
  8
parque_municipal
 10
-9.423894
 20
38.695614
  0
VERTEX
  8
parque_municipal
 10
-9.423897
 20
38.695616
  0
VERTEX
  8
parque_municipal
 10
-9.423993
 20
38.695626
  0
VERTEX
  8
parque_municipal
 10
-9.423982
 20
38.695669
  0
VERTEX
  8
parque_municipal
 10
-9.423974
 20
38.695712
  0
VERTEX
  8
parque_municipal
 10
-9.423965
 20
38.695797
  0
VERTEX
  8
parque_municipal
 10
-9.423903
 20
38.695799
  0
VERTEX
  8
parque_municipal
 10
-9.423878
 20
38.695798
  0
VERTEX
  8
parque_municipal
 10
-9.423859
 20
38.695798
  0
VERTEX
  8
parque_municipal
 10
-9.423806
 20
38.695796
  0
VERTEX
  8
parque_municipal
 10
-9.423730
 20
38.695791
  0
VERTEX
  8
parque_municipal
 10
-9.423587
 20
38.695769
  0
SEQEND
  0
POINT
  8
parque_municipal
  6
BYLAYER
 10
-9.424101
 20
38.695178
 50
0.000000
  0
POLYLINE
  8
parque_municipal
  6
BYLAYER
 66
1
 70
1
 40
0.000000
 41
0.000000
  0
VERTEX
  8
parque_municipal
 10
-9.429232
 20
38.754910
  0
VERTEX
  8
parque_municipal
 10
-9.429084
 20
38.754870
  0
VERTEX
  8
parque_municipal
 10
-9.429053
 20
38.754864
  0
VERTEX
  8
parque_municipal
 10
-9.428980
 20
38.754856
  0
VERTEX
  8
parque_municipal
 10
-9.428839
 20
38.754842
  0
VERTEX
  8
parque_municipal
 10
-9.428529
 20
38.754817
  0
VERTEX
  8
parque_municipal
 10
-9.428555
 20
38.754432
  0
VERTEX
  8
parque_municipal
 10
-9.428578
 20
38.754096
  0
VERTEX
  8
parque_municipal
 10
-9.428592
 20
38.753898
  0
VERTEX
  8
parque_municipal
 10
-9.428595
 20
38.753778
  0
VERTEX
  8
parque_municipal
 10
-9.428680
 20
38.753752
  0
VERTEX
  8
parque_municipal
 10
-9.428805
 20
38.753713
  0
VERTEX
  8
parque_municipal
 10
-9.428967
 20
38.753660
  0
VERTEX
  8
parque_municipal
 10
-9.429288
 20
38.753555
  0
VERTEX
  8
parque_municipal
 10
-9.429910
 20
38.753355
  0
VERTEX
  8
parque_municipal
 10
-9.429991
 20
38.753307
  0
VERTEX
  8
parque_municipal
 10
-9.429992
 20
38.753302
  0
VERTEX
  8
parque_municipal
 10
-9.429998
 20
38.753292
  0
VERTEX
  8
parque_municipal
 10
-9.430009
 20
38.753276
  0
VERTEX
  8
parque_municipal
 10
-9.430068
 20
38.753214
  0
VERTEX
  8
parque_municipal
 10
-9.430105
 20
38.753169
  0
VERTEX
  8
parque_municipal
 10
-9.430137
 20
38.753131
  0
VERTEX
  8
parque_municipal
 10
-9.430164
 20
38.753099
  0
VERTEX
  8
parque_municipal
 10
-9.430225
 20
38.753029
  0
VERTEX
  8
parque_municipal
 10
-9.430276
 20
38.752971
  0
VERTEX
  8
parque_municipal
 10
-9.430299
 20
38.752944
  0
VERTEX
  8
parque_municipal
 10
-9.430328
 20
38.752911
  0
VERTEX
  8
parque_municipal
 10
-9.430374
 20
38.752858
  0
VERTEX
  8
parque_municipal
 10
-9.430431
 20
38.752780
  0
VERTEX
  8
parque_municipal
 10
-9.430456
 20
38.752745
  0
VERTEX
  8
parque_municipal
 10
-9.430496
 20
38.752734
  0
VERTEX
  8
parque_municipal
 10
-9.430517
 20
38.752728
  0
VERTEX
  8
parque_municipal
 10
-9.430541
 20
38.752721
  0
VERTEX
  8
parque_municipal
 10
-9.430589
 20
38.752680
  0
VERTEX
  8
parque_municipal
 10
-9.430625
 20
38.752748
  0
VERTEX
  8
parque_municipal
 10
-9.430644
 20
38.752784
  0
VERTEX
  8
parque_municipal
 10
-9.430682
 20
38.752866
  0
VERTEX
  8
parque_municipal
 10
-9.430693
 20
38.752891
  0
VERTEX
  8
parque_municipal
 10
-9.430702
 20
38.752910
  0
VERTEX
  8
parque_municipal
 10
-9.430703
 20
38.752911
  0
VERTEX
  8
parque_municipal
 10
-9.430707
 20
38.752919
  0
VERTEX
  8
parque_municipal
 10
-9.430711
 20
38.752927
  0
VERTEX
  8
parque_municipal
 10
-9.430712
 20
38.752929
  0
VERTEX
  8
parque_municipal
 10
-9.430714
 20
38.752933
  0
VERTEX
  8
parque_municipal
 10
-9.430723
 20
38.752952
  0
VERTEX
  8
parque_municipal
 10
-9.430732
 20
38.752968
  0
VERTEX
  8
parque_municipal
 10
-9.430737
 20
38.752979
  0
VERTEX
  8
parque_municipal
 10
-9.430744
 20
38.752991
  0
VERTEX
  8
parque_municipal
 10
-9.430750
 20
38.753003
  0
VERTEX
  8
parque_municipal
 10
-9.430759
 20
38.753020
  0
VERTEX
  8
parque_municipal
 10
-9.430770
 20
38.753041
  0
VERTEX
  8
parque_municipal
 10
-9.430781
 20
38.753062
  0
VERTEX
  8
parque_municipal
 10
-9.430792
 20
38.753082
  0
VERTEX
  8
parque_municipal
 10
-9.430820
 20
38.753151
  0
VERTEX
  8
parque_municipal
 10
-9.430776
 20
38.753163
  0
VERTEX
  8
parque_municipal
 10
-9.430795
 20
38.753204
  0
VERTEX
  8
parque_municipal
 10
-9.430838
 20
38.753192
  0
VERTEX
  8
parque_municipal
 10
-9.430856
 20
38.753234
  0
VERTEX
  8
parque_municipal
 10
-9.430898
 20
38.753330
  0
VERTEX
  8
parque_municipal
 10
-9.430789
 20
38.753359
  0
VERTEX
  8
parque_municipal
 10
-9.430697
 20
38.753383
  0
VERTEX
  8
parque_municipal
 10
-9.430541
 20
38.753422
  0
VERTEX
  8
parque_municipal
 10
-9.430754
 20
38.753676
  0
VERTEX
  8
parque_municipal
 10
-9.430504
 20
38.753827
  0
VERTEX
  8
parque_municipal
 10
-9.430212
 20
38.754005
  0
VERTEX
  8
parque_municipal
 10
-9.430049
 20
38.754113
  0
VERTEX
  8
parque_municipal
 10
-9.429803
 20
38.754282
  0
VERTEX
  8
parque_municipal
 10
-9.429742
 20
38.754329
  0
VERTEX
  8
parque_municipal
 10
-9.429726
 20
38.754349
  0
VERTEX
  8
parque_municipal
 10
-9.429545
 20
38.754536
  0
VERTEX
  8
parque_municipal
 10
-9.429533
 20
38.754552
  0
VERTEX
  8
parque_municipal
 10
-9.429482
 20
38.754616
  0
VERTEX
  8
parque_municipal
 10
-9.429460
 20
38.754602
  0
VERTEX
  8
parque_municipal
 10
-9.429439
 20
38.754624
  0
VERTEX
  8
parque_municipal
 10
-9.429439
 20
38.754630
  0
VERTEX
  8
parque_municipal
 10
-9.429430
 20
38.754641
  0
VERTEX
  8
parque_municipal
 10
-9.429428
 20
38.754647
  0
VERTEX
  8
parque_municipal
 10
-9.429408
 20
38.754670
  0
VERTEX
  8
parque_municipal
 10
-9.429426
 20
38.754680
  0
VERTEX
  8
parque_municipal
 10
-9.429387
 20
38.754734
  0
VERTEX
  8
parque_municipal
 10
-9.429359
 20
38.754774
  0
VERTEX
  8
parque_municipal
 10
-9.429293
 20
38.754865
  0
VERTEX
  8
parque_municipal
 10
-9.429281
 20
38.754876
  0
VERTEX
  8
parque_municipal
 10
-9.429254
 20
38.754867
  0
VERTEX
  8
parque_municipal
 10
-9.429232
 20
38.754910
  0
SEQEND
  0
POINT
  8
parque_municipal
  6
BYLAYER
 10
-9.429606
 20
38.753901
 50
0.000000
  0
POLYLINE
  8
parque_municipal
  6
BYLAYER
 66
1
 70
1
 40
0.000000
 41
0.000000
  0
VERTEX
  8
parque_municipal
 10
-9.340332
 20
38.693493
  0
VERTEX
  8
parque_municipal
 10
-9.340333
 20
38.693166
  0
VERTEX
  8
parque_municipal
 10
-9.340111
 20
38.693167
  0
VERTEX
  8
parque_municipal
 10
-9.340108
 20
38.693125
  0
VERTEX
  8
parque_municipal
 10
-9.340106
 20
38.693120
  0
VERTEX
  8
parque_municipal
 10
-9.340106
 20
38.693115
  0
VERTEX
  8
parque_municipal
 10
-9.340102
 20
38.693063
  0
VERTEX
  8
parque_municipal
 10
-9.340099
 20
38.693022
  0
VERTEX
  8
parque_municipal
 10
-9.340097
 20
38.692988
  0
VERTEX
  8
parque_municipal
 10
-9.340095
 20
38.692958
  0
VERTEX
  8
parque_municipal
 10
-9.340093
 20
38.692901
  0
VERTEX
  8
parque_municipal
 10
-9.340091
 20
38.692840
  0
VERTEX
  8
parque_municipal
 10
-9.340086
 20
38.692814
  0
VERTEX
  8
parque_municipal
 10
-9.340086
 20
38.692810
  0
VERTEX
  8
parque_municipal
 10
-9.340085
 20
38.692796
  0
VERTEX
  8
parque_municipal
 10
-9.340103
 20
38.692790
  0
VERTEX
  8
parque_municipal
 10
-9.340116
 20
38.692784
  0
VERTEX
  8
parque_municipal
 10
-9.340125
 20
38.692779
  0
VERTEX
  8
parque_municipal
 10
-9.340133
 20
38.692773
  0
VERTEX
  8
parque_municipal
 10
-9.340141
 20
38.692767
  0
VERTEX
  8
parque_municipal
 10
-9.340150
 20
38.692759
  0
VERTEX
  8
parque_municipal
 10
-9.340158
 20
38.692751
  0
VERTEX
  8
parque_municipal
 10
-9.340166
 20
38.692742
  0
VERTEX
  8
parque_municipal
 10
-9.340172
 20
38.692733
  0
VERTEX
  8
parque_municipal
 10
-9.340176
 20
38.692727
  0
VERTEX
  8
parque_municipal
 10
-9.340182
 20
38.692715
  0
VERTEX
  8
parque_municipal
 10
-9.340196
 20
38.692670
  0
VERTEX
  8
parque_municipal
 10
-9.340200
 20
38.692663
  0
VERTEX
  8
parque_municipal
 10
-9.340206
 20
38.692656
  0
VERTEX
  8
parque_municipal
 10
-9.340215
 20
38.692651
  0
VERTEX
  8
parque_municipal
 10
-9.340225
 20
38.692647
  0
VERTEX
  8
parque_municipal
 10
-9.340233
 20
38.692644
  0
VERTEX
  8
parque_municipal
 10
-9.340243
 20
38.692643
  0
VERTEX
  8
parque_municipal
 10
-9.340254
 20
38.692643
  0
VERTEX
  8
parque_municipal
 10
-9.340277
 20
38.692646
  0
VERTEX
  8
parque_municipal
 10
-9.340266
 20
38.692689
  0
VERTEX
  8
parque_municipal
 10
-9.340362
 20
38.692703
  0
VERTEX
  8
parque_municipal
 10
-9.340649
 20
38.692755
  0
VERTEX
  8
parque_municipal
 10
-9.340658
 20
38.692709
  0
VERTEX
  8
parque_municipal
 10
-9.340672
 20
38.692713
  0
VERTEX
  8
parque_municipal
 10
-9.340680
 20
38.692718
  0
VERTEX
  8
parque_municipal
 10
-9.340687
 20
38.692724
  0
VERTEX
  8
parque_municipal
 10
-9.340693
 20
38.692731
  0
VERTEX
  8
parque_municipal
 10
-9.340716
 20
38.692762
  0
VERTEX
  8
parque_municipal
 10
-9.340725
 20
38.692770
  0
VERTEX
  8
parque_municipal
 10
-9.340733
 20
38.692775
  0
VERTEX
  8
parque_municipal
 10
-9.340746
 20
38.692780
  0
VERTEX
  8
parque_municipal
 10
-9.340764
 20
38.692785
  0
VERTEX
  8
parque_municipal
 10
-9.340827
 20
38.692793
  0
VERTEX
  8
parque_municipal
 10
-9.340826
 20
38.692808
  0
VERTEX
  8
parque_municipal
 10
-9.340803
 20
38.693023
  0
VERTEX
  8
parque_municipal
 10
-9.340828
 20
38.693025
  0
VERTEX
  8
parque_municipal
 10
-9.341075
 20
38.693047
  0
VERTEX
  8
parque_municipal
 10
-9.341111
 20
38.693068
  0
VERTEX
  8
parque_municipal
 10
-9.341102
 20
38.693137
  0
VERTEX
  8
parque_municipal
 10
-9.341094
 20
38.693226
  0
VERTEX
  8
parque_municipal
 10
-9.341089
 20
38.693309
  0
VERTEX
  8
parque_municipal
 10
-9.341064
 20
38.693309
  0
VERTEX
  8
parque_municipal
 10
-9.340819
 20
38.693308
  0
VERTEX
  8
parque_municipal
 10
-9.340773
 20
38.693358
  0
VERTEX
  8
parque_municipal
 10
-9.340769
 20
38.693455
  0
VERTEX
  8
parque_municipal
 10
-9.340768
 20
38.693472
  0
VERTEX
  8
parque_municipal
 10
-9.340749
 20
38.693481
  0
VERTEX
  8
parque_municipal
 10
-9.340715
 20
38.693482
  0
VERTEX
  8
parque_municipal
 10
-9.340712
 20
38.693482
  0
VERTEX
  8
parque_municipal
 10
-9.340532
 20
38.693486
  0
VERTEX
  8
parque_municipal
 10
-9.340381
 20
38.693493
  0
VERTEX
  8
parque_municipal
 10
-9.340332
 20
38.693493
  0
SEQEND
  0
POINT
  8
parque_municipal
  6
BYLAYER
 10
-9.340551
 20
38.693080
 50
0.000000
  0
POLYLINE
  8
parque_municipal
  6
BYLAYER
 66
1
 70
1
 40
0.000000
 41
0.000000
  0
VERTEX
  8
parque_municipal
 10
-9.326991
 20
38.714160
  0
VERTEX
  8
parque_municipal
 10
-9.326989
 20
38.714158
  0
VERTEX
  8
parque_municipal
 10
-9.326998
 20
38.714229
  0
VERTEX
  8
parque_municipal
 10
-9.326995
 20
38.714235
  0
VERTEX
  8
parque_municipal
 10
-9.326992
 20
38.714241
  0
VERTEX
  8
parque_municipal
 10
-9.326989
 20
38.714246
  0
VERTEX
  8
parque_municipal
 10
-9.326986
 20
38.714252
  0
VERTEX
  8
parque_municipal
 10
-9.326983
 20
38.714257
  0
VERTEX
  8
parque_municipal
 10
-9.326980
 20
38.714263
  0
VERTEX
  8
parque_municipal
 10
-9.326977
 20
38.714268
  0
VERTEX
  8
parque_municipal
 10
-9.326975
 20
38.714273
  0
VERTEX
  8
parque_municipal
 10
-9.326972
 20
38.714278
  0
VERTEX
  8
parque_municipal
 10
-9.326970
 20
38.714283
  0
VERTEX
  8
parque_municipal
 10
-9.326968
 20
38.714288
  0
VERTEX
  8
parque_municipal
 10
-9.326965
 20
38.714292
  0
VERTEX
  8
parque_municipal
 10
-9.326963
 20
38.714297
  0
VERTEX
  8
parque_municipal
 10
-9.326961
 20
38.714302
  0
VERTEX
  8
parque_municipal
 10
-9.326959
 20
38.714307
  0
VERTEX
  8
parque_municipal
 10
-9.326956
 20
38.714312
  0
VERTEX
  8
parque_municipal
 10
-9.326954
 20
38.714317
  0
VERTEX
  8
parque_municipal
 10
-9.326952
 20
38.714321
  0
VERTEX
  8
parque_municipal
 10
-9.326947
 20
38.714331
  0
VERTEX
  8
parque_municipal
 10
-9.326945
 20
38.714336
  0
VERTEX
  8
parque_municipal
 10
-9.326943
 20
38.714341
  0
VERTEX
  8
parque_municipal
 10
-9.326940
 20
38.714346
  0
VERTEX
  8
parque_municipal
 10
-9.326938
 20
38.714351
  0
VERTEX
  8
parque_municipal
 10
-9.326857
 20
38.714515
  0
VERTEX
  8
parque_municipal
 10
-9.326849
 20
38.714527
  0
VERTEX
  8
parque_municipal
 10
-9.326842
 20
38.714540
  0
VERTEX
  8
parque_municipal
 10
-9.326834
 20
38.714552
  0
VERTEX
  8
parque_municipal
 10
-9.326827
 20
38.714564
  0
VERTEX
  8
parque_municipal
 10
-9.326819
 20
38.714577
  0
VERTEX
  8
parque_municipal
 10
-9.326810
 20
38.714589
  0
VERTEX
  8
parque_municipal
 10
-9.326793
 20
38.714613
  0
VERTEX
  8
parque_municipal
 10
-9.326784
 20
38.714624
  0
VERTEX
  8
parque_municipal
 10
-9.326766
 20
38.714648
  0
VERTEX
  8
parque_municipal
 10
-9.326754
 20
38.714625
  0
VERTEX
  8
parque_municipal
 10
-9.326737
 20
38.714526
  0
VERTEX
  8
parque_municipal
 10
-9.326686
 20
38.714297
  0
VERTEX
  8
parque_municipal
 10
-9.326638
 20
38.714070
  0
VERTEX
  8
parque_municipal
 10
-9.326465
 20
38.714143
  0
VERTEX
  8
parque_municipal
 10
-9.326230
 20
38.714248
  0
VERTEX
  8
parque_municipal
 10
-9.326123
 20
38.714298
  0
VERTEX
  8
parque_municipal
 10
-9.326001
 20
38.714355
  0
VERTEX
  8
parque_municipal
 10
-9.325882
 20
38.714411
  0
VERTEX
  8
parque_municipal
 10
-9.325792
 20
38.714452
  0
VERTEX
  8
parque_municipal
 10
-9.325711
 20
38.714488
  0
VERTEX
  8
parque_municipal
 10
-9.325630
 20
38.714525
  0
VERTEX
  8
parque_municipal
 10
-9.325617
 20
38.714531
  0
VERTEX
  8
parque_municipal
 10
-9.325607
 20
38.714252
  0
VERTEX
  8
parque_municipal
 10
-9.325595
 20
38.713930
  0
VERTEX
  8
parque_municipal
 10
-9.325595
 20
38.713924
  0
VERTEX
  8
parque_municipal
 10
-9.325595
 20
38.713917
  0
VERTEX
  8
parque_municipal
 10
-9.325596
 20
38.713911
  0
VERTEX
  8
parque_municipal
 10
-9.325597
 20
38.713905
  0
VERTEX
  8
parque_municipal
 10
-9.325598
 20
38.713899
  0
VERTEX
  8
parque_municipal
 10
-9.325599
 20
38.713893
  0
VERTEX
  8
parque_municipal
 10
-9.325600
 20
38.713887
  0
VERTEX
  8
parque_municipal
 10
-9.325602
 20
38.713881
  0
VERTEX
  8
parque_municipal
 10
-9.325604
 20
38.713876
  0
VERTEX
  8
parque_municipal
 10
-9.325606
 20
38.713870
  0
VERTEX
  8
parque_municipal
 10
-9.325609
 20
38.713864
  0
VERTEX
  8
parque_municipal
 10
-9.325612
 20
38.713858
  0
VERTEX
  8
parque_municipal
 10
-9.325615
 20
38.713853
  0
VERTEX
  8
parque_municipal
 10
-9.325622
 20
38.713842
  0
VERTEX
  8
parque_municipal
 10
-9.325625
 20
38.713837
  0
VERTEX
  8
parque_municipal
 10
-9.325634
 20
38.713826
  0
VERTEX
  8
parque_municipal
 10
-9.325643
 20
38.713817
  0
VERTEX
  8
parque_municipal
 10
-9.325801
 20
38.713659
  0
VERTEX
  8
parque_municipal
 10
-9.326015
 20
38.713447
  0
VERTEX
  8
parque_municipal
 10
-9.326169
 20
38.713293
  0
VERTEX
  8
parque_municipal
 10
-9.326249
 20
38.713213
  0
VERTEX
  8
parque_municipal
 10
-9.326263
 20
38.713219
  0
VERTEX
  8
parque_municipal
 10
-9.326278
 20
38.713224
  0
VERTEX
  8
parque_municipal
 10
-9.326293
 20
38.713229
  0
VERTEX
  8
parque_municipal
 10
-9.326308
 20
38.713233
  0
VERTEX
  8
parque_municipal
 10
-9.326323
 20
38.713236
  0
VERTEX
  8
parque_municipal
 10
-9.326339
 20
38.713239
  0
VERTEX
  8
parque_municipal
 10
-9.326355
 20
38.713241
  0
VERTEX
  8
parque_municipal
 10
-9.326370
 20
38.713242
  0
VERTEX
  8
parque_municipal
 10
-9.326386
 20
38.713243
  0
VERTEX
  8
parque_municipal
 10
-9.326402
 20
38.713243
  0
VERTEX
  8
parque_municipal
 10
-9.326418
 20
38.713242
  0
VERTEX
  8
parque_municipal
 10
-9.326434
 20
38.713240
  0
VERTEX
  8
parque_municipal
 10
-9.326450
 20
38.713238
  0
VERTEX
  8
parque_municipal
 10
-9.326465
 20
38.713235
  0
VERTEX
  8
parque_municipal
 10
-9.326481
 20
38.713231
  0
VERTEX
  8
parque_municipal
 10
-9.326496
 20
38.713227
  0
VERTEX
  8
parque_municipal
 10
-9.326510
 20
38.713222
  0
VERTEX
  8
parque_municipal
 10
-9.326524
 20
38.713217
  0
VERTEX
  8
parque_municipal
 10
-9.326538
 20
38.713211
  0
VERTEX
  8
parque_municipal
 10
-9.326552
 20
38.713204
  0
VERTEX
  8
parque_municipal
 10
-9.326564
 20
38.713196
  0
VERTEX
  8
parque_municipal
 10
-9.326577
 20
38.713188
  0
VERTEX
  8
parque_municipal
 10
-9.326589
 20
38.713180
  0
VERTEX
  8
parque_municipal
 10
-9.326600
 20
38.713171
  0
VERTEX
  8
parque_municipal
 10
-9.326610
 20
38.713162
  0
VERTEX
  8
parque_municipal
 10
-9.326620
 20
38.713152
  0
VERTEX
  8
parque_municipal
 10
-9.326629
 20
38.713141
  0
VERTEX
  8
parque_municipal
 10
-9.326637
 20
38.713131
  0
VERTEX
  8
parque_municipal
 10
-9.326645
 20
38.713120
  0
VERTEX
  8
parque_municipal
 10
-9.326651
 20
38.713108
  0
VERTEX
  8
parque_municipal
 10
-9.326657
 20
38.713097
  0
VERTEX
  8
parque_municipal
 10
-9.326662
 20
38.713085
  0
VERTEX
  8
parque_municipal
 10
-9.326666
 20
38.713073
  0
VERTEX
  8
parque_municipal
 10
-9.326670
 20
38.713061
  0
VERTEX
  8
parque_municipal
 10
-9.326672
 20
38.713048
  0
VERTEX
  8
parque_municipal
 10
-9.326674
 20
38.713036
  0
VERTEX
  8
parque_municipal
 10
-9.326674
 20
38.713023
  0
VERTEX
  8
parque_municipal
 10
-9.326674
 20
38.713011
  0
VERTEX
  8
parque_municipal
 10
-9.326673
 20
38.712998
  0
VERTEX
  8
parque_municipal
 10
-9.326671
 20
38.712986
  0
VERTEX
  8
parque_municipal
 10
-9.326668
 20
38.712974
  0
VERTEX
  8
parque_municipal
 10
-9.326664
 20
38.712962
  0
VERTEX
  8
parque_municipal
 10
-9.326659
 20
38.712950
  0
VERTEX
  8
parque_municipal
 10
-9.326654
 20
38.712938
  0
VERTEX
  8
parque_municipal
 10
-9.326648
 20
38.712927
  0
VERTEX
  8
parque_municipal
 10
-9.326640
 20
38.712915
  0
VERTEX
  8
parque_municipal
 10
-9.326632
 20
38.712905
  0
VERTEX
  8
parque_municipal
 10
-9.326624
 20
38.712894
  0
VERTEX
  8
parque_municipal
 10
-9.326614
 20
38.712884
  0
VERTEX
  8
parque_municipal
 10
-9.326604
 20
38.712874
  0
VERTEX
  8
parque_municipal
 10
-9.326593
 20
38.712865
  0
VERTEX
  8
parque_municipal
 10
-9.326582
 20
38.712857
  0
VERTEX
  8
parque_municipal
 10
-9.326569
 20
38.712848
  0
VERTEX
  8
parque_municipal
 10
-9.326557
 20
38.712841
  0
VERTEX
  8
parque_municipal
 10
-9.326544
 20
38.712834
  0
VERTEX
  8
parque_municipal
 10
-9.326530
 20
38.712827
  0
VERTEX
  8
parque_municipal
 10
-9.326516
 20
38.712822
  0
VERTEX
  8
parque_municipal
 10
-9.326501
 20
38.712816
  0
VERTEX
  8
parque_municipal
 10
-9.326471
 20
38.712624
  0
VERTEX
  8
parque_municipal
 10
-9.327055
 20
38.712570
  0
VERTEX
  8
parque_municipal
 10
-9.327039
 20
38.712463
  0
VERTEX
  8
parque_municipal
 10
-9.327289
 20
38.712441
  0
VERTEX
  8
parque_municipal
 10
-9.327290
 20
38.712445
  0
VERTEX
  8
parque_municipal
 10
-9.327245
 20
38.712495
  0
VERTEX
  8
parque_municipal
 10
-9.327176
 20
38.712572
  0
VERTEX
  8
parque_municipal
 10
-9.327114
 20
38.712637
  0
VERTEX
  8
parque_municipal
 10
-9.327045
 20
38.712714
  0
VERTEX
  8
parque_municipal
 10
-9.326985
 20
38.712780
  0
VERTEX
  8
parque_municipal
 10
-9.326933
 20
38.712836
  0
VERTEX
  8
parque_municipal
 10
-9.326743
 20
38.713033
  0
VERTEX
  8
parque_municipal
 10
-9.326760
 20
38.713102
  0
VERTEX
  8
parque_municipal
 10
-9.326789
 20
38.713232
  0
VERTEX
  8
parque_municipal
 10
-9.326816
 20
38.713359
  0
VERTEX
  8
parque_municipal
 10
-9.326842
 20
38.713482
  0
VERTEX
  8
parque_municipal
 10
-9.326859
 20
38.713557
  0
VERTEX
  8
parque_municipal
 10
-9.326873
 20
38.713618
  0
VERTEX
  8
parque_municipal
 10
-9.326886
 20
38.713672
  0
VERTEX
  8
parque_municipal
 10
-9.326912
 20
38.713787
  0
VERTEX
  8
parque_municipal
 10
-9.326991
 20
38.714160
  0
SEQEND
  0
POLYLINE
  8
parque_municipal
  6
BYLAYER
 66
1
 70
1
 40
0.000000
 41
0.000000
  0
VERTEX
  8
parque_municipal
 10
-9.326231
 20
38.712845
  0
VERTEX
  8
parque_municipal
 10
-9.326206
 20
38.712860
  0
VERTEX
  8
parque_municipal
 10
-9.326195
 20
38.712869
  0
VERTEX
  8
parque_municipal
 10
-9.326184
 20
38.712878
  0
VERTEX
  8
parque_municipal
 10
-9.326174
 20
38.712887
  0
VERTEX
  8
parque_municipal
 10
-9.326164
 20
38.712897
  0
VERTEX
  8
parque_municipal
 10
-9.326156
 20
38.712907
  0
VERTEX
  8
parque_municipal
 10
-9.326148
 20
38.712917
  0
VERTEX
  8
parque_municipal
 10
-9.326140
 20
38.712928
  0
VERTEX
  8
parque_municipal
 10
-9.326128
 20
38.712950
  0
VERTEX
  8
parque_municipal
 10
-9.326123
 20
38.712962
  0
VERTEX
  8
parque_municipal
 10
-9.326119
 20
38.712974
  0
VERTEX
  8
parque_municipal
 10
-9.326116
 20
38.712986
  0
VERTEX
  8
parque_municipal
 10
-9.326114
 20
38.712998
  0
VERTEX
  8
parque_municipal
 10
-9.326112
 20
38.713010
  0
VERTEX
  8
parque_municipal
 10
-9.326112
 20
38.713022
  0
VERTEX
  8
parque_municipal
 10
-9.326112
 20
38.713034
  0
VERTEX
  8
parque_municipal
 10
-9.326115
 20
38.713059
  0
VERTEX
  8
parque_municipal
 10
-9.326118
 20
38.713071
  0
VERTEX
  8
parque_municipal
 10
-9.326122
 20
38.713083
  0
VERTEX
  8
parque_municipal
 10
-9.326126
 20
38.713094
  0
VERTEX
  8
parque_municipal
 10
-9.326132
 20
38.713106
  0
VERTEX
  8
parque_municipal
 10
-9.326138
 20
38.713117
  0
VERTEX
  8
parque_municipal
 10
-9.326145
 20
38.713128
  0
VERTEX
  8
parque_municipal
 10
-9.326161
 20
38.713149
  0
VERTEX
  8
parque_municipal
 10
-9.326170
 20
38.713159
  0
VERTEX
  8
parque_municipal
 10
-9.326180
 20
38.713168
  0
VERTEX
  8
parque_municipal
 10
-9.326190
 20
38.713177
  0
VERTEX
  8
parque_municipal
 10
-9.326061
 20
38.713304
  0
VERTEX
  8
parque_municipal
 10
-9.325860
 20
38.713505
  0
VERTEX
  8
parque_municipal
 10
-9.325734
 20
38.713631
  0
VERTEX
  8
parque_municipal
 10
-9.325583
 20
38.713781
  0
VERTEX
  8
parque_municipal
 10
-9.325571
 20
38.713794
  0
VERTEX
  8
parque_municipal
 10
-9.325565
 20
38.713801
  0
VERTEX
  8
parque_municipal
 10
-9.325560
 20
38.713808
  0
VERTEX
  8
parque_municipal
 10
-9.325555
 20
38.713815
  0
VERTEX
  8
parque_municipal
 10
-9.325550
 20
38.713822
  0
VERTEX
  8
parque_municipal
 10
-9.325546
 20
38.713830
  0
VERTEX
  8
parque_municipal
 10
-9.325542
 20
38.713837
  0
VERTEX
  8
parque_municipal
 10
-9.325535
 20
38.713852
  0
VERTEX
  8
parque_municipal
 10
-9.325531
 20
38.713860
  0
VERTEX
  8
parque_municipal
 10
-9.325529
 20
38.713868
  0
VERTEX
  8
parque_municipal
 10
-9.325526
 20
38.713875
  0
VERTEX
  8
parque_municipal
 10
-9.325524
 20
38.713883
  0
VERTEX
  8
parque_municipal
 10
-9.325523
 20
38.713891
  0
VERTEX
  8
parque_municipal
 10
-9.325521
 20
38.713899
  0
VERTEX
  8
parque_municipal
 10
-9.325520
 20
38.713907
  0
VERTEX
  8
parque_municipal
 10
-9.325520
 20
38.713924
  0
VERTEX
  8
parque_municipal
 10
-9.325520
 20
38.713932
  0
VERTEX
  8
parque_municipal
 10
-9.325524
 20
38.714034
  0
VERTEX
  8
parque_municipal
 10
-9.325530
 20
38.714181
  0
VERTEX
  8
parque_municipal
 10
-9.325536
 20
38.714380
  0
VERTEX
  8
parque_municipal
 10
-9.325537
 20
38.714397
  0
VERTEX
  8
parque_municipal
 10
-9.325553
 20
38.714567
  0
VERTEX
  8
parque_municipal
 10
-9.325475
 20
38.714599
  0
VERTEX
  8
parque_municipal
 10
-9.325421
 20
38.714488
  0
VERTEX
  8
parque_municipal
 10
-9.325420
 20
38.714391
  0
VERTEX
  8
parque_municipal
 10
-9.325474
 20
38.714178
  0
VERTEX
  8
parque_municipal
 10
-9.325447
 20
38.713884
  0
VERTEX
  8
parque_municipal
 10
-9.325354
 20
38.713635
  0
VERTEX
  8
parque_municipal
 10
-9.324953
 20
38.713741
  0
VERTEX
  8
parque_municipal
 10
-9.325166
 20
38.714645
  0
VERTEX
  8
parque_municipal
 10
-9.324979
 20
38.714668
  0
VERTEX
  8
parque_municipal
 10
-9.324949
 20
38.714538
  0
VERTEX
  8
parque_municipal
 10
-9.324752
 20
38.714489
  0
VERTEX
  8
parque_municipal
 10
-9.324519
 20
38.714431
  0
VERTEX
  8
parque_municipal
 10
-9.324289
 20
38.714373
  0
VERTEX
  8
parque_municipal
 10
-9.324115
 20
38.714330
  0
VERTEX
  8
parque_municipal
 10
-9.324065
 20
38.714320
  0
VERTEX
  8
parque_municipal
 10
-9.324063
 20
38.714306
  0
VERTEX
  8
parque_municipal
 10
-9.324062
 20
38.714300
  0
VERTEX
  8
parque_municipal
 10
-9.324060
 20
38.714293
  0
VERTEX
  8
parque_municipal
 10
-9.324058
 20
38.714286
  0
VERTEX
  8
parque_municipal
 10
-9.324055
 20
38.714279
  0
VERTEX
  8
parque_municipal
 10
-9.324052
 20
38.714273
  0
VERTEX
  8
parque_municipal
 10
-9.324049
 20
38.714266
  0
VERTEX
  8
parque_municipal
 10
-9.324043
 20
38.714260
  0
VERTEX
  8
parque_municipal
 10
-9.324041
 20
38.714256
  0
VERTEX
  8
parque_municipal
 10
-9.324038
 20
38.714253
  0
VERTEX
  8
parque_municipal
 10
-9.324036
 20
38.714249
  0
VERTEX
  8
parque_municipal
 10
-9.324034
 20
38.714246
  0
VERTEX
  8
parque_municipal
 10
-9.324031
 20
38.714242
  0
VERTEX
  8
parque_municipal
 10
-9.324029
 20
38.714239
  0
VERTEX
  8
parque_municipal
 10
-9.324027
 20
38.714235
  0
VERTEX
  8
parque_municipal
 10
-9.324024
 20
38.714228
  0
VERTEX
  8
parque_municipal
 10
-9.324023
 20
38.714223
  0
VERTEX
  8
parque_municipal
 10
-9.324022
 20
38.714218
  0
VERTEX
  8
parque_municipal
 10
-9.324022
 20
38.714213
  0
VERTEX
  8
parque_municipal
 10
-9.324023
 20
38.714208
  0
VERTEX
  8
parque_municipal
 10
-9.324025
 20
38.714203
  0
VERTEX
  8
parque_municipal
 10
-9.324027
 20
38.714199
  0
VERTEX
  8
parque_municipal
 10
-9.324034
 20
38.714190
  0
VERTEX
  8
parque_municipal
 10
-9.324038
 20
38.714186
  0
VERTEX
  8
parque_municipal
 10
-9.324042
 20
38.714183
  0
VERTEX
  8
parque_municipal
 10
-9.324054
 20
38.714174
  0
VERTEX
  8
parque_municipal
 10
-9.324086
 20
38.714206
  0
VERTEX
  8
parque_municipal
 10
-9.324338
 20
38.714052
  0
VERTEX
  8
parque_municipal
 10
-9.324305
 20
38.714020
  0
VERTEX
  8
parque_municipal
 10
-9.324312
 20
38.714014
  0
VERTEX
  8
parque_municipal
 10
-9.324317
 20
38.714005
  0
VERTEX
  8
parque_municipal
 10
-9.324318
 20
38.713999
  0
VERTEX
  8
parque_municipal
 10
-9.324319
 20
38.713993
  0
VERTEX
  8
parque_municipal
 10
-9.324319
 20
38.713987
  0
VERTEX
  8
parque_municipal
 10
-9.324319
 20
38.713981
  0
VERTEX
  8
parque_municipal
 10
-9.324318
 20
38.713976
  0
VERTEX
  8
parque_municipal
 10
-9.324317
 20
38.713970
  0
VERTEX
  8
parque_municipal
 10
-9.324312
 20
38.713959
  0
VERTEX
  8
parque_municipal
 10
-9.324310
 20
38.713953
  0
VERTEX
  8
parque_municipal
 10
-9.324306
 20
38.713948
  0
VERTEX
  8
parque_municipal
 10
-9.324271
 20
38.713907
  0
VERTEX
  8
parque_municipal
 10
-9.324236
 20
38.713875
  0
VERTEX
  8
parque_municipal
 10
-9.324133
 20
38.713938
  0
VERTEX
  8
parque_municipal
 10
-9.324048
 20
38.713854
  0
VERTEX
  8
parque_municipal
 10
-9.323864
 20
38.713672
  0
VERTEX
  8
parque_municipal
 10
-9.323738
 20
38.713513
  0
VERTEX
  8
parque_municipal
 10
-9.323887
 20
38.713505
  0
VERTEX
  8
parque_municipal
 10
-9.323924
 20
38.713503
  0
VERTEX
  8
parque_municipal
 10
-9.323916
 20
38.713423
  0
VERTEX
  8
parque_municipal
 10
-9.323907
 20
38.713342
  0
VERTEX
  8
parque_municipal
 10
-9.323900
 20
38.713262
  0
VERTEX
  8
parque_municipal
 10
-9.323842
 20
38.713182
  0
VERTEX
  8
parque_municipal
 10
-9.323830
 20
38.713021
  0
VERTEX
  8
parque_municipal
 10
-9.323824
 20
38.712941
  0
VERTEX
  8
parque_municipal
 10
-9.323787
 20
38.712943
  0
VERTEX
  8
parque_municipal
 10
-9.323782
 20
38.712887
  0
VERTEX
  8
parque_municipal
 10
-9.323780
 20
38.712862
  0
VERTEX
  8
parque_municipal
 10
-9.323776
 20
38.712812
  0
VERTEX
  8
parque_municipal
 10
-9.323773
 20
38.712781
  0
VERTEX
  8
parque_municipal
 10
-9.323763
 20
38.712657
  0
VERTEX
  8
parque_municipal
 10
-9.323729
 20
38.712488
  0
VERTEX
  8
parque_municipal
 10
-9.323860
 20
38.712505
  0
VERTEX
  8
parque_municipal
 10
-9.323891
 20
38.712501
  0
VERTEX
  8
parque_municipal
 10
-9.323935
 20
38.712501
  0
VERTEX
  8
parque_municipal
 10
-9.323981
 20
38.712506
  0
VERTEX
  8
parque_municipal
 10
-9.324105
 20
38.712508
  0
VERTEX
  8
parque_municipal
 10
-9.324235
 20
38.712511
  0
VERTEX
  8
parque_municipal
 10
-9.324325
 20
38.712504
  0
VERTEX
  8
parque_municipal
 10
-9.324399
 20
38.712491
  0
VERTEX
  8
parque_municipal
 10
-9.324486
 20
38.712477
  0
VERTEX
  8
parque_municipal
 10
-9.324609
 20
38.712461
  0
VERTEX
  8
parque_municipal
 10
-9.324685
 20
38.712453
  0
VERTEX
  8
parque_municipal
 10
-9.324809
 20
38.712430
  0
VERTEX
  8
parque_municipal
 10
-9.324957
 20
38.712408
  0
VERTEX
  8
parque_municipal
 10
-9.325036
 20
38.712401
  0
VERTEX
  8
parque_municipal
 10
-9.325330
 20
38.712035
  0
VERTEX
  8
parque_municipal
 10
-9.325402
 20
38.712522
  0
VERTEX
  8
parque_municipal
 10
-9.325418
 20
38.712521
  0
VERTEX
  8
parque_municipal
 10
-9.325431
 20
38.712609
  0
VERTEX
  8
parque_municipal
 10
-9.326186
 20
38.712541
  0
VERTEX
  8
parque_municipal
 10
-9.326231
 20
38.712845
  0
SEQEND
  0
POINT
  8
parque_municipal
  6
BYLAYER
 10
-9.326388
 20
38.713699
 50
0.000000
  0
POLYLINE
  8
parque_municipal
  6
BYLAYER
 66
1
 70
1
 40
0.000000
 41
0.000000
  0
VERTEX
  8
parque_municipal
 10
-9.346249
 20
38.697242
  0
VERTEX
  8
parque_municipal
 10
-9.346273
 20
38.697194
  0
VERTEX
  8
parque_municipal
 10
-9.346212
 20
38.697174
  0
VERTEX
  8
parque_municipal
 10
-9.346189
 20
38.697221
  0
VERTEX
  8
parque_municipal
 10
-9.346107
 20
38.697193
  0
VERTEX
  8
parque_municipal
 10
-9.346061
 20
38.697171
  0
VERTEX
  8
parque_municipal
 10
-9.345816
 20
38.697093
  0
VERTEX
  8
parque_municipal
 10
-9.345837
 20
38.697052
  0
VERTEX
  8
parque_municipal
 10
-9.345873
 20
38.697057
  0
VERTEX
  8
parque_municipal
 10
-9.345892
 20
38.697008
  0
VERTEX
  8
parque_municipal
 10
-9.345839
 20
38.696998
  0
VERTEX
  8
parque_municipal
 10
-9.345850
 20
38.696968
  0
VERTEX
  8
parque_municipal
 10
-9.345869
 20
38.696972
  0
VERTEX
  8
parque_municipal
 10
-9.345883
 20
38.696948
  0
VERTEX
  8
parque_municipal
 10
-9.345828
 20
38.696929
  0
VERTEX
  8
parque_municipal
 10
-9.345706
 20
38.696887
  0
VERTEX
  8
parque_municipal
 10
-9.345665
 20
38.696874
  0
VERTEX
  8
parque_municipal
 10
-9.345672
 20
38.696855
  0
VERTEX
  8
parque_municipal
 10
-9.345633
 20
38.696843
  0
VERTEX
  8
parque_municipal
 10
-9.345636
 20
38.696839
  0
VERTEX
  8
parque_municipal
 10
-9.345591
 20
38.696827
  0
VERTEX
  8
parque_municipal
 10
-9.345583
 20
38.696837
  0
VERTEX
  8
parque_municipal
 10
-9.345575
 20
38.696835
  0
VERTEX
  8
parque_municipal
 10
-9.345488
 20
38.696993
  0
VERTEX
  8
parque_municipal
 10
-9.345451
 20
38.696974
  0
VERTEX
  8
parque_municipal
 10
-9.345403
 20
38.696950
  0
VERTEX
  8
parque_municipal
 10
-9.345433
 20
38.696910
  0
VERTEX
  8
parque_municipal
 10
-9.345350
 20
38.696879
  0
VERTEX
  8
parque_municipal
 10
-9.345297
 20
38.696870
  0
VERTEX
  8
parque_municipal
 10
-9.345281
 20
38.696891
  0
VERTEX
  8
parque_municipal
 10
-9.345156
 20
38.696832
  0
VERTEX
  8
parque_municipal
 10
-9.345319
 20
38.696614
  0
VERTEX
  8
parque_municipal
 10
-9.345438
 20
38.696454
  0
VERTEX
  8
parque_municipal
 10
-9.345672
 20
38.696309
  0
VERTEX
  8
parque_municipal
 10
-9.345646
 20
38.696291
  0
VERTEX
  8
parque_municipal
 10
-9.345288
 20
38.696037
  0
VERTEX
  8
parque_municipal
 10
-9.345105
 20
38.695905
  0
VERTEX
  8
parque_municipal
 10
-9.344954
 20
38.696091
  0
VERTEX
  8
parque_municipal
 10
-9.344917
 20
38.696136
  0
VERTEX
  8
parque_municipal
 10
-9.344735
 20
38.696358
  0
VERTEX
  8
parque_municipal
 10
-9.344638
 20
38.696481
  0
VERTEX
  8
parque_municipal
 10
-9.344553
 20
38.696437
  0
VERTEX
  8
parque_municipal
 10
-9.344292
 20
38.696303
  0
VERTEX
  8
parque_municipal
 10
-9.344273
 20
38.696293
  0
VERTEX
  8
parque_municipal
 10
-9.344937
 20
38.695456
  0
VERTEX
  8
parque_municipal
 10
-9.344858
 20
38.695261
  0
VERTEX
  8
parque_municipal
 10
-9.345120
 20
38.695232
  0
VERTEX
  8
parque_municipal
 10
-9.345140
 20
38.695232
  0
VERTEX
  8
parque_municipal
 10
-9.345158
 20
38.695233
  0
VERTEX
  8
parque_municipal
 10
-9.345204
 20
38.695248
  0
VERTEX
  8
parque_municipal
 10
-9.345300
 20
38.695284
  0
VERTEX
  8
parque_municipal
 10
-9.345349
 20
38.695311
  0
VERTEX
  8
parque_municipal
 10
-9.345382
 20
38.695339
  0
VERTEX
  8
parque_municipal
 10
-9.345411
 20
38.695376
  0
VERTEX
  8
parque_municipal
 10
-9.345448
 20
38.695434
  0
VERTEX
  8
parque_municipal
 10
-9.345488
 20
38.695505
  0
VERTEX
  8
parque_municipal
 10
-9.345535
 20
38.695591
  0
VERTEX
  8
parque_municipal
 10
-9.345587
 20
38.695662
  0
VERTEX
  8
parque_municipal
 10
-9.345698
 20
38.695827
  0
VERTEX
  8
parque_municipal
 10
-9.345830
 20
38.695978
  0
VERTEX
  8
parque_municipal
 10
-9.345921
 20
38.696068
  0
VERTEX
  8
parque_municipal
 10
-9.345926
 20
38.696063
  0
VERTEX
  8
parque_municipal
 10
-9.345980
 20
38.696076
  0
VERTEX
  8
parque_municipal
 10
-9.346055
 20
38.696119
  0
VERTEX
  8
parque_municipal
 10
-9.346493
 20
38.696424
  0
VERTEX
  8
parque_municipal
 10
-9.346559
 20
38.696469
  0
VERTEX
  8
parque_municipal
 10
-9.346747
 20
38.696617
  0
VERTEX
  8
parque_municipal
 10
-9.346781
 20
38.696646
  0
VERTEX
  8
parque_municipal
 10
-9.346864
 20
38.696776
  0
VERTEX
  8
parque_municipal
 10
-9.346932
 20
38.696901
  0
VERTEX
  8
parque_municipal
 10
-9.347003
 20
38.697154
  0
VERTEX
  8
parque_municipal
 10
-9.346794
 20
38.697234
  0
VERTEX
  8
parque_municipal
 10
-9.346657
 20
38.697290
  0
VERTEX
  8
parque_municipal
 10
-9.346643
 20
38.697293
  0
VERTEX
  8
parque_municipal
 10
-9.346249
 20
38.697242
  0
SEQEND
  0
POINT
  8
parque_municipal
  6
BYLAYER
 10
-9.345706
 20
38.696365
 50
0.594809
  0
POLYLINE
  8
parque_municipal
  6
BYLAYER
 66
1
 70
1
 40
0.000000
 41
0.000000
  0
VERTEX
  8
parque_municipal
 10
-9.338699
 20
38.703996
  0
VERTEX
  8
parque_municipal
 10
-9.338614
 20
38.703891
  0
VERTEX
  8
parque_municipal
 10
-9.338539
 20
38.703799
  0
VERTEX
  8
parque_municipal
 10
-9.338519
 20
38.703810
  0
VERTEX
  8
parque_municipal
 10
-9.338450
 20
38.703796
  0
VERTEX
  8
parque_municipal
 10
-9.338406
 20
38.703787
  0
VERTEX
  8
parque_municipal
 10
-9.338393
 20
38.703721
  0
VERTEX
  8
parque_municipal
 10
-9.338388
 20
38.703702
  0
VERTEX
  8
parque_municipal
 10
-9.338364
 20
38.703657
  0
VERTEX
  8
parque_municipal
 10
-9.338357
 20
38.703647
  0
VERTEX
  8
parque_municipal
 10
-9.338331
 20
38.703617
  0
VERTEX
  8
parque_municipal
 10
-9.338307
 20
38.703594
  0
VERTEX
  8
parque_municipal
 10
-9.338277
 20
38.703570
  0
VERTEX
  8
parque_municipal
 10
-9.338230
 20
38.703544
  0
VERTEX
  8
parque_municipal
 10
-9.338139
 20
38.703513
  0
VERTEX
  8
parque_municipal
 10
-9.338060
 20
38.703479
  0
VERTEX
  8
parque_municipal
 10
-9.338026
 20
38.703459
  0
VERTEX
  8
parque_municipal
 10
-9.337988
 20
38.703433
  0
VERTEX
  8
parque_municipal
 10
-9.337975
 20
38.703416
  0
VERTEX
  8
parque_municipal
 10
-9.337972
 20
38.703415
  0
VERTEX
  8
parque_municipal
 10
-9.337957
 20
38.703409
  0
VERTEX
  8
parque_municipal
 10
-9.337935
 20
38.703389
  0
VERTEX
  8
parque_municipal
 10
-9.337900
 20
38.703349
  0
VERTEX
  8
parque_municipal
 10
-9.337885
 20
38.703333
  0
VERTEX
  8
parque_municipal
 10
-9.337866
 20
38.703304
  0
VERTEX
  8
parque_municipal
 10
-9.337845
 20
38.703267
  0
VERTEX
  8
parque_municipal
 10
-9.337831
 20
38.703234
  0
VERTEX
  8
parque_municipal
 10
-9.337822
 20
38.703214
  0
VERTEX
  8
parque_municipal
 10
-9.337818
 20
38.703204
  0
VERTEX
  8
parque_municipal
 10
-9.337817
 20
38.703189
  0
VERTEX
  8
parque_municipal
 10
-9.337795
 20
38.702961
  0
VERTEX
  8
parque_municipal
 10
-9.337676
 20
38.702964
  0
VERTEX
  8
parque_municipal
 10
-9.337468
 20
38.702969
  0
VERTEX
  8
parque_municipal
 10
-9.337409
 20
38.702968
  0
VERTEX
  8
parque_municipal
 10
-9.337402
 20
38.702970
  0
VERTEX
  8
parque_municipal
 10
-9.337383
 20
38.702972
  0
VERTEX
  8
parque_municipal
 10
-9.337299
 20
38.702972
  0
VERTEX
  8
parque_municipal
 10
-9.337171
 20
38.702967
  0
VERTEX
  8
parque_municipal
 10
-9.337154
 20
38.702969
  0
VERTEX
  8
parque_municipal
 10
-9.337154
 20
38.702956
  0
VERTEX
  8
parque_municipal
 10
-9.337157
 20
38.702908
  0
VERTEX
  8
parque_municipal
 10
-9.337171
 20
38.702840
  0
VERTEX
  8
parque_municipal
 10
-9.337202
 20
38.702740
  0
VERTEX
  8
parque_municipal
 10
-9.337213
 20
38.702693
  0
VERTEX
  8
parque_municipal
 10
-9.337213
 20
38.702660
  0
VERTEX
  8
parque_municipal
 10
-9.337209
 20
38.702628
  0
VERTEX
  8
parque_municipal
 10
-9.337196
 20
38.702575
  0
VERTEX
  8
parque_municipal
 10
-9.337160
 20
38.702509
  0
VERTEX
  8
parque_municipal
 10
-9.337136
 20
38.702477
  0
VERTEX
  8
parque_municipal
 10
-9.337114
 20
38.702453
  0
VERTEX
  8
parque_municipal
 10
-9.337121
 20
38.702398
  0
VERTEX
  8
parque_municipal
 10
-9.337152
 20
38.702414
  0
VERTEX
  8
parque_municipal
 10
-9.337268
 20
38.702445
  0
VERTEX
  8
parque_municipal
 10
-9.337347
 20
38.702466
  0
VERTEX
  8
parque_municipal
 10
-9.337504
 20
38.702499
  0
VERTEX
  8
parque_municipal
 10
-9.337657
 20
38.702537
  0
VERTEX
  8
parque_municipal
 10
-9.337641
 20
38.702573
  0
VERTEX
  8
parque_municipal
 10
-9.337813
 20
38.702615
  0
VERTEX
  8
parque_municipal
 10
-9.337812
 20
38.702617
  0
VERTEX
  8
parque_municipal
 10
-9.337998
 20
38.702661
  0
VERTEX
  8
parque_municipal
 10
-9.338185
 20
38.702706
  0
VERTEX
  8
parque_municipal
 10
-9.338189
 20
38.702737
  0
VERTEX
  8
parque_municipal
 10
-9.338187
 20
38.702862
  0
VERTEX
  8
parque_municipal
 10
-9.338179
 20
38.702951
  0
VERTEX
  8
parque_municipal
 10
-9.338174
 20
38.703106
  0
VERTEX
  8
parque_municipal
 10
-9.338174
 20
38.703148
  0
VERTEX
  8
parque_municipal
 10
-9.338143
 20
38.703197
  0
VERTEX
  8
parque_municipal
 10
-9.338096
 20
38.703282
  0
VERTEX
  8
parque_municipal
 10
-9.338106
 20
38.703282
  0
VERTEX
  8
parque_municipal
 10
-9.338108
 20
38.703276
  0
VERTEX
  8
parque_municipal
 10
-9.338253
 20
38.703270
  0
VERTEX
  8
parque_municipal
 10
-9.338351
 20
38.703265
  0
VERTEX
  8
parque_municipal
 10
-9.338351
 20
38.703267
  0
VERTEX
  8
parque_municipal
 10
-9.338419
 20
38.703263
  0
VERTEX
  8
parque_municipal
 10
-9.338441
 20
38.703262
  0
VERTEX
  8
parque_municipal
 10
-9.338631
 20
38.703250
  0
VERTEX
  8
parque_municipal
 10
-9.338642
 20
38.703304
  0
VERTEX
  8
parque_municipal
 10
-9.338660
 20
38.703369
  0
VERTEX
  8
parque_municipal
 10
-9.338674
 20
38.703418
  0
VERTEX
  8
parque_municipal
 10
-9.338712
 20
38.703512
  0
VERTEX
  8
parque_municipal
 10
-9.338749
 20
38.703599
  0
VERTEX
  8
parque_municipal
 10
-9.338806
 20
38.703726
  0
VERTEX
  8
parque_municipal
 10
-9.338840
 20
38.703805
  0
VERTEX
  8
parque_municipal
 10
-9.338843
 20
38.703818
  0
VERTEX
  8
parque_municipal
 10
-9.338844
 20
38.703831
  0
VERTEX
  8
parque_municipal
 10
-9.338844
 20
38.703843
  0
VERTEX
  8
parque_municipal
 10
-9.338842
 20
38.703859
  0
VERTEX
  8
parque_municipal
 10
-9.338837
 20
38.703874
  0
VERTEX
  8
parque_municipal
 10
-9.338831
 20
38.703886
  0
VERTEX
  8
parque_municipal
 10
-9.338825
 20
38.703897
  0
VERTEX
  8
parque_municipal
 10
-9.338821
 20
38.703902
  0
VERTEX
  8
parque_municipal
 10
-9.338777
 20
38.703944
  0
VERTEX
  8
parque_municipal
 10
-9.338699
 20
38.703996
  0
SEQEND
  0
POINT
  8
parque_municipal
  6
BYLAYER
 10
-9.337991
 20
38.703109
 50
0.000000
  0
POLYLINE
  8
parque_municipal
  6
BYLAYER
 66
1
 70
1
 40
0.000000
 41
0.000000
  0
VERTEX
  8
parque_municipal
 10
-9.419842
 20
38.706388
  0
VERTEX
  8
parque_municipal
 10
-9.419958
 20
38.706296
  0
VERTEX
  8
parque_municipal
 10
-9.420189
 20
38.706114
  0
VERTEX
  8
parque_municipal
 10
-9.420354
 20
38.705985
  0
VERTEX
  8
parque_municipal
 10
-9.420470
 20
38.705893
  0
VERTEX
  8
parque_municipal
 10
-9.420691
 20
38.705719
  0
VERTEX
  8
parque_municipal
 10
-9.420704
 20
38.705726
  0
VERTEX
  8
parque_municipal
 10
-9.420791
 20
38.705777
  0
VERTEX
  8
parque_municipal
 10
-9.420907
 20
38.705843
  0
VERTEX
  8
parque_municipal
 10
-9.420919
 20
38.705850
  0
VERTEX
  8
parque_municipal
 10
-9.420940
 20
38.705861
  0
VERTEX
  8
parque_municipal
 10
-9.421050
 20
38.705920
  0
VERTEX
  8
parque_municipal
 10
-9.421061
 20
38.705924
  0
VERTEX
  8
parque_municipal
 10
-9.421075
 20
38.705926
  0
VERTEX
  8
parque_municipal
 10
-9.421095
 20
38.705927
  0
VERTEX
  8
parque_municipal
 10
-9.421248
 20
38.705921
  0
VERTEX
  8
parque_municipal
 10
-9.421323
 20
38.705937
  0
VERTEX
  8
parque_municipal
 10
-9.421337
 20
38.705934
  0
VERTEX
  8
parque_municipal
 10
-9.421447
 20
38.705902
  0
VERTEX
  8
parque_municipal
 10
-9.421494
 20
38.705991
  0
VERTEX
  8
parque_municipal
 10
-9.421535
 20
38.706170
  0
VERTEX
  8
parque_municipal
 10
-9.421528
 20
38.706353
  0
VERTEX
  8
parque_municipal
 10
-9.421511
 20
38.706441
  0
VERTEX
  8
parque_municipal
 10
-9.421490
 20
38.706537
  0
VERTEX
  8
parque_municipal
 10
-9.421488
 20
38.706545
  0
VERTEX
  8
parque_municipal
 10
-9.421464
 20
38.706628
  0
VERTEX
  8
parque_municipal
 10
-9.421458
 20
38.706652
  0
VERTEX
  8
parque_municipal
 10
-9.421448
 20
38.706685
  0
VERTEX
  8
parque_municipal
 10
-9.421444
 20
38.706697
  0
VERTEX
  8
parque_municipal
 10
-9.421441
 20
38.706705
  0
VERTEX
  8
parque_municipal
 10
-9.421504
 20
38.706727
  0
VERTEX
  8
parque_municipal
 10
-9.421554
 20
38.706745
  0
VERTEX
  8
parque_municipal
 10
-9.421619
 20
38.706765
  0
VERTEX
  8
parque_municipal
 10
-9.421690
 20
38.706789
  0
VERTEX
  8
parque_municipal
 10
-9.421871
 20
38.706846
  0
VERTEX
  8
parque_municipal
 10
-9.421885
 20
38.706856
  0
VERTEX
  8
parque_municipal
 10
-9.421860
 20
38.706926
  0
VERTEX
  8
parque_municipal
 10
-9.421836
 20
38.706983
  0
VERTEX
  8
parque_municipal
 10
-9.421802
 20
38.707043
  0
VERTEX
  8
parque_municipal
 10
-9.421780
 20
38.707079
  0
VERTEX
  8
parque_municipal
 10
-9.421746
 20
38.707125
  0
VERTEX
  8
parque_municipal
 10
-9.421691
 20
38.707182
  0
VERTEX
  8
parque_municipal
 10
-9.421645
 20
38.707228
  0
VERTEX
  8
parque_municipal
 10
-9.421610
 20
38.707260
  0
VERTEX
  8
parque_municipal
 10
-9.421574
 20
38.707292
  0
VERTEX
  8
parque_municipal
 10
-9.421535
 20
38.707321
  0
VERTEX
  8
parque_municipal
 10
-9.421494
 20
38.707349
  0
VERTEX
  8
parque_municipal
 10
-9.421460
 20
38.707370
  0
VERTEX
  8
parque_municipal
 10
-9.421434
 20
38.707385
  0
VERTEX
  8
parque_municipal
 10
-9.421407
 20
38.707400
  0
VERTEX
  8
parque_municipal
 10
-9.421357
 20
38.707425
  0
VERTEX
  8
parque_municipal
 10
-9.421318
 20
38.707441
  0
VERTEX
  8
parque_municipal
 10
-9.421285
 20
38.707452
  0
VERTEX
  8
parque_municipal
 10
-9.421258
 20
38.707460
  0
VERTEX
  8
parque_municipal
 10
-9.421145
 20
38.707501
  0
VERTEX
  8
parque_municipal
 10
-9.421120
 20
38.707511
  0
VERTEX
  8
parque_municipal
 10
-9.421061
 20
38.707536
  0
VERTEX
  8
parque_municipal
 10
-9.421009
 20
38.707558
  0
VERTEX
  8
parque_municipal
 10
-9.420928
 20
38.707593
  0
VERTEX
  8
parque_municipal
 10
-9.420855
 20
38.707624
  0
VERTEX
  8
parque_municipal
 10
-9.420764
 20
38.707658
  0
VERTEX
  8
parque_municipal
 10
-9.420744
 20
38.707666
  0
VERTEX
  8
parque_municipal
 10
-9.420711
 20
38.707677
  0
VERTEX
  8
parque_municipal
 10
-9.420695
 20
38.707683
  0
VERTEX
  8
parque_municipal
 10
-9.420679
 20
38.707689
  0
VERTEX
  8
parque_municipal
 10
-9.420663
 20
38.707694
  0
VERTEX
  8
parque_municipal
 10
-9.420646
 20
38.707700
  0
VERTEX
  8
parque_municipal
 10
-9.420630
 20
38.707705
  0
VERTEX
  8
parque_municipal
 10
-9.420614
 20
38.707710
  0
VERTEX
  8
parque_municipal
 10
-9.420597
 20
38.707716
  0
VERTEX
  8
parque_municipal
 10
-9.420581
 20
38.707721
  0
VERTEX
  8
parque_municipal
 10
-9.420564
 20
38.707726
  0
VERTEX
  8
parque_municipal
 10
-9.420548
 20
38.707731
  0
VERTEX
  8
parque_municipal
 10
-9.420531
 20
38.707736
  0
VERTEX
  8
parque_municipal
 10
-9.420515
 20
38.707741
  0
VERTEX
  8
parque_municipal
 10
-9.420498
 20
38.707746
  0
VERTEX
  8
parque_municipal
 10
-9.420492
 20
38.707748
  0
VERTEX
  8
parque_municipal
 10
-9.420392
 20
38.707776
  0
VERTEX
  8
parque_municipal
 10
-9.420380
 20
38.707779
  0
VERTEX
  8
parque_municipal
 10
-9.420368
 20
38.707782
  0
VERTEX
  8
parque_municipal
 10
-9.420355
 20
38.707785
  0
VERTEX
  8
parque_municipal
 10
-9.420343
 20
38.707788
  0
VERTEX
  8
parque_municipal
 10
-9.420330
 20
38.707791
  0
VERTEX
  8
parque_municipal
 10
-9.420318
 20
38.707794
  0
VERTEX
  8
parque_municipal
 10
-9.420305
 20
38.707796
  0
VERTEX
  8
parque_municipal
 10
-9.420293
 20
38.707799
  0
VERTEX
  8
parque_municipal
 10
-9.420281
 20
38.707802
  0
VERTEX
  8
parque_municipal
 10
-9.420277
 20
38.707802
  0
VERTEX
  8
parque_municipal
 10
-9.420273
 20
38.707803
  0
VERTEX
  8
parque_municipal
 10
-9.420270
 20
38.707803
  0
VERTEX
  8
parque_municipal
 10
-9.420266
 20
38.707804
  0
VERTEX
  8
parque_municipal
 10
-9.420262
 20
38.707804
  0
VERTEX
  8
parque_municipal
 10
-9.420258
 20
38.707804
  0
VERTEX
  8
parque_municipal
 10
-9.420254
 20
38.707805
  0
VERTEX
  8
parque_municipal
 10
-9.420251
 20
38.707805
  0
VERTEX
  8
parque_municipal
 10
-9.420247
 20
38.707805
  0
VERTEX
  8
parque_municipal
 10
-9.420243
 20
38.707805
  0
VERTEX
  8
parque_municipal
 10
-9.420239
 20
38.707805
  0
VERTEX
  8
parque_municipal
 10
-9.420236
 20
38.707805
  0
VERTEX
  8
parque_municipal
 10
-9.420232
 20
38.707805
  0
VERTEX
  8
parque_municipal
 10
-9.420228
 20
38.707804
  0
VERTEX
  8
parque_municipal
 10
-9.420225
 20
38.707804
  0
VERTEX
  8
parque_municipal
 10
-9.420222
 20
38.707804
  0
VERTEX
  8
parque_municipal
 10
-9.420219
 20
38.707803
  0
VERTEX
  8
parque_municipal
 10
-9.420216
 20
38.707803
  0
VERTEX
  8
parque_municipal
 10
-9.420213
 20
38.707803
  0
VERTEX
  8
parque_municipal
 10
-9.420210
 20
38.707802
  0
VERTEX
  8
parque_municipal
 10
-9.420207
 20
38.707801
  0
VERTEX
  8
parque_municipal
 10
-9.420204
 20
38.707800
  0
VERTEX
  8
parque_municipal
 10
-9.420202
 20
38.707800
  0
VERTEX
  8
parque_municipal
 10
-9.420199
 20
38.707799
  0
VERTEX
  8
parque_municipal
 10
-9.420196
 20
38.707798
  0
VERTEX
  8
parque_municipal
 10
-9.420193
 20
38.707797
  0
VERTEX
  8
parque_municipal
 10
-9.420190
 20
38.707796
  0
VERTEX
  8
parque_municipal
 10
-9.420188
 20
38.707795
  0
VERTEX
  8
parque_municipal
 10
-9.420185
 20
38.707793
  0
VERTEX
  8
parque_municipal
 10
-9.420182
 20
38.707792
  0
VERTEX
  8
parque_municipal
 10
-9.420180
 20
38.707791
  0
VERTEX
  8
parque_municipal
 10
-9.420177
 20
38.707789
  0
VERTEX
  8
parque_municipal
 10
-9.420175
 20
38.707788
  0
VERTEX
  8
parque_municipal
 10
-9.420171
 20
38.707786
  0
VERTEX
  8
parque_municipal
 10
-9.420168
 20
38.707784
  0
VERTEX
  8
parque_municipal
 10
-9.420164
 20
38.707782
  0
VERTEX
  8
parque_municipal
 10
-9.420161
 20
38.707780
  0
VERTEX
  8
parque_municipal
 10
-9.420158
 20
38.707778
  0
VERTEX
  8
parque_municipal
 10
-9.420154
 20
38.707775
  0
VERTEX
  8
parque_municipal
 10
-9.420151
 20
38.707773
  0
VERTEX
  8
parque_municipal
 10
-9.420148
 20
38.707771
  0
VERTEX
  8
parque_municipal
 10
-9.420145
 20
38.707768
  0
VERTEX
  8
parque_municipal
 10
-9.420142
 20
38.707766
  0
VERTEX
  8
parque_municipal
 10
-9.420140
 20
38.707765
  0
VERTEX
  8
parque_municipal
 10
-9.420113
 20
38.707745
  0
VERTEX
  8
parque_municipal
 10
-9.419907
 20
38.707596
  0
VERTEX
  8
parque_municipal
 10
-9.419789
 20
38.707511
  0
VERTEX
  8
parque_municipal
 10
-9.419707
 20
38.707451
  0
VERTEX
  8
parque_municipal
 10
-9.419671
 20
38.707424
  0
VERTEX
  8
parque_municipal
 10
-9.419611
 20
38.707381
  0
VERTEX
  8
parque_municipal
 10
-9.419583
 20
38.707359
  0
VERTEX
  8
parque_municipal
 10
-9.419574
 20
38.707351
  0
VERTEX
  8
parque_municipal
 10
-9.419562
 20
38.707341
  0
VERTEX
  8
parque_municipal
 10
-9.419548
 20
38.707329
  0
VERTEX
  8
parque_municipal
 10
-9.419536
 20
38.707318
  0
VERTEX
  8
parque_municipal
 10
-9.419522
 20
38.707303
  0
VERTEX
  8
parque_municipal
 10
-9.419480
 20
38.707253
  0
VERTEX
  8
parque_municipal
 10
-9.419466
 20
38.707235
  0
VERTEX
  8
parque_municipal
 10
-9.419461
 20
38.707226
  0
VERTEX
  8
parque_municipal
 10
-9.419450
 20
38.707207
  0
VERTEX
  8
parque_municipal
 10
-9.419445
 20
38.707198
  0
VERTEX
  8
parque_municipal
 10
-9.419440
 20
38.707189
  0
VERTEX
  8
parque_municipal
 10
-9.419435
 20
38.707180
  0
VERTEX
  8
parque_municipal
 10
-9.419431
 20
38.707170
  0
VERTEX
  8
parque_municipal
 10
-9.419427
 20
38.707161
  0
VERTEX
  8
parque_municipal
 10
-9.419424
 20
38.707153
  0
VERTEX
  8
parque_municipal
 10
-9.419420
 20
38.707140
  0
VERTEX
  8
parque_municipal
 10
-9.419416
 20
38.707124
  0
VERTEX
  8
parque_municipal
 10
-9.419412
 20
38.707108
  0
VERTEX
  8
parque_municipal
 10
-9.419411
 20
38.707100
  0
VERTEX
  8
parque_municipal
 10
-9.419408
 20
38.707061
  0
VERTEX
  8
parque_municipal
 10
-9.419406
 20
38.707040
  0
VERTEX
  8
parque_municipal
 10
-9.419405
 20
38.707020
  0
VERTEX
  8
parque_municipal
 10
-9.419405
 20
38.707011
  0
VERTEX
  8
parque_municipal
 10
-9.419407
 20
38.706977
  0
VERTEX
  8
parque_municipal
 10
-9.419407
 20
38.706968
  0
VERTEX
  8
parque_municipal
 10
-9.419409
 20
38.706958
  0
VERTEX
  8
parque_municipal
 10
-9.419412
 20
38.706936
  0
VERTEX
  8
parque_municipal
 10
-9.419415
 20
38.706921
  0
VERTEX
  8
parque_municipal
 10
-9.419423
 20
38.706892
  0
VERTEX
  8
parque_municipal
 10
-9.419428
 20
38.706874
  0
VERTEX
  8
parque_municipal
 10
-9.419435
 20
38.706854
  0
VERTEX
  8
parque_municipal
 10
-9.419451
 20
38.706809
  0
VERTEX
  8
parque_municipal
 10
-9.419460
 20
38.706791
  0
VERTEX
  8
parque_municipal
 10
-9.419475
 20
38.706764
  0
VERTEX
  8
parque_municipal
 10
-9.419506
 20
38.706709
  0
VERTEX
  8
parque_municipal
 10
-9.419519
 20
38.706687
  0
VERTEX
  8
parque_municipal
 10
-9.419527
 20
38.706675
  0
VERTEX
  8
parque_municipal
 10
-9.419542
 20
38.706655
  0
VERTEX
  8
parque_municipal
 10
-9.419564
 20
38.706629
  0
VERTEX
  8
parque_municipal
 10
-9.419572
 20
38.706619
  0
VERTEX
  8
parque_municipal
 10
-9.419593
 20
38.706597
  0
VERTEX
  8
parque_municipal
 10
-9.419613
 20
38.706577
  0
VERTEX
  8
parque_municipal
 10
-9.419637
 20
38.706554
  0
VERTEX
  8
parque_municipal
 10
-9.419683
 20
38.706514
  0
VERTEX
  8
parque_municipal
 10
-9.419711
 20
38.706491
  0
VERTEX
  8
parque_municipal
 10
-9.419750
 20
38.706460
  0
VERTEX
  8
parque_municipal
 10
-9.419820
 20
38.706405
  0
VERTEX
  8
parque_municipal
 10
-9.419842
 20
38.706388
  0
SEQEND
  0
POINT
  8
parque_municipal
  6
BYLAYER
 10
-9.420612
 20
38.706821
 50
0.000000
  0
POLYLINE
  8
parque_municipal
  6
BYLAYER
 66
1
 70
1
 40
0.000000
 41
0.000000
  0
VERTEX
  8
parque_municipal
 10
-9.448123
 20
38.727881
  0
VERTEX
  8
parque_municipal
 10
-9.448091
 20
38.727848
  0
VERTEX
  8
parque_municipal
 10
-9.447984
 20
38.727732
  0
VERTEX
  8
parque_municipal
 10
-9.447539
 20
38.727274
  0
VERTEX
  8
parque_municipal
 10
-9.447609
 20
38.727151
  0
VERTEX
  8
parque_municipal
 10
-9.447899
 20
38.727133
  0
VERTEX
  8
parque_municipal
 10
-9.447958
 20
38.727131
  0
VERTEX
  8
parque_municipal
 10
-9.448052
 20
38.727124
  0
VERTEX
  8
parque_municipal
 10
-9.448181
 20
38.727117
  0
VERTEX
  8
parque_municipal
 10
-9.448210
 20
38.727036
  0
VERTEX
  8
parque_municipal
 10
-9.448269
 20
38.726973
  0
VERTEX
  8
parque_municipal
 10
-9.448277
 20
38.726965
  0
VERTEX
  8
parque_municipal
 10
-9.448333
 20
38.726900
  0
VERTEX
  8
parque_municipal
 10
-9.448312
 20
38.726891
  0
VERTEX
  8
parque_municipal
 10
-9.448322
 20
38.726878
  0
VERTEX
  8
parque_municipal
 10
-9.448331
 20
38.726867
  0
VERTEX
  8
parque_municipal
 10
-9.448344
 20
38.726851
  0
VERTEX
  8
parque_municipal
 10
-9.448562
 20
38.726842
  0
VERTEX
  8
parque_municipal
 10
-9.448599
 20
38.726841
  0
VERTEX
  8
parque_municipal
 10
-9.448729
 20
38.726834
  0
VERTEX
  8
parque_municipal
 10
-9.448773
 20
38.726832
  0
VERTEX
  8
parque_municipal
 10
-9.448779
 20
38.726830
  0
VERTEX
  8
parque_municipal
 10
-9.448927
 20
38.726819
  0
VERTEX
  8
parque_municipal
 10
-9.448940
 20
38.726823
  0
VERTEX
  8
parque_municipal
 10
-9.448956
 20
38.726842
  0
VERTEX
  8
parque_municipal
 10
-9.448965
 20
38.726851
  0
VERTEX
  8
parque_municipal
 10
-9.448976
 20
38.726863
  0
VERTEX
  8
parque_municipal
 10
-9.448984
 20
38.726873
  0
VERTEX
  8
parque_municipal
 10
-9.449025
 20
38.726922
  0
VERTEX
  8
parque_municipal
 10
-9.449050
 20
38.726952
  0
VERTEX
  8
parque_municipal
 10
-9.449066
 20
38.726972
  0
VERTEX
  8
parque_municipal
 10
-9.449106
 20
38.727021
  0
VERTEX
  8
parque_municipal
 10
-9.449147
 20
38.727070
  0
VERTEX
  8
parque_municipal
 10
-9.449143
 20
38.727072
  0
VERTEX
  8
parque_municipal
 10
-9.449186
 20
38.727125
  0
VERTEX
  8
parque_municipal
 10
-9.449190
 20
38.727123
  0
VERTEX
  8
parque_municipal
 10
-9.449232
 20
38.727173
  0
VERTEX
  8
parque_municipal
 10
-9.449274
 20
38.727222
  0
VERTEX
  8
parque_municipal
 10
-9.449285
 20
38.727216
  0
VERTEX
  8
parque_municipal
 10
-9.449302
 20
38.727237
  0
VERTEX
  8
parque_municipal
 10
-9.449312
 20
38.727252
  0
VERTEX
  8
parque_municipal
 10
-9.449451
 20
38.727416
  0
VERTEX
  8
parque_municipal
 10
-9.449437
 20
38.727423
  0
VERTEX
  8
parque_municipal
 10
-9.449465
 20
38.727456
  0
VERTEX
  8
parque_municipal
 10
-9.449470
 20
38.727464
  0
VERTEX
  8
parque_municipal
 10
-9.449477
 20
38.727472
  0
VERTEX
  8
parque_municipal
 10
-9.449500
 20
38.727499
  0
VERTEX
  8
parque_municipal
 10
-9.449521
 20
38.727523
  0
VERTEX
  8
parque_municipal
 10
-9.449562
 20
38.727571
  0
VERTEX
  8
parque_municipal
 10
-9.449605
 20
38.727621
  0
VERTEX
  8
parque_municipal
 10
-9.449778
 20
38.727532
  0
VERTEX
  8
parque_municipal
 10
-9.449803
 20
38.727528
  0
VERTEX
  8
parque_municipal
 10
-9.449745
 20
38.727632
  0
VERTEX
  8
parque_municipal
 10
-9.449722
 20
38.727679
  0
VERTEX
  8
parque_municipal
 10
-9.449702
 20
38.727728
  0
VERTEX
  8
parque_municipal
 10
-9.449681
 20
38.727794
  0
VERTEX
  8
parque_municipal
 10
-9.449667
 20
38.727857
  0
VERTEX
  8
parque_municipal
 10
-9.449658
 20
38.727920
  0
VERTEX
  8
parque_municipal
 10
-9.449655
 20
38.727982
  0
VERTEX
  8
parque_municipal
 10
-9.449658
 20
38.728175
  0
VERTEX
  8
parque_municipal
 10
-9.448999
 20
38.728188
  0
VERTEX
  8
parque_municipal
 10
-9.448991
 20
38.728078
  0
VERTEX
  8
parque_municipal
 10
-9.448953
 20
38.728076
  0
VERTEX
  8
parque_municipal
 10
-9.448824
 20
38.728081
  0
VERTEX
  8
parque_municipal
 10
-9.448804
 20
38.728081
  0
VERTEX
  8
parque_municipal
 10
-9.448805
 20
38.728071
  0
VERTEX
  8
parque_municipal
 10
-9.448800
 20
38.727966
  0
VERTEX
  8
parque_municipal
 10
-9.448771
 20
38.727951
  0
VERTEX
  8
parque_municipal
 10
-9.448732
 20
38.727926
  0
VERTEX
  8
parque_municipal
 10
-9.448651
 20
38.727876
  0
VERTEX
  8
parque_municipal
 10
-9.448627
 20
38.727862
  0
VERTEX
  8
parque_municipal
 10
-9.448599
 20
38.727850
  0
VERTEX
  8
parque_municipal
 10
-9.448486
 20
38.727785
  0
VERTEX
  8
parque_municipal
 10
-9.448407
 20
38.727740
  0
VERTEX
  8
parque_municipal
 10
-9.448380
 20
38.727724
  0
VERTEX
  8
parque_municipal
 10
-9.448373
 20
38.727720
  0
VERTEX
  8
parque_municipal
 10
-9.448358
 20
38.727711
  0
VERTEX
  8
parque_municipal
 10
-9.448343
 20
38.727702
  0
VERTEX
  8
parque_municipal
 10
-9.448316
 20
38.727730
  0
VERTEX
  8
parque_municipal
 10
-9.448320
 20
38.727732
  0
VERTEX
  8
parque_municipal
 10
-9.448309
 20
38.727744
  0
VERTEX
  8
parque_municipal
 10
-9.448294
 20
38.727762
  0
VERTEX
  8
parque_municipal
 10
-9.448275
 20
38.727775
  0
VERTEX
  8
parque_municipal
 10
-9.448189
 20
38.727835
  0
VERTEX
  8
parque_municipal
 10
-9.448172
 20
38.727847
  0
VERTEX
  8
parque_municipal
 10
-9.448159
 20
38.727857
  0
VERTEX
  8
parque_municipal
 10
-9.448123
 20
38.727881
  0
SEQEND
  0
POINT
  8
parque_municipal
  6
BYLAYER
 10
-9.448745
 20
38.727498
 50
0.000000
  0
POLYLINE
  8
parque_municipal
  6
BYLAYER
 66
1
 70
1
 40
0.000000
 41
0.000000
  0
VERTEX
  8
parque_municipal
 10
-9.360115
 20
38.707792
  0
VERTEX
  8
parque_municipal
 10
-9.360195
 20
38.707800
  0
VERTEX
  8
parque_municipal
 10
-9.360173
 20
38.707851
  0
VERTEX
  8
parque_municipal
 10
-9.360077
 20
38.708450
  0
VERTEX
  8
parque_municipal
 10
-9.360017
 20
38.708753
  0
VERTEX
  8
parque_municipal
 10
-9.359905
 20
38.708727
  0
VERTEX
  8
parque_municipal
 10
-9.359669
 20
38.708679
  0
VERTEX
  8
parque_municipal
 10
-9.359421
 20
38.708550
  0
VERTEX
  8
parque_municipal
 10
-9.359379
 20
38.708520
  0
VERTEX
  8
parque_municipal
 10
-9.359296
 20
38.708461
  0
VERTEX
  8
parque_municipal
 10
-9.359249
 20
38.708429
  0
VERTEX
  8
parque_municipal
 10
-9.359189
 20
38.708388
  0
VERTEX
  8
parque_municipal
 10
-9.359074
 20
38.708312
  0
VERTEX
  8
parque_municipal
 10
-9.359051
 20
38.708297
  0
VERTEX
  8
parque_municipal
 10
-9.358994
 20
38.708461
  0
VERTEX
  8
parque_municipal
 10
-9.358971
 20
38.708529
  0
VERTEX
  8
parque_municipal
 10
-9.358969
 20
38.708529
  0
VERTEX
  8
parque_municipal
 10
-9.358937
 20
38.708620
  0
VERTEX
  8
parque_municipal
 10
-9.358917
 20
38.708675
  0
VERTEX
  8
parque_municipal
 10
-9.358887
 20
38.708764
  0
VERTEX
  8
parque_municipal
 10
-9.358839
 20
38.708893
  0
VERTEX
  8
parque_municipal
 10
-9.358791
 20
38.709024
  0
VERTEX
  8
parque_municipal
 10
-9.358772
 20
38.709081
  0
VERTEX
  8
parque_municipal
 10
-9.358748
 20
38.709143
  0
VERTEX
  8
parque_municipal
 10
-9.358705
 20
38.709266
  0
VERTEX
  8
parque_municipal
 10
-9.358662
 20
38.709387
  0
VERTEX
  8
parque_municipal
 10
-9.358611
 20
38.709533
  0
VERTEX
  8
parque_municipal
 10
-9.358332
 20
38.709509
  0
VERTEX
  8
parque_municipal
 10
-9.358429
 20
38.709206
  0
VERTEX
  8
parque_municipal
 10
-9.358561
 20
38.709231
  0
VERTEX
  8
parque_municipal
 10
-9.358591
 20
38.709233
  0
VERTEX
  8
parque_municipal
 10
-9.358611
 20
38.709233
  0
VERTEX
  8
parque_municipal
 10
-9.358636
 20
38.709230
  0
VERTEX
  8
parque_municipal
 10
-9.358666
 20
38.709219
  0
VERTEX
  8
parque_municipal
 10
-9.358686
 20
38.709206
  0
VERTEX
  8
parque_municipal
 10
-9.358692
 20
38.709201
  0
VERTEX
  8
parque_municipal
 10
-9.358701
 20
38.709191
  0
VERTEX
  8
parque_municipal
 10
-9.358715
 20
38.709164
  0
VERTEX
  8
parque_municipal
 10
-9.358720
 20
38.709149
  0
VERTEX
  8
parque_municipal
 10
-9.358720
 20
38.709134
  0
VERTEX
  8
parque_municipal
 10
-9.358718
 20
38.709125
  0
VERTEX
  8
parque_municipal
 10
-9.358714
 20
38.709112
  0
VERTEX
  8
parque_municipal
 10
-9.358710
 20
38.709103
  0
VERTEX
  8
parque_municipal
 10
-9.358702
 20
38.709090
  0
VERTEX
  8
parque_municipal
 10
-9.358695
 20
38.709083
  0
VERTEX
  8
parque_municipal
 10
-9.358660
 20
38.709061
  0
VERTEX
  8
parque_municipal
 10
-9.358465
 20
38.709018
  0
VERTEX
  8
parque_municipal
 10
-9.358469
 20
38.709006
  0
VERTEX
  8
parque_municipal
 10
-9.358483
 20
38.708966
  0
VERTEX
  8
parque_municipal
 10
-9.358535
 20
38.708808
  0
VERTEX
  8
parque_municipal
 10
-9.358549
 20
38.708760
  0
VERTEX
  8
parque_municipal
 10
-9.358726
 20
38.708793
  0
VERTEX
  8
parque_municipal
 10
-9.358753
 20
38.708795
  0
VERTEX
  8
parque_municipal
 10
-9.358846
 20
38.708533
  0
VERTEX
  8
parque_municipal
 10
-9.358820
 20
38.708526
  0
VERTEX
  8
parque_municipal
 10
-9.358621
 20
38.708482
  0
VERTEX
  8
parque_municipal
 10
-9.358590
 20
38.708476
  0
VERTEX
  8
parque_municipal
 10
-9.358607
 20
38.708421
  0
VERTEX
  8
parque_municipal
 10
-9.358600
 20
38.708420
  0
VERTEX
  8
parque_municipal
 10
-9.358631
 20
38.708325
  0
VERTEX
  8
parque_municipal
 10
-9.358647
 20
38.708339
  0
VERTEX
  8
parque_municipal
 10
-9.358662
 20
38.708346
  0
VERTEX
  8
parque_municipal
 10
-9.358691
 20
38.708353
  0
VERTEX
  8
parque_municipal
 10
-9.358719
 20
38.708353
  0
VERTEX
  8
parque_municipal
 10
-9.358744
 20
38.708346
  0
VERTEX
  8
parque_municipal
 10
-9.358756
 20
38.708340
  0
VERTEX
  8
parque_municipal
 10
-9.358772
 20
38.708327
  0
VERTEX
  8
parque_municipal
 10
-9.358783
 20
38.708312
  0
VERTEX
  8
parque_municipal
 10
-9.358787
 20
38.708306
  0
VERTEX
  8
parque_municipal
 10
-9.358790
 20
38.708295
  0
VERTEX
  8
parque_municipal
 10
-9.358790
 20
38.708280
  0
VERTEX
  8
parque_municipal
 10
-9.358787
 20
38.708269
  0
VERTEX
  8
parque_municipal
 10
-9.358780
 20
38.708255
  0
VERTEX
  8
parque_municipal
 10
-9.358771
 20
38.708245
  0
VERTEX
  8
parque_municipal
 10
-9.358760
 20
38.708236
  0
VERTEX
  8
parque_municipal
 10
-9.358736
 20
38.708223
  0
VERTEX
  8
parque_municipal
 10
-9.358578
 20
38.708193
  0
VERTEX
  8
parque_municipal
 10
-9.358576
 20
38.708192
  0
VERTEX
  8
parque_municipal
 10
-9.358576
 20
38.708190
  0
VERTEX
  8
parque_municipal
 10
-9.358591
 20
38.708148
  0
VERTEX
  8
parque_municipal
 10
-9.358627
 20
38.708170
  0
VERTEX
  8
parque_municipal
 10
-9.358656
 20
38.708138
  0
VERTEX
  8
parque_municipal
 10
-9.358660
 20
38.708133
  0
VERTEX
  8
parque_municipal
 10
-9.358663
 20
38.708129
  0
VERTEX
  8
parque_municipal
 10
-9.358666
 20
38.708126
  0
VERTEX
  8
parque_municipal
 10
-9.358679
 20
38.708112
  0
VERTEX
  8
parque_municipal
 10
-9.358679
 20
38.708101
  0
VERTEX
  8
parque_municipal
 10
-9.358679
 20
38.707995
  0
VERTEX
  8
parque_municipal
 10
-9.358682
 20
38.707952
  0
VERTEX
  8
parque_municipal
 10
-9.358682
 20
38.707905
  0
VERTEX
  8
parque_municipal
 10
-9.358680
 20
38.707827
  0
VERTEX
  8
parque_municipal
 10
-9.358682
 20
38.707725
  0
VERTEX
  8
parque_municipal
 10
-9.358682
 20
38.707691
  0
VERTEX
  8
parque_municipal
 10
-9.358685
 20
38.707657
  0
VERTEX
  8
parque_municipal
 10
-9.358688
 20
38.707623
  0
VERTEX
  8
parque_municipal
 10
-9.358690
 20
38.707585
  0
VERTEX
  8
parque_municipal
 10
-9.358690
 20
38.707558
  0
VERTEX
  8
parque_municipal
 10
-9.358699
 20
38.707460
  0
VERTEX
  8
parque_municipal
 10
-9.358697
 20
38.707426
  0
VERTEX
  8
parque_municipal
 10
-9.358696
 20
38.707415
  0
VERTEX
  8
parque_municipal
 10
-9.358694
 20
38.707398
  0
VERTEX
  8
parque_municipal
 10
-9.358697
 20
38.707398
  0
VERTEX
  8
parque_municipal
 10
-9.358693
 20
38.707379
  0
VERTEX
  8
parque_municipal
 10
-9.358680
 20
38.707312
  0
VERTEX
  8
parque_municipal
 10
-9.358677
 20
38.707280
  0
VERTEX
  8
parque_municipal
 10
-9.358639
 20
38.707283
  0
VERTEX
  8
parque_municipal
 10
-9.358433
 20
38.707296
  0
VERTEX
  8
parque_municipal
 10
-9.358414
 20
38.707263
  0
VERTEX
  8
parque_municipal
 10
-9.358398
 20
38.707227
  0
VERTEX
  8
parque_municipal
 10
-9.358382
 20
38.707163
  0
VERTEX
  8
parque_municipal
 10
-9.358378
 20
38.707127
  0
VERTEX
  8
parque_municipal
 10
-9.358381
 20
38.707090
  0
VERTEX
  8
parque_municipal
 10
-9.358392
 20
38.707017
  0
VERTEX
  8
parque_municipal
 10
-9.358412
 20
38.706974
  0
VERTEX
  8
parque_municipal
 10
-9.358414
 20
38.706911
  0
VERTEX
  8
parque_municipal
 10
-9.358411
 20
38.706902
  0
VERTEX
  8
parque_municipal
 10
-9.358410
 20
38.706888
  0
VERTEX
  8
parque_municipal
 10
-9.358411
 20
38.706878
  0
VERTEX
  8
parque_municipal
 10
-9.358414
 20
38.706870
  0
VERTEX
  8
parque_municipal
 10
-9.358420
 20
38.706863
  0
VERTEX
  8
parque_municipal
 10
-9.358429
 20
38.706857
  0
VERTEX
  8
parque_municipal
 10
-9.358438
 20
38.706853
  0
VERTEX
  8
parque_municipal
 10
-9.358451
 20
38.706851
  0
VERTEX
  8
parque_municipal
 10
-9.358470
 20
38.706853
  0
VERTEX
  8
parque_municipal
 10
-9.358534
 20
38.706864
  0
VERTEX
  8
parque_municipal
 10
-9.358640
 20
38.706885
  0
VERTEX
  8
parque_municipal
 10
-9.358732
 20
38.706900
  0
VERTEX
  8
parque_municipal
 10
-9.359109
 20
38.706944
  0
VERTEX
  8
parque_municipal
 10
-9.359314
 20
38.706977
  0
VERTEX
  8
parque_municipal
 10
-9.359429
 20
38.707004
  0
VERTEX
  8
parque_municipal
 10
-9.359647
 20
38.707069
  0
VERTEX
  8
parque_municipal
 10
-9.359884
 20
38.707140
  0
VERTEX
  8
parque_municipal
 10
-9.360000
 20
38.707175
  0
VERTEX
  8
parque_municipal
 10
-9.360034
 20
38.707185
  0
VERTEX
  8
parque_municipal
 10
-9.360127
 20
38.707212
  0
VERTEX
  8
parque_municipal
 10
-9.359842
 20
38.707790
  0
VERTEX
  8
parque_municipal
 10
-9.360115
 20
38.707792
  0
SEQEND
  0
POINT
  8
parque_municipal
  6
BYLAYER
 10
-9.359271
 20
38.707873
 50
0.000000
  0
ENDSEC
  0
EOF
