  0
SECTION
  2
HEADER
  9
$LTSCALE
 40
1.000000
  9
$LUNITS
 70
2
  9
$LUPREC
 70
4
  9
$AUNITS
 70
1
  9
$AUPREC
 70
4
  9
$FILLMODE
 70
1
  0
ENDSEC
  0
SECTION
  2
TABLES
  0
TABLE
  2
VPORT
 70
0
  0
ENDTAB
  0
TABLE
  2
LTYPE
 70
1
  0
LTYPE
  2
CONTINUOUS
 70
64
  3
Solid line
 72
65
 73
0
 40
0.000000
  0
ENDTAB
  0
TABLE
  2
LAYER
 70
1
  0
LAYER
  2
0
 62
1
  6
CONTINUOUS
 70
64
  0
ENDTAB
  0
TABLE
  2
STYLE
 70
1
  0
STYLE
  2
STANDARD
 70
64
 40
0.000000
 41
1.000000
 50
0.000000
 71
0
 42
2.000000
  3
txt
  4

  0
ENDTAB
  0
TABLE
  2
VIEW
 70
0
  0
ENDTAB
  0
TABLE
  2
UCS
 70
0
  0
ENDTAB
  0
TABLE
  2
APPID
 70
0
  0
ENDTAB
  0
TABLE
  2
DIMSTYLE
 70
1
  0
DIMSTYLE
  2
STANDARD
 70
0
  3

  4

  5

  6

  7

 40
1.000000
 41
3.000000
 42
2.500000
 43
10.000000
 44
2.500000
 45
0.000000
 46
1.250000
 47
0.000000
 48
0.000000
140
3.000000
141
-3.000000
142
0.000000
143
0.039000
144
1.000000
145
1.500000
146
0.750000
147
1.500000
 71
0
 72
0
 73
0
 74
0
 75
0
 76
0
 77
0
 78
0
170
0
171
0
172
0
173
0
174
0
175
0
176
0
177
0
178
0
  0
ENDTAB
  0
ENDSEC
  0
SECTION
  2
ENTITIES
  0
POLYLINE
  8
praia
  6
BYLAYER
 66
1
 70
1
 40
0.000000
 41
0.000000
  0
VERTEX
  8
praia
 10
-9.416026
 20
38.700569
  0
VERTEX
  8
praia
 10
-9.415994
 20
38.700558
  0
VERTEX
  8
praia
 10
-9.415920
 20
38.700559
  0
VERTEX
  8
praia
 10
-9.415915
 20
38.700561
  0
VERTEX
  8
praia
 10
-9.415815
 20
38.700397
  0
VERTEX
  8
praia
 10
-9.415840
 20
38.700392
  0
VERTEX
  8
praia
 10
-9.415881
 20
38.700384
  0
VERTEX
  8
praia
 10
-9.415920
 20
38.700373
  0
VERTEX
  8
praia
 10
-9.416001
 20
38.700347
  0
VERTEX
  8
praia
 10
-9.416042
 20
38.700336
  0
VERTEX
  8
praia
 10
-9.416083
 20
38.700327
  0
VERTEX
  8
praia
 10
-9.416121
 20
38.700316
  0
VERTEX
  8
praia
 10
-9.416199
 20
38.700287
  0
VERTEX
  8
praia
 10
-9.416240
 20
38.700274
  0
VERTEX
  8
praia
 10
-9.416281
 20
38.700264
  0
VERTEX
  8
praia
 10
-9.416345
 20
38.700247
  0
VERTEX
  8
praia
 10
-9.416426
 20
38.700223
  0
VERTEX
  8
praia
 10
-9.416469
 20
38.700211
  0
VERTEX
  8
praia
 10
-9.416550
 20
38.700190
  0
VERTEX
  8
praia
 10
-9.416626
 20
38.700172
  0
VERTEX
  8
praia
 10
-9.416665
 20
38.700162
  0
VERTEX
  8
praia
 10
-9.416704
 20
38.700151
  0
VERTEX
  8
praia
 10
-9.416772
 20
38.700129
  0
VERTEX
  8
praia
 10
-9.416806
 20
38.700121
  0
VERTEX
  8
praia
 10
-9.416842
 20
38.700113
  0
VERTEX
  8
praia
 10
-9.416878
 20
38.700103
  0
VERTEX
  8
praia
 10
-9.416911
 20
38.700086
  0
VERTEX
  8
praia
 10
-9.416939
 20
38.700066
  0
VERTEX
  8
praia
 10
-9.416961
 20
38.700046
  0
VERTEX
  8
praia
 10
-9.416977
 20
38.700025
  0
VERTEX
  8
praia
 10
-9.416986
 20
38.700001
  0
VERTEX
  8
praia
 10
-9.416993
 20
38.699959
  0
VERTEX
  8
praia
 10
-9.417002
 20
38.699907
  0
VERTEX
  8
praia
 10
-9.417002
 20
38.699906
  0
VERTEX
  8
praia
 10
-9.416994
 20
38.699862
  0
VERTEX
  8
praia
 10
-9.416991
 20
38.699843
  0
VERTEX
  8
praia
 10
-9.416990
 20
38.699826
  0
VERTEX
  8
praia
 10
-9.416997
 20
38.699807
  0
VERTEX
  8
praia
 10
-9.417012
 20
38.699833
  0
VERTEX
  8
praia
 10
-9.417068
 20
38.700049
  0
VERTEX
  8
praia
 10
-9.417196
 20
38.700141
  0
VERTEX
  8
praia
 10
-9.417037
 20
38.700252
  0
VERTEX
  8
praia
 10
-9.416866
 20
38.700374
  0
VERTEX
  8
praia
 10
-9.416861
 20
38.700348
  0
VERTEX
  8
praia
 10
-9.416816
 20
38.700368
  0
VERTEX
  8
praia
 10
-9.416825
 20
38.700393
  0
VERTEX
  8
praia
 10
-9.416507
 20
38.700617
  0
VERTEX
  8
praia
 10
-9.416388
 20
38.700676
  0
VERTEX
  8
praia
 10
-9.416095
 20
38.700625
  0
VERTEX
  8
praia
 10
-9.416057
 20
38.700580
  0
VERTEX
  8
praia
 10
-9.416026
 20
38.700569
  0
SEQEND
  0
POINT
  8
praia
  6
BYLAYER
 10
-9.416500
 20
38.700362
 50
0.629526
  0
POLYLINE
  8
praia
  6
BYLAYER
 66
1
 70
1
 40
0.000000
 41
0.000000
  0
VERTEX
  8
praia
 10
-9.390727
 20
38.701084
  0
VERTEX
  8
praia
 10
-9.390562
 20
38.701178
  0
VERTEX
  8
praia
 10
-9.390534
 20
38.701110
  0
VERTEX
  8
praia
 10
-9.390466
 20
38.700885
  0
VERTEX
  8
praia
 10
-9.390417
 20
38.700802
  0
VERTEX
  8
praia
 10
-9.390313
 20
38.700629
  0
VERTEX
  8
praia
 10
-9.389932
 20
38.700758
  0
VERTEX
  8
praia
 10
-9.389765
 20
38.700838
  0
VERTEX
  8
praia
 10
-9.389757
 20
38.700840
  0
VERTEX
  8
praia
 10
-9.389741
 20
38.700841
  0
VERTEX
  8
praia
 10
-9.389529
 20
38.700804
  0
VERTEX
  8
praia
 10
-9.389112
 20
38.700675
  0
VERTEX
  8
praia
 10
-9.389063
 20
38.700663
  0
VERTEX
  8
praia
 10
-9.389045
 20
38.700652
  0
VERTEX
  8
praia
 10
-9.389036
 20
38.700647
  0
VERTEX
  8
praia
 10
-9.389042
 20
38.700640
  0
VERTEX
  8
praia
 10
-9.389053
 20
38.700628
  0
VERTEX
  8
praia
 10
-9.389066
 20
38.700613
  0
VERTEX
  8
praia
 10
-9.389061
 20
38.700610
  0
VERTEX
  8
praia
 10
-9.389042
 20
38.700597
  0
VERTEX
  8
praia
 10
-9.389005
 20
38.700573
  0
VERTEX
  8
praia
 10
-9.388987
 20
38.700562
  0
VERTEX
  8
praia
 10
-9.388980
 20
38.700557
  0
VERTEX
  8
praia
 10
-9.388972
 20
38.700551
  0
VERTEX
  8
praia
 10
-9.388950
 20
38.700537
  0
VERTEX
  8
praia
 10
-9.388930
 20
38.700524
  0
VERTEX
  8
praia
 10
-9.388928
 20
38.700523
  0
VERTEX
  8
praia
 10
-9.388925
 20
38.700521
  0
VERTEX
  8
praia
 10
-9.388918
 20
38.700516
  0
VERTEX
  8
praia
 10
-9.388913
 20
38.700513
  0
VERTEX
  8
praia
 10
-9.388913
 20
38.700511
  0
VERTEX
  8
praia
 10
-9.388913
 20
38.700509
  0
VERTEX
  8
praia
 10
-9.388913
 20
38.700502
  0
VERTEX
  8
praia
 10
-9.388913
 20
38.700498
  0
VERTEX
  8
praia
 10
-9.388913
 20
38.700497
  0
VERTEX
  8
praia
 10
-9.388913
 20
38.700495
  0
VERTEX
  8
praia
 10
-9.388913
 20
38.700488
  0
VERTEX
  8
praia
 10
-9.388910
 20
38.700485
  0
VERTEX
  8
praia
 10
-9.388910
 20
38.700484
  0
VERTEX
  8
praia
 10
-9.388901
 20
38.700472
  0
VERTEX
  8
praia
 10
-9.388897
 20
38.700466
  0
VERTEX
  8
praia
 10
-9.388889
 20
38.700472
  0
VERTEX
  8
praia
 10
-9.388873
 20
38.700485
  0
VERTEX
  8
praia
 10
-9.388869
 20
38.700472
  0
VERTEX
  8
praia
 10
-9.388866
 20
38.700466
  0
VERTEX
  8
praia
 10
-9.388863
 20
38.700458
  0
VERTEX
  8
praia
 10
-9.388863
 20
38.700456
  0
VERTEX
  8
praia
 10
-9.388863
 20
38.700456
  0
VERTEX
  8
praia
 10
-9.388860
 20
38.700449
  0
VERTEX
  8
praia
 10
-9.388859
 20
38.700446
  0
VERTEX
  8
praia
 10
-9.388857
 20
38.700440
  0
VERTEX
  8
praia
 10
-9.388855
 20
38.700434
  0
VERTEX
  8
praia
 10
-9.388854
 20
38.700432
  0
VERTEX
  8
praia
 10
-9.388853
 20
38.700430
  0
VERTEX
  8
praia
 10
-9.388852
 20
38.700428
  0
VERTEX
  8
praia
 10
-9.388852
 20
38.700427
  0
VERTEX
  8
praia
 10
-9.388848
 20
38.700416
  0
VERTEX
  8
praia
 10
-9.388848
 20
38.700416
  0
VERTEX
  8
praia
 10
-9.388847
 20
38.700414
  0
VERTEX
  8
praia
 10
-9.388846
 20
38.700411
  0
VERTEX
  8
praia
 10
-9.388846
 20
38.700411
  0
VERTEX
  8
praia
 10
-9.388846
 20
38.700410
  0
VERTEX
  8
praia
 10
-9.388846
 20
38.700410
  0
VERTEX
  8
praia
 10
-9.388843
 20
38.700403
  0
VERTEX
  8
praia
 10
-9.388843
 20
38.700402
  0
VERTEX
  8
praia
 10
-9.388842
 20
38.700400
  0
VERTEX
  8
praia
 10
-9.388840
 20
38.700396
  0
VERTEX
  8
praia
 10
-9.388838
 20
38.700389
  0
VERTEX
  8
praia
 10
-9.388837
 20
38.700386
  0
VERTEX
  8
praia
 10
-9.388836
 20
38.700383
  0
VERTEX
  8
praia
 10
-9.388835
 20
38.700382
  0
VERTEX
  8
praia
 10
-9.388835
 20
38.700382
  0
VERTEX
  8
praia
 10
-9.388835
 20
38.700381
  0
VERTEX
  8
praia
 10
-9.388834
 20
38.700379
  0
VERTEX
  8
praia
 10
-9.388834
 20
38.700378
  0
VERTEX
  8
praia
 10
-9.388833
 20
38.700375
  0
VERTEX
  8
praia
 10
-9.388832
 20
38.700372
  0
VERTEX
  8
praia
 10
-9.388828
 20
38.700364
  0
VERTEX
  8
praia
 10
-9.388827
 20
38.700359
  0
VERTEX
  8
praia
 10
-9.388823
 20
38.700348
  0
VERTEX
  8
praia
 10
-9.388820
 20
38.700342
  0
VERTEX
  8
praia
 10
-9.388817
 20
38.700332
  0
VERTEX
  8
praia
 10
-9.388817
 20
38.700330
  0
VERTEX
  8
praia
 10
-9.388816
 20
38.700324
  0
VERTEX
  8
praia
 10
-9.388815
 20
38.700319
  0
VERTEX
  8
praia
 10
-9.388814
 20
38.700316
  0
VERTEX
  8
praia
 10
-9.388814
 20
38.700312
  0
VERTEX
  8
praia
 10
-9.388812
 20
38.700303
  0
VERTEX
  8
praia
 10
-9.388812
 20
38.700299
  0
VERTEX
  8
praia
 10
-9.388811
 20
38.700293
  0
VERTEX
  8
praia
 10
-9.388810
 20
38.700287
  0
VERTEX
  8
praia
 10
-9.388809
 20
38.700283
  0
VERTEX
  8
praia
 10
-9.388808
 20
38.700278
  0
VERTEX
  8
praia
 10
-9.388808
 20
38.700277
  0
VERTEX
  8
praia
 10
-9.388807
 20
38.700273
  0
VERTEX
  8
praia
 10
-9.388806
 20
38.700264
  0
VERTEX
  8
praia
 10
-9.388804
 20
38.700251
  0
VERTEX
  8
praia
 10
-9.388804
 20
38.700249
  0
VERTEX
  8
praia
 10
-9.388803
 20
38.700245
  0
VERTEX
  8
praia
 10
-9.388801
 20
38.700232
  0
VERTEX
  8
praia
 10
-9.388801
 20
38.700230
  0
VERTEX
  8
praia
 10
-9.388800
 20
38.700226
  0
VERTEX
  8
praia
 10
-9.388799
 20
38.700220
  0
VERTEX
  8
praia
 10
-9.388798
 20
38.700218
  0
VERTEX
  8
praia
 10
-9.388797
 20
38.700212
  0
VERTEX
  8
praia
 10
-9.388797
 20
38.700212
  0
VERTEX
  8
praia
 10
-9.388795
 20
38.700204
  0
VERTEX
  8
praia
 10
-9.388795
 20
38.700203
  0
VERTEX
  8
praia
 10
-9.388794
 20
38.700199
  0
VERTEX
  8
praia
 10
-9.388794
 20
38.700199
  0
VERTEX
  8
praia
 10
-9.388794
 20
38.700195
  0
VERTEX
  8
praia
 10
-9.388788
 20
38.700164
  0
VERTEX
  8
praia
 10
-9.388783
 20
38.700142
  0
VERTEX
  8
praia
 10
-9.388780
 20
38.700127
  0
VERTEX
  8
praia
 10
-9.388780
 20
38.700123
  0
VERTEX
  8
praia
 10
-9.388776
 20
38.700105
  0
VERTEX
  8
praia
 10
-9.388773
 20
38.700090
  0
VERTEX
  8
praia
 10
-9.388772
 20
38.700083
  0
VERTEX
  8
praia
 10
-9.388772
 20
38.700082
  0
VERTEX
  8
praia
 10
-9.388771
 20
38.700081
  0
VERTEX
  8
praia
 10
-9.388771
 20
38.700081
  0
VERTEX
  8
praia
 10
-9.388770
 20
38.700076
  0
VERTEX
  8
praia
 10
-9.388768
 20
38.700063
  0
VERTEX
  8
praia
 10
-9.388764
 20
38.700042
  0
VERTEX
  8
praia
 10
-9.388762
 20
38.700034
  0
VERTEX
  8
praia
 10
-9.388756
 20
38.700004
  0
VERTEX
  8
praia
 10
-9.388763
 20
38.699998
  0
VERTEX
  8
praia
 10
-9.388786
 20
38.699980
  0
VERTEX
  8
praia
 10
-9.388789
 20
38.699976
  0
VERTEX
  8
praia
 10
-9.388790
 20
38.699975
  0
VERTEX
  8
praia
 10
-9.388795
 20
38.699967
  0
VERTEX
  8
praia
 10
-9.388815
 20
38.699940
  0
VERTEX
  8
praia
 10
-9.388817
 20
38.699937
  0
VERTEX
  8
praia
 10
-9.388818
 20
38.699935
  0
VERTEX
  8
praia
 10
-9.388841
 20
38.699925
  0
VERTEX
  8
praia
 10
-9.388889
 20
38.699904
  0
VERTEX
  8
praia
 10
-9.388889
 20
38.699904
  0
VERTEX
  8
praia
 10
-9.388889
 20
38.699904
  0
VERTEX
  8
praia
 10
-9.388920
 20
38.699890
  0
VERTEX
  8
praia
 10
-9.388939
 20
38.699882
  0
VERTEX
  8
praia
 10
-9.388955
 20
38.699875
  0
VERTEX
  8
praia
 10
-9.388974
 20
38.699866
  0
VERTEX
  8
praia
 10
-9.388986
 20
38.699861
  0
VERTEX
  8
praia
 10
-9.389011
 20
38.699903
  0
VERTEX
  8
praia
 10
-9.389017
 20
38.699923
  0
VERTEX
  8
praia
 10
-9.389020
 20
38.699933
  0
VERTEX
  8
praia
 10
-9.389021
 20
38.699935
  0
VERTEX
  8
praia
 10
-9.389025
 20
38.699965
  0
VERTEX
  8
praia
 10
-9.389026
 20
38.699978
  0
VERTEX
  8
praia
 10
-9.389026
 20
38.699990
  0
VERTEX
  8
praia
 10
-9.389027
 20
38.700001
  0
VERTEX
  8
praia
 10
-9.389027
 20
38.700039
  0
VERTEX
  8
praia
 10
-9.389032
 20
38.700060
  0
VERTEX
  8
praia
 10
-9.389040
 20
38.700073
  0
VERTEX
  8
praia
 10
-9.389051
 20
38.700078
  0
VERTEX
  8
praia
 10
-9.389051
 20
38.700078
  0
VERTEX
  8
praia
 10
-9.389054
 20
38.700079
  0
VERTEX
  8
praia
 10
-9.389059
 20
38.700079
  0
VERTEX
  8
praia
 10
-9.389068
 20
38.700078
  0
VERTEX
  8
praia
 10
-9.389082
 20
38.700077
  0
VERTEX
  8
praia
 10
-9.389089
 20
38.700079
  0
VERTEX
  8
praia
 10
-9.389103
 20
38.700086
  0
VERTEX
  8
praia
 10
-9.389103
 20
38.700086
  0
VERTEX
  8
praia
 10
-9.389116
 20
38.700101
  0
VERTEX
  8
praia
 10
-9.389120
 20
38.700123
  0
VERTEX
  8
praia
 10
-9.389121
 20
38.700125
  0
VERTEX
  8
praia
 10
-9.389132
 20
38.700139
  0
VERTEX
  8
praia
 10
-9.389137
 20
38.700160
  0
VERTEX
  8
praia
 10
-9.389137
 20
38.700166
  0
VERTEX
  8
praia
 10
-9.389138
 20
38.700171
  0
VERTEX
  8
praia
 10
-9.389139
 20
38.700182
  0
VERTEX
  8
praia
 10
-9.389140
 20
38.700191
  0
VERTEX
  8
praia
 10
-9.389140
 20
38.700195
  0
VERTEX
  8
praia
 10
-9.389140
 20
38.700195
  0
VERTEX
  8
praia
 10
-9.389140
 20
38.700199
  0
VERTEX
  8
praia
 10
-9.389140
 20
38.700200
  0
VERTEX
  8
praia
 10
-9.389140
 20
38.700208
  0
VERTEX
  8
praia
 10
-9.389140
 20
38.700208
  0
VERTEX
  8
praia
 10
-9.389140
 20
38.700215
  0
VERTEX
  8
praia
 10
-9.389140
 20
38.700216
  0
VERTEX
  8
praia
 10
-9.389140
 20
38.700227
  0
VERTEX
  8
praia
 10
-9.389140
 20
38.700228
  0
VERTEX
  8
praia
 10
-9.389140
 20
38.700236
  0
VERTEX
  8
praia
 10
-9.389140
 20
38.700241
  0
VERTEX
  8
praia
 10
-9.389140
 20
38.700245
  0
VERTEX
  8
praia
 10
-9.389139
 20
38.700247
  0
VERTEX
  8
praia
 10
-9.389138
 20
38.700261
  0
VERTEX
  8
praia
 10
-9.389138
 20
38.700269
  0
VERTEX
  8
praia
 10
-9.389138
 20
38.700273
  0
VERTEX
  8
praia
 10
-9.389137
 20
38.700274
  0
VERTEX
  8
praia
 10
-9.389137
 20
38.700280
  0
VERTEX
  8
praia
 10
-9.389137
 20
38.700283
  0
VERTEX
  8
praia
 10
-9.389136
 20
38.700290
  0
VERTEX
  8
praia
 10
-9.389135
 20
38.700295
  0
VERTEX
  8
praia
 10
-9.389135
 20
38.700300
  0
VERTEX
  8
praia
 10
-9.389134
 20
38.700308
  0
VERTEX
  8
praia
 10
-9.389134
 20
38.700313
  0
VERTEX
  8
praia
 10
-9.389133
 20
38.700316
  0
VERTEX
  8
praia
 10
-9.389133
 20
38.700320
  0
VERTEX
  8
praia
 10
-9.389132
 20
38.700327
  0
VERTEX
  8
praia
 10
-9.389132
 20
38.700329
  0
VERTEX
  8
praia
 10
-9.389132
 20
38.700330
  0
VERTEX
  8
praia
 10
-9.389132
 20
38.700330
  0
VERTEX
  8
praia
 10
-9.389132
 20
38.700338
  0
VERTEX
  8
praia
 10
-9.389136
 20
38.700345
  0
VERTEX
  8
praia
 10
-9.389143
 20
38.700355
  0
VERTEX
  8
praia
 10
-9.389150
 20
38.700360
  0
VERTEX
  8
praia
 10
-9.389153
 20
38.700363
  0
VERTEX
  8
praia
 10
-9.389155
 20
38.700364
  0
VERTEX
  8
praia
 10
-9.389161
 20
38.700368
  0
VERTEX
  8
praia
 10
-9.389169
 20
38.700372
  0
VERTEX
  8
praia
 10
-9.389178
 20
38.700375
  0
VERTEX
  8
praia
 10
-9.389180
 20
38.700376
  0
VERTEX
  8
praia
 10
-9.389184
 20
38.700377
  0
VERTEX
  8
praia
 10
-9.389187
 20
38.700378
  0
VERTEX
  8
praia
 10
-9.389188
 20
38.700379
  0
VERTEX
  8
praia
 10
-9.389189
 20
38.700379
  0
VERTEX
  8
praia
 10
-9.389197
 20
38.700382
  0
VERTEX
  8
praia
 10
-9.389205
 20
38.700385
  0
VERTEX
  8
praia
 10
-9.389215
 20
38.700388
  0
VERTEX
  8
praia
 10
-9.389226
 20
38.700392
  0
VERTEX
  8
praia
 10
-9.389237
 20
38.700396
  0
VERTEX
  8
praia
 10
-9.389242
 20
38.700397
  0
VERTEX
  8
praia
 10
-9.389247
 20
38.700399
  0
VERTEX
  8
praia
 10
-9.389267
 20
38.700405
  0
VERTEX
  8
praia
 10
-9.389268
 20
38.700406
  0
VERTEX
  8
praia
 10
-9.389271
 20
38.700406
  0
VERTEX
  8
praia
 10
-9.389271
 20
38.700406
  0
VERTEX
  8
praia
 10
-9.389281
 20
38.700409
  0
VERTEX
  8
praia
 10
-9.389287
 20
38.700411
  0
VERTEX
  8
praia
 10
-9.389288
 20
38.700411
  0
VERTEX
  8
praia
 10
-9.389325
 20
38.700421
  0
VERTEX
  8
praia
 10
-9.389328
 20
38.700422
  0
VERTEX
  8
praia
 10
-9.389334
 20
38.700424
  0
VERTEX
  8
praia
 10
-9.389355
 20
38.700427
  0
VERTEX
  8
praia
 10
-9.389363
 20
38.700428
  0
VERTEX
  8
praia
 10
-9.389394
 20
38.700434
  0
VERTEX
  8
praia
 10
-9.389421
 20
38.700440
  0
VERTEX
  8
praia
 10
-9.389426
 20
38.700441
  0
VERTEX
  8
praia
 10
-9.389435
 20
38.700442
  0
VERTEX
  8
praia
 10
-9.389446
 20
38.700444
  0
VERTEX
  8
praia
 10
-9.389466
 20
38.700446
  0
VERTEX
  8
praia
 10
-9.389480
 20
38.700448
  0
VERTEX
  8
praia
 10
-9.389491
 20
38.700450
  0
VERTEX
  8
praia
 10
-9.389554
 20
38.700449
  0
VERTEX
  8
praia
 10
-9.389558
 20
38.700448
  0
VERTEX
  8
praia
 10
-9.389565
 20
38.700446
  0
VERTEX
  8
praia
 10
-9.389585
 20
38.700441
  0
VERTEX
  8
praia
 10
-9.389592
 20
38.700439
  0
VERTEX
  8
praia
 10
-9.389598
 20
38.700438
  0
VERTEX
  8
praia
 10
-9.389617
 20
38.700432
  0
VERTEX
  8
praia
 10
-9.389636
 20
38.700426
  0
VERTEX
  8
praia
 10
-9.389639
 20
38.700425
  0
VERTEX
  8
praia
 10
-9.389644
 20
38.700424
  0
VERTEX
  8
praia
 10
-9.389659
 20
38.700419
  0
VERTEX
  8
praia
 10
-9.389661
 20
38.700418
  0
VERTEX
  8
praia
 10
-9.389693
 20
38.700407
  0
VERTEX
  8
praia
 10
-9.389694
 20
38.700407
  0
VERTEX
  8
praia
 10
-9.389700
 20
38.700405
  0
VERTEX
  8
praia
 10
-9.389710
 20
38.700402
  0
VERTEX
  8
praia
 10
-9.389710
 20
38.700401
  0
VERTEX
  8
praia
 10
-9.389713
 20
38.700401
  0
VERTEX
  8
praia
 10
-9.389714
 20
38.700400
  0
VERTEX
  8
praia
 10
-9.389734
 20
38.700394
  0
VERTEX
  8
praia
 10
-9.389740
 20
38.700392
  0
VERTEX
  8
praia
 10
-9.389746
 20
38.700390
  0
VERTEX
  8
praia
 10
-9.389757
 20
38.700386
  0
VERTEX
  8
praia
 10
-9.389780
 20
38.700379
  0
VERTEX
  8
praia
 10
-9.389790
 20
38.700375
  0
VERTEX
  8
praia
 10
-9.389804
 20
38.700372
  0
VERTEX
  8
praia
 10
-9.389811
 20
38.700370
  0
VERTEX
  8
praia
 10
-9.389818
 20
38.700369
  0
VERTEX
  8
praia
 10
-9.389837
 20
38.700368
  0
VERTEX
  8
praia
 10
-9.389848
 20
38.700368
  0
VERTEX
  8
praia
 10
-9.389852
 20
38.700368
  0
VERTEX
  8
praia
 10
-9.389864
 20
38.700369
  0
VERTEX
  8
praia
 10
-9.389877
 20
38.700370
  0
VERTEX
  8
praia
 10
-9.389889
 20
38.700371
  0
VERTEX
  8
praia
 10
-9.389896
 20
38.700371
  0
VERTEX
  8
praia
 10
-9.389962
 20
38.700370
  0
VERTEX
  8
praia
 10
-9.389997
 20
38.700370
  0
VERTEX
  8
praia
 10
-9.390006
 20
38.700366
  0
VERTEX
  8
praia
 10
-9.390022
 20
38.700361
  0
VERTEX
  8
praia
 10
-9.390031
 20
38.700366
  0
VERTEX
  8
praia
 10
-9.390048
 20
38.700362
  0
VERTEX
  8
praia
 10
-9.390058
 20
38.700359
  0
VERTEX
  8
praia
 10
-9.390069
 20
38.700355
  0
VERTEX
  8
praia
 10
-9.390074
 20
38.700354
  0
VERTEX
  8
praia
 10
-9.390078
 20
38.700352
  0
VERTEX
  8
praia
 10
-9.390084
 20
38.700350
  0
VERTEX
  8
praia
 10
-9.390095
 20
38.700345
  0
VERTEX
  8
praia
 10
-9.390120
 20
38.700334
  0
VERTEX
  8
praia
 10
-9.390128
 20
38.700329
  0
VERTEX
  8
praia
 10
-9.390131
 20
38.700328
  0
VERTEX
  8
praia
 10
-9.390147
 20
38.700319
  0
VERTEX
  8
praia
 10
-9.390147
 20
38.700319
  0
VERTEX
  8
praia
 10
-9.390149
 20
38.700318
  0
VERTEX
  8
praia
 10
-9.390152
 20
38.700316
  0
VERTEX
  8
praia
 10
-9.390162
 20
38.700309
  0
VERTEX
  8
praia
 10
-9.390168
 20
38.700305
  0
VERTEX
  8
praia
 10
-9.390170
 20
38.700301
  0
VERTEX
  8
praia
 10
-9.390176
 20
38.700293
  0
VERTEX
  8
praia
 10
-9.390179
 20
38.700289
  0
VERTEX
  8
praia
 10
-9.390182
 20
38.700284
  0
VERTEX
  8
praia
 10
-9.390186
 20
38.700278
  0
VERTEX
  8
praia
 10
-9.390190
 20
38.700272
  0
VERTEX
  8
praia
 10
-9.390191
 20
38.700268
  0
VERTEX
  8
praia
 10
-9.390196
 20
38.700263
  0
VERTEX
  8
praia
 10
-9.390197
 20
38.700262
  0
VERTEX
  8
praia
 10
-9.390202
 20
38.700258
  0
VERTEX
  8
praia
 10
-9.390213
 20
38.700249
  0
VERTEX
  8
praia
 10
-9.390219
 20
38.700244
  0
VERTEX
  8
praia
 10
-9.390229
 20
38.700235
  0
VERTEX
  8
praia
 10
-9.390232
 20
38.700233
  0
VERTEX
  8
praia
 10
-9.390236
 20
38.700230
  0
VERTEX
  8
praia
 10
-9.390240
 20
38.700227
  0
VERTEX
  8
praia
 10
-9.390243
 20
38.700224
  0
VERTEX
  8
praia
 10
-9.390246
 20
38.700222
  0
VERTEX
  8
praia
 10
-9.390250
 20
38.700219
  0
VERTEX
  8
praia
 10
-9.390253
 20
38.700216
  0
VERTEX
  8
praia
 10
-9.390256
 20
38.700215
  0
VERTEX
  8
praia
 10
-9.390272
 20
38.700204
  0
VERTEX
  8
praia
 10
-9.390274
 20
38.700203
  0
VERTEX
  8
praia
 10
-9.390285
 20
38.700196
  0
VERTEX
  8
praia
 10
-9.390289
 20
38.700194
  0
VERTEX
  8
praia
 10
-9.390306
 20
38.700187
  0
VERTEX
  8
praia
 10
-9.390325
 20
38.700182
  0
VERTEX
  8
praia
 10
-9.390344
 20
38.700183
  0
VERTEX
  8
praia
 10
-9.390358
 20
38.700186
  0
VERTEX
  8
praia
 10
-9.390361
 20
38.700187
  0
VERTEX
  8
praia
 10
-9.390380
 20
38.700195
  0
VERTEX
  8
praia
 10
-9.390380
 20
38.700195
  0
VERTEX
  8
praia
 10
-9.390390
 20
38.700201
  0
VERTEX
  8
praia
 10
-9.390391
 20
38.700203
  0
VERTEX
  8
praia
 10
-9.390403
 20
38.700213
  0
VERTEX
  8
praia
 10
-9.390404
 20
38.700215
  0
VERTEX
  8
praia
 10
-9.390414
 20
38.700224
  0
VERTEX
  8
praia
 10
-9.390419
 20
38.700228
  0
VERTEX
  8
praia
 10
-9.390422
 20
38.700231
  0
VERTEX
  8
praia
 10
-9.390423
 20
38.700233
  0
VERTEX
  8
praia
 10
-9.390435
 20
38.700247
  0
VERTEX
  8
praia
 10
-9.390443
 20
38.700255
  0
VERTEX
  8
praia
 10
-9.390445
 20
38.700259
  0
VERTEX
  8
praia
 10
-9.390445
 20
38.700260
  0
VERTEX
  8
praia
 10
-9.390449
 20
38.700266
  0
VERTEX
  8
praia
 10
-9.390451
 20
38.700269
  0
VERTEX
  8
praia
 10
-9.390454
 20
38.700275
  0
VERTEX
  8
praia
 10
-9.390456
 20
38.700281
  0
VERTEX
  8
praia
 10
-9.390457
 20
38.700286
  0
VERTEX
  8
praia
 10
-9.390458
 20
38.700293
  0
VERTEX
  8
praia
 10
-9.390458
 20
38.700298
  0
VERTEX
  8
praia
 10
-9.390458
 20
38.700302
  0
VERTEX
  8
praia
 10
-9.390457
 20
38.700306
  0
VERTEX
  8
praia
 10
-9.390456
 20
38.700313
  0
VERTEX
  8
praia
 10
-9.390456
 20
38.700313
  0
VERTEX
  8
praia
 10
-9.390456
 20
38.700313
  0
VERTEX
  8
praia
 10
-9.390455
 20
38.700315
  0
VERTEX
  8
praia
 10
-9.390455
 20
38.700316
  0
VERTEX
  8
praia
 10
-9.390455
 20
38.700316
  0
VERTEX
  8
praia
 10
-9.390448
 20
38.700324
  0
VERTEX
  8
praia
 10
-9.390445
 20
38.700328
  0
VERTEX
  8
praia
 10
-9.390443
 20
38.700331
  0
VERTEX
  8
praia
 10
-9.390434
 20
38.700341
  0
VERTEX
  8
praia
 10
-9.390430
 20
38.700347
  0
VERTEX
  8
praia
 10
-9.390423
 20
38.700355
  0
VERTEX
  8
praia
 10
-9.390422
 20
38.700356
  0
VERTEX
  8
praia
 10
-9.390421
 20
38.700357
  0
VERTEX
  8
praia
 10
-9.390420
 20
38.700358
  0
VERTEX
  8
praia
 10
-9.390417
 20
38.700361
  0
VERTEX
  8
praia
 10
-9.390416
 20
38.700362
  0
VERTEX
  8
praia
 10
-9.390415
 20
38.700364
  0
VERTEX
  8
praia
 10
-9.390414
 20
38.700365
  0
VERTEX
  8
praia
 10
-9.390414
 20
38.700366
  0
VERTEX
  8
praia
 10
-9.390413
 20
38.700366
  0
VERTEX
  8
praia
 10
-9.390411
 20
38.700369
  0
VERTEX
  8
praia
 10
-9.390408
 20
38.700372
  0
VERTEX
  8
praia
 10
-9.390402
 20
38.700379
  0
VERTEX
  8
praia
 10
-9.390398
 20
38.700383
  0
VERTEX
  8
praia
 10
-9.390403
 20
38.700385
  0
VERTEX
  8
praia
 10
-9.390406
 20
38.700387
  0
VERTEX
  8
praia
 10
-9.390420
 20
38.700393
  0
VERTEX
  8
praia
 10
-9.390436
 20
38.700394
  0
VERTEX
  8
praia
 10
-9.390444
 20
38.700394
  0
VERTEX
  8
praia
 10
-9.390453
 20
38.700393
  0
VERTEX
  8
praia
 10
-9.390458
 20
38.700392
  0
VERTEX
  8
praia
 10
-9.390464
 20
38.700393
  0
VERTEX
  8
praia
 10
-9.390471
 20
38.700397
  0
VERTEX
  8
praia
 10
-9.390475
 20
38.700399
  0
VERTEX
  8
praia
 10
-9.390480
 20
38.700409
  0
VERTEX
  8
praia
 10
-9.390480
 20
38.700410
  0
VERTEX
  8
praia
 10
-9.390481
 20
38.700415
  0
VERTEX
  8
praia
 10
-9.390481
 20
38.700416
  0
VERTEX
  8
praia
 10
-9.390481
 20
38.700423
  0
VERTEX
  8
praia
 10
-9.390481
 20
38.700428
  0
VERTEX
  8
praia
 10
-9.390481
 20
38.700431
  0
VERTEX
  8
praia
 10
-9.390480
 20
38.700439
  0
VERTEX
  8
praia
 10
-9.390480
 20
38.700439
  0
VERTEX
  8
praia
 10
-9.390479
 20
38.700449
  0
VERTEX
  8
praia
 10
-9.390478
 20
38.700455
  0
VERTEX
  8
praia
 10
-9.390476
 20
38.700468
  0
VERTEX
  8
praia
 10
-9.390476
 20
38.700468
  0
VERTEX
  8
praia
 10
-9.390476
 20
38.700471
  0
VERTEX
  8
praia
 10
-9.390476
 20
38.700471
  0
VERTEX
  8
praia
 10
-9.390476
 20
38.700472
  0
VERTEX
  8
praia
 10
-9.390475
 20
38.700479
  0
VERTEX
  8
praia
 10
-9.390475
 20
38.700481
  0
VERTEX
  8
praia
 10
-9.390475
 20
38.700481
  0
VERTEX
  8
praia
 10
-9.390476
 20
38.700485
  0
VERTEX
  8
praia
 10
-9.390477
 20
38.700492
  0
VERTEX
  8
praia
 10
-9.390477
 20
38.700494
  0
VERTEX
  8
praia
 10
-9.390479
 20
38.700496
  0
VERTEX
  8
praia
 10
-9.390482
 20
38.700499
  0
VERTEX
  8
praia
 10
-9.390487
 20
38.700504
  0
VERTEX
  8
praia
 10
-9.390495
 20
38.700506
  0
VERTEX
  8
praia
 10
-9.390512
 20
38.700506
  0
VERTEX
  8
praia
 10
-9.390515
 20
38.700504
  0
VERTEX
  8
praia
 10
-9.390523
 20
38.700499
  0
VERTEX
  8
praia
 10
-9.390529
 20
38.700496
  0
VERTEX
  8
praia
 10
-9.390532
 20
38.700493
  0
VERTEX
  8
praia
 10
-9.390535
 20
38.700491
  0
VERTEX
  8
praia
 10
-9.390546
 20
38.700485
  0
VERTEX
  8
praia
 10
-9.390553
 20
38.700480
  0
VERTEX
  8
praia
 10
-9.390554
 20
38.700480
  0
VERTEX
  8
praia
 10
-9.390557
 20
38.700478
  0
VERTEX
  8
praia
 10
-9.390567
 20
38.700472
  0
VERTEX
  8
praia
 10
-9.390570
 20
38.700471
  0
VERTEX
  8
praia
 10
-9.390571
 20
38.700470
  0
VERTEX
  8
praia
 10
-9.390573
 20
38.700470
  0
VERTEX
  8
praia
 10
-9.390585
 20
38.700467
  0
VERTEX
  8
praia
 10
-9.390585
 20
38.700466
  0
VERTEX
  8
praia
 10
-9.390585
 20
38.700466
  0
VERTEX
  8
praia
 10
-9.390593
 20
38.700466
  0
VERTEX
  8
praia
 10
-9.390601
 20
38.700469
  0
VERTEX
  8
praia
 10
-9.390605
 20
38.700470
  0
VERTEX
  8
praia
 10
-9.390605
 20
38.700470
  0
VERTEX
  8
praia
 10
-9.390606
 20
38.700470
  0
VERTEX
  8
praia
 10
-9.390620
 20
38.700477
  0
VERTEX
  8
praia
 10
-9.390623
 20
38.700479
  0
VERTEX
  8
praia
 10
-9.390624
 20
38.700479
  0
VERTEX
  8
praia
 10
-9.390629
 20
38.700484
  0
VERTEX
  8
praia
 10
-9.390635
 20
38.700490
  0
VERTEX
  8
praia
 10
-9.390637
 20
38.700492
  0
VERTEX
  8
praia
 10
-9.390639
 20
38.700494
  0
VERTEX
  8
praia
 10
-9.390641
 20
38.700497
  0
VERTEX
  8
praia
 10
-9.390645
 20
38.700502
  0
VERTEX
  8
praia
 10
-9.390646
 20
38.700504
  0
VERTEX
  8
praia
 10
-9.390647
 20
38.700505
  0
VERTEX
  8
praia
 10
-9.390656
 20
38.700519
  0
VERTEX
  8
praia
 10
-9.390662
 20
38.700533
  0
VERTEX
  8
praia
 10
-9.390661
 20
38.700544
  0
VERTEX
  8
praia
 10
-9.390658
 20
38.700553
  0
VERTEX
  8
praia
 10
-9.390657
 20
38.700555
  0
VERTEX
  8
praia
 10
-9.390645
 20
38.700580
  0
VERTEX
  8
praia
 10
-9.390641
 20
38.700593
  0
VERTEX
  8
praia
 10
-9.390640
 20
38.700597
  0
VERTEX
  8
praia
 10
-9.390640
 20
38.700599
  0
VERTEX
  8
praia
 10
-9.390638
 20
38.700611
  0
VERTEX
  8
praia
 10
-9.390639
 20
38.700618
  0
VERTEX
  8
praia
 10
-9.390640
 20
38.700623
  0
VERTEX
  8
praia
 10
-9.390645
 20
38.700629
  0
VERTEX
  8
praia
 10
-9.390649
 20
38.700635
  0
VERTEX
  8
praia
 10
-9.390670
 20
38.700645
  0
VERTEX
  8
praia
 10
-9.390686
 20
38.700651
  0
VERTEX
  8
praia
 10
-9.390689
 20
38.700652
  0
VERTEX
  8
praia
 10
-9.390693
 20
38.700654
  0
VERTEX
  8
praia
 10
-9.390698
 20
38.700655
  0
VERTEX
  8
praia
 10
-9.390711
 20
38.700664
  0
VERTEX
  8
praia
 10
-9.390712
 20
38.700667
  0
VERTEX
  8
praia
 10
-9.390724
 20
38.700682
  0
VERTEX
  8
praia
 10
-9.390725
 20
38.700684
  0
VERTEX
  8
praia
 10
-9.390729
 20
38.700699
  0
VERTEX
  8
praia
 10
-9.390729
 20
38.700704
  0
VERTEX
  8
praia
 10
-9.390729
 20
38.700709
  0
VERTEX
  8
praia
 10
-9.390728
 20
38.700722
  0
VERTEX
  8
praia
 10
-9.390726
 20
38.700729
  0
VERTEX
  8
praia
 10
-9.390724
 20
38.700737
  0
VERTEX
  8
praia
 10
-9.390724
 20
38.700738
  0
VERTEX
  8
praia
 10
-9.390720
 20
38.700750
  0
VERTEX
  8
praia
 10
-9.390718
 20
38.700753
  0
VERTEX
  8
praia
 10
-9.390711
 20
38.700766
  0
VERTEX
  8
praia
 10
-9.390710
 20
38.700769
  0
VERTEX
  8
praia
 10
-9.390705
 20
38.700777
  0
VERTEX
  8
praia
 10
-9.390702
 20
38.700784
  0
VERTEX
  8
praia
 10
-9.390700
 20
38.700787
  0
VERTEX
  8
praia
 10
-9.390698
 20
38.700791
  0
VERTEX
  8
praia
 10
-9.390695
 20
38.700798
  0
VERTEX
  8
praia
 10
-9.390692
 20
38.700806
  0
VERTEX
  8
praia
 10
-9.390692
 20
38.700806
  0
VERTEX
  8
praia
 10
-9.390689
 20
38.700815
  0
VERTEX
  8
praia
 10
-9.390688
 20
38.700820
  0
VERTEX
  8
praia
 10
-9.390687
 20
38.700821
  0
VERTEX
  8
praia
 10
-9.390686
 20
38.700824
  0
VERTEX
  8
praia
 10
-9.390685
 20
38.700828
  0
VERTEX
  8
praia
 10
-9.390684
 20
38.700828
  0
VERTEX
  8
praia
 10
-9.390684
 20
38.700830
  0
VERTEX
  8
praia
 10
-9.390683
 20
38.700831
  0
VERTEX
  8
praia
 10
-9.390683
 20
38.700831
  0
VERTEX
  8
praia
 10
-9.390683
 20
38.700832
  0
VERTEX
  8
praia
 10
-9.390683
 20
38.700832
  0
VERTEX
  8
praia
 10
-9.390680
 20
38.700839
  0
VERTEX
  8
praia
 10
-9.390679
 20
38.700842
  0
VERTEX
  8
praia
 10
-9.390678
 20
38.700844
  0
VERTEX
  8
praia
 10
-9.390669
 20
38.700860
  0
VERTEX
  8
praia
 10
-9.390659
 20
38.700878
  0
VERTEX
  8
praia
 10
-9.390651
 20
38.700892
  0
VERTEX
  8
praia
 10
-9.390640
 20
38.700913
  0
VERTEX
  8
praia
 10
-9.390635
 20
38.700921
  0
VERTEX
  8
praia
 10
-9.390631
 20
38.700927
  0
VERTEX
  8
praia
 10
-9.390628
 20
38.700932
  0
VERTEX
  8
praia
 10
-9.390627
 20
38.700934
  0
VERTEX
  8
praia
 10
-9.390626
 20
38.700941
  0
VERTEX
  8
praia
 10
-9.390627
 20
38.700948
  0
VERTEX
  8
praia
 10
-9.390627
 20
38.700948
  0
VERTEX
  8
praia
 10
-9.390628
 20
38.700956
  0
VERTEX
  8
praia
 10
-9.390630
 20
38.700959
  0
VERTEX
  8
praia
 10
-9.390631
 20
38.700962
  0
VERTEX
  8
praia
 10
-9.390644
 20
38.700980
  0
VERTEX
  8
praia
 10
-9.390669
 20
38.701004
  0
VERTEX
  8
praia
 10
-9.390671
 20
38.701005
  0
VERTEX
  8
praia
 10
-9.390674
 20
38.701008
  0
VERTEX
  8
praia
 10
-9.390681
 20
38.701015
  0
VERTEX
  8
praia
 10
-9.390693
 20
38.701027
  0
VERTEX
  8
praia
 10
-9.390710
 20
38.701044
  0
VERTEX
  8
praia
 10
-9.390719
 20
38.701058
  0
VERTEX
  8
praia
 10
-9.390725
 20
38.701076
  0
VERTEX
  8
praia
 10
-9.390727
 20
38.701084
  0
SEQEND
  0
POINT
  8
praia
  6
BYLAYER
 10
-9.389755
 20
38.700519
 50
0.616418
  0
POLYLINE
  8
praia
  6
BYLAYER
 66
1
 70
1
 40
0.000000
 41
0.000000
  0
VERTEX
  8
praia
 10
-9.368175
 20
38.692598
  0
VERTEX
  8
praia
 10
-9.367874
 20
38.692746
  0
VERTEX
  8
praia
 10
-9.367586
 20
38.692740
  0
VERTEX
  8
praia
 10
-9.367479
 20
38.692675
  0
VERTEX
  8
praia
 10
-9.367350
 20
38.692585
  0
VERTEX
  8
praia
 10
-9.367231
 20
38.692461
  0
VERTEX
  8
praia
 10
-9.366858
 20
38.692382
  0
VERTEX
  8
praia
 10
-9.366465
 20
38.692427
  0
VERTEX
  8
praia
 10
-9.366337
 20
38.692429
  0
VERTEX
  8
praia
 10
-9.366295
 20
38.692404
  0
VERTEX
  8
praia
 10
-9.366336
 20
38.692320
  0
VERTEX
  8
praia
 10
-9.365886
 20
38.692150
  0
VERTEX
  8
praia
 10
-9.365760
 20
38.692227
  0
VERTEX
  8
praia
 10
-9.365556
 20
38.692079
  0
VERTEX
  8
praia
 10
-9.365402
 20
38.691814
  0
VERTEX
  8
praia
 10
-9.365335
 20
38.691640
  0
VERTEX
  8
praia
 10
-9.365252
 20
38.691593
  0
VERTEX
  8
praia
 10
-9.365348
 20
38.691532
  0
VERTEX
  8
praia
 10
-9.365366
 20
38.691521
  0
VERTEX
  8
praia
 10
-9.365399
 20
38.691500
  0
VERTEX
  8
praia
 10
-9.365603
 20
38.691431
  0
VERTEX
  8
praia
 10
-9.365663
 20
38.691410
  0
VERTEX
  8
praia
 10
-9.365794
 20
38.691365
  0
VERTEX
  8
praia
 10
-9.365838
 20
38.691407
  0
VERTEX
  8
praia
 10
-9.365861
 20
38.691431
  0
VERTEX
  8
praia
 10
-9.365888
 20
38.691470
  0
VERTEX
  8
praia
 10
-9.365894
 20
38.691485
  0
VERTEX
  8
praia
 10
-9.365911
 20
38.691533
  0
VERTEX
  8
praia
 10
-9.365920
 20
38.691567
  0
VERTEX
  8
praia
 10
-9.365928
 20
38.691602
  0
VERTEX
  8
praia
 10
-9.365944
 20
38.691654
  0
VERTEX
  8
praia
 10
-9.365944
 20
38.691665
  0
VERTEX
  8
praia
 10
-9.365944
 20
38.691689
  0
VERTEX
  8
praia
 10
-9.365945
 20
38.691727
  0
VERTEX
  8
praia
 10
-9.365945
 20
38.691744
  0
VERTEX
  8
praia
 10
-9.365951
 20
38.691755
  0
VERTEX
  8
praia
 10
-9.365953
 20
38.691793
  0
VERTEX
  8
praia
 10
-9.365956
 20
38.691825
  0
VERTEX
  8
praia
 10
-9.365978
 20
38.691856
  0
VERTEX
  8
praia
 10
-9.366007
 20
38.691873
  0
VERTEX
  8
praia
 10
-9.366008
 20
38.691873
  0
VERTEX
  8
praia
 10
-9.366009
 20
38.691875
  0
VERTEX
  8
praia
 10
-9.366047
 20
38.691902
  0
VERTEX
  8
praia
 10
-9.366084
 20
38.691924
  0
VERTEX
  8
praia
 10
-9.366165
 20
38.691971
  0
VERTEX
  8
praia
 10
-9.366201
 20
38.691992
  0
VERTEX
  8
praia
 10
-9.366239
 20
38.692015
  0
VERTEX
  8
praia
 10
-9.366333
 20
38.692070
  0
VERTEX
  8
praia
 10
-9.366375
 20
38.692090
  0
VERTEX
  8
praia
 10
-9.366457
 20
38.692124
  0
VERTEX
  8
praia
 10
-9.366528
 20
38.692156
  0
VERTEX
  8
praia
 10
-9.366608
 20
38.692192
  0
VERTEX
  8
praia
 10
-9.366698
 20
38.692215
  0
VERTEX
  8
praia
 10
-9.366788
 20
38.692231
  0
VERTEX
  8
praia
 10
-9.366903
 20
38.692229
  0
VERTEX
  8
praia
 10
-9.366991
 20
38.692225
  0
VERTEX
  8
praia
 10
-9.367006
 20
38.692223
  0
VERTEX
  8
praia
 10
-9.367035
 20
38.692219
  0
VERTEX
  8
praia
 10
-9.367084
 20
38.692213
  0
VERTEX
  8
praia
 10
-9.367134
 20
38.692205
  0
VERTEX
  8
praia
 10
-9.367178
 20
38.692195
  0
VERTEX
  8
praia
 10
-9.367244
 20
38.692193
  0
VERTEX
  8
praia
 10
-9.367283
 20
38.692205
  0
VERTEX
  8
praia
 10
-9.367307
 20
38.692230
  0
VERTEX
  8
praia
 10
-9.367337
 20
38.692299
  0
VERTEX
  8
praia
 10
-9.367360
 20
38.692355
  0
VERTEX
  8
praia
 10
-9.367378
 20
38.692387
  0
VERTEX
  8
praia
 10
-9.367400
 20
38.692414
  0
VERTEX
  8
praia
 10
-9.367436
 20
38.692435
  0
VERTEX
  8
praia
 10
-9.367477
 20
38.692450
  0
VERTEX
  8
praia
 10
-9.367517
 20
38.692463
  0
VERTEX
  8
praia
 10
-9.367548
 20
38.692471
  0
VERTEX
  8
praia
 10
-9.367558
 20
38.692472
  0
VERTEX
  8
praia
 10
-9.367608
 20
38.692482
  0
VERTEX
  8
praia
 10
-9.367653
 20
38.692475
  0
VERTEX
  8
praia
 10
-9.367664
 20
38.692475
  0
VERTEX
  8
praia
 10
-9.367672
 20
38.692472
  0
VERTEX
  8
praia
 10
-9.367734
 20
38.692454
  0
VERTEX
  8
praia
 10
-9.367774
 20
38.692433
  0
VERTEX
  8
praia
 10
-9.367807
 20
38.692409
  0
VERTEX
  8
praia
 10
-9.367828
 20
38.692382
  0
VERTEX
  8
praia
 10
-9.367840
 20
38.692322
  0
VERTEX
  8
praia
 10
-9.367863
 20
38.692300
  0
VERTEX
  8
praia
 10
-9.367901
 20
38.692291
  0
VERTEX
  8
praia
 10
-9.367939
 20
38.692288
  0
VERTEX
  8
praia
 10
-9.367975
 20
38.692292
  0
VERTEX
  8
praia
 10
-9.368012
 20
38.692296
  0
VERTEX
  8
praia
 10
-9.368048
 20
38.692297
  0
VERTEX
  8
praia
 10
-9.368053
 20
38.692296
  0
VERTEX
  8
praia
 10
-9.368063
 20
38.692365
  0
VERTEX
  8
praia
 10
-9.368054
 20
38.692427
  0
VERTEX
  8
praia
 10
-9.368045
 20
38.692461
  0
VERTEX
  8
praia
 10
-9.368053
 20
38.692462
  0
VERTEX
  8
praia
 10
-9.368059
 20
38.692464
  0
VERTEX
  8
praia
 10
-9.368076
 20
38.692475
  0
VERTEX
  8
praia
 10
-9.368088
 20
38.692488
  0
VERTEX
  8
praia
 10
-9.368114
 20
38.692507
  0
VERTEX
  8
praia
 10
-9.368130
 20
38.692516
  0
VERTEX
  8
praia
 10
-9.368143
 20
38.692526
  0
VERTEX
  8
praia
 10
-9.368155
 20
38.692545
  0
VERTEX
  8
praia
 10
-9.368166
 20
38.692572
  0
VERTEX
  8
praia
 10
-9.368175
 20
38.692598
  0
SEQEND
  0
POINT
  8
praia
  6
BYLAYER
 10
-9.366521
 20
38.692131
 50
0.604991
  0
POLYLINE
  8
praia
  6
BYLAYER
 66
1
 70
1
 40
0.000000
 41
0.000000
  0
VERTEX
  8
praia
 10
-9.472590
 20
38.741838
  0
VERTEX
  8
praia
 10
-9.472513
 20
38.741948
  0
VERTEX
  8
praia
 10
-9.472267
 20
38.741819
  0
VERTEX
  8
praia
 10
-9.471977
 20
38.741647
  0
VERTEX
  8
praia
 10
-9.471802
 20
38.741550
  0
VERTEX
  8
praia
 10
-9.471801
 20
38.741415
  0
VERTEX
  8
praia
 10
-9.472033
 20
38.741243
  0
VERTEX
  8
praia
 10
-9.472158
 20
38.741097
  0
VERTEX
  8
praia
 10
-9.472314
 20
38.740921
  0
VERTEX
  8
praia
 10
-9.472515
 20
38.740824
  0
VERTEX
  8
praia
 10
-9.472642
 20
38.740773
  0
VERTEX
  8
praia
 10
-9.472777
 20
38.740861
  0
VERTEX
  8
praia
 10
-9.472971
 20
38.741023
  0
VERTEX
  8
praia
 10
-9.473042
 20
38.741087
  0
VERTEX
  8
praia
 10
-9.473047
 20
38.741137
  0
VERTEX
  8
praia
 10
-9.473000
 20
38.741155
  0
VERTEX
  8
praia
 10
-9.472979
 20
38.741183
  0
VERTEX
  8
praia
 10
-9.472960
 20
38.741225
  0
VERTEX
  8
praia
 10
-9.472945
 20
38.741294
  0
VERTEX
  8
praia
 10
-9.472916
 20
38.741331
  0
VERTEX
  8
praia
 10
-9.472878
 20
38.741401
  0
VERTEX
  8
praia
 10
-9.472802
 20
38.741466
  0
VERTEX
  8
praia
 10
-9.472724
 20
38.741609
  0
VERTEX
  8
praia
 10
-9.472590
 20
38.741838
  0
SEQEND
  0
POINT
  8
praia
  6
BYLAYER
 10
-9.472442
 20
38.741342
 50
0.657152
  0
POLYLINE
  8
praia
  6
BYLAYER
 66
1
 70
1
 40
0.000000
 41
0.000000
  0
VERTEX
  8
praia
 10
-9.475394
 20
38.726684
  0
VERTEX
  8
praia
 10
-9.475195
 20
38.726680
  0
VERTEX
  8
praia
 10
-9.475126
 20
38.726789
  0
VERTEX
  8
praia
 10
-9.474997
 20
38.726796
  0
VERTEX
  8
praia
 10
-9.474924
 20
38.726694
  0
VERTEX
  8
praia
 10
-9.474956
 20
38.726523
  0
VERTEX
  8
praia
 10
-9.474941
 20
38.726427
  0
VERTEX
  8
praia
 10
-9.474935
 20
38.726392
  0
VERTEX
  8
praia
 10
-9.474944
 20
38.726151
  0
VERTEX
  8
praia
 10
-9.475216
 20
38.726096
  0
VERTEX
  8
praia
 10
-9.475353
 20
38.726045
  0
VERTEX
  8
praia
 10
-9.475568
 20
38.725963
  0
VERTEX
  8
praia
 10
-9.475767
 20
38.725807
  0
VERTEX
  8
praia
 10
-9.475889
 20
38.725618
  0
VERTEX
  8
praia
 10
-9.476003
 20
38.725319
  0
VERTEX
  8
praia
 10
-9.476302
 20
38.724168
  0
VERTEX
  8
praia
 10
-9.476448
 20
38.724040
  0
VERTEX
  8
praia
 10
-9.476772
 20
38.723977
  0
VERTEX
  8
praia
 10
-9.476992
 20
38.723942
  0
VERTEX
  8
praia
 10
-9.477150
 20
38.723845
  0
VERTEX
  8
praia
 10
-9.477294
 20
38.723767
  0
VERTEX
  8
praia
 10
-9.477315
 20
38.723763
  0
VERTEX
  8
praia
 10
-9.477265
 20
38.723910
  0
VERTEX
  8
praia
 10
-9.477221
 20
38.724102
  0
VERTEX
  8
praia
 10
-9.477188
 20
38.724131
  0
VERTEX
  8
praia
 10
-9.476525
 20
38.725769
  0
VERTEX
  8
praia
 10
-9.476528
 20
38.725936
  0
VERTEX
  8
praia
 10
-9.476551
 20
38.727128
  0
VERTEX
  8
praia
 10
-9.476913
 20
38.727939
  0
VERTEX
  8
praia
 10
-9.476773
 20
38.727850
  0
VERTEX
  8
praia
 10
-9.476519
 20
38.727690
  0
VERTEX
  8
praia
 10
-9.476214
 20
38.727552
  0
VERTEX
  8
praia
 10
-9.476104
 20
38.727543
  0
VERTEX
  8
praia
 10
-9.475841
 20
38.727523
  0
VERTEX
  8
praia
 10
-9.475494
 20
38.727495
  0
VERTEX
  8
praia
 10
-9.475284
 20
38.727397
  0
VERTEX
  8
praia
 10
-9.475145
 20
38.727323
  0
VERTEX
  8
praia
 10
-9.475139
 20
38.727142
  0
VERTEX
  8
praia
 10
-9.475461
 20
38.727011
  0
VERTEX
  8
praia
 10
-9.475431
 20
38.726862
  0
VERTEX
  8
praia
 10
-9.475394
 20
38.726684
  0
SEQEND
  0
POINT
  8
praia
  6
BYLAYER
 10
-9.476135
 20
38.726018
 50
0.658886
  0
POLYLINE
  8
praia
  6
BYLAYER
 66
1
 70
1
 40
0.000000
 41
0.000000
  0
VERTEX
  8
praia
 10
-9.408544
 20
38.701262
  0
VERTEX
  8
praia
 10
-9.408544
 20
38.701252
  0
VERTEX
  8
praia
 10
-9.408530
 20
38.701252
  0
VERTEX
  8
praia
 10
-9.408534
 20
38.701161
  0
VERTEX
  8
praia
 10
-9.408604
 20
38.701160
  0
VERTEX
  8
praia
 10
-9.408605
 20
38.701250
  0
VERTEX
  8
praia
 10
-9.408610
 20
38.701619
  0
VERTEX
  8
praia
 10
-9.408620
 20
38.701619
  0
VERTEX
  8
praia
 10
-9.408661
 20
38.701619
  0
VERTEX
  8
praia
 10
-9.408736
 20
38.701614
  0
VERTEX
  8
praia
 10
-9.408780
 20
38.701610
  0
VERTEX
  8
praia
 10
-9.408828
 20
38.701609
  0
VERTEX
  8
praia
 10
-9.408884
 20
38.701608
  0
VERTEX
  8
praia
 10
-9.408930
 20
38.701612
  0
VERTEX
  8
praia
 10
-9.408955
 20
38.701613
  0
VERTEX
  8
praia
 10
-9.409010
 20
38.701617
  0
VERTEX
  8
praia
 10
-9.409052
 20
38.701617
  0
VERTEX
  8
praia
 10
-9.409080
 20
38.701617
  0
VERTEX
  8
praia
 10
-9.409121
 20
38.701619
  0
VERTEX
  8
praia
 10
-9.409147
 20
38.701621
  0
VERTEX
  8
praia
 10
-9.409170
 20
38.701624
  0
VERTEX
  8
praia
 10
-9.409216
 20
38.701635
  0
VERTEX
  8
praia
 10
-9.409242
 20
38.701639
  0
VERTEX
  8
praia
 10
-9.409294
 20
38.701644
  0
VERTEX
  8
praia
 10
-9.409317
 20
38.701648
  0
VERTEX
  8
praia
 10
-9.409365
 20
38.701661
  0
VERTEX
  8
praia
 10
-9.409394
 20
38.701669
  0
VERTEX
  8
praia
 10
-9.409421
 20
38.701676
  0
VERTEX
  8
praia
 10
-9.409458
 20
38.701682
  0
VERTEX
  8
praia
 10
-9.409505
 20
38.701692
  0
VERTEX
  8
praia
 10
-9.409562
 20
38.701699
  0
VERTEX
  8
praia
 10
-9.409609
 20
38.701706
  0
VERTEX
  8
praia
 10
-9.409631
 20
38.701709
  0
VERTEX
  8
praia
 10
-9.409683
 20
38.701713
  0
VERTEX
  8
praia
 10
-9.409709
 20
38.701717
  0
VERTEX
  8
praia
 10
-9.409743
 20
38.701725
  0
VERTEX
  8
praia
 10
-9.409762
 20
38.701729
  0
VERTEX
  8
praia
 10
-9.409829
 20
38.701741
  0
VERTEX
  8
praia
 10
-9.409869
 20
38.701751
  0
VERTEX
  8
praia
 10
-9.409882
 20
38.701757
  0
VERTEX
  8
praia
 10
-9.409929
 20
38.701773
  0
VERTEX
  8
praia
 10
-9.409961
 20
38.701779
  0
VERTEX
  8
praia
 10
-9.410016
 20
38.701789
  0
VERTEX
  8
praia
 10
-9.410054
 20
38.701796
  0
VERTEX
  8
praia
 10
-9.410080
 20
38.701799
  0
VERTEX
  8
praia
 10
-9.410105
 20
38.701801
  0
VERTEX
  8
praia
 10
-9.410152
 20
38.701803
  0
VERTEX
  8
praia
 10
-9.410200
 20
38.701801
  0
VERTEX
  8
praia
 10
-9.410230
 20
38.701798
  0
VERTEX
  8
praia
 10
-9.410259
 20
38.701793
  0
VERTEX
  8
praia
 10
-9.410283
 20
38.701789
  0
VERTEX
  8
praia
 10
-9.410304
 20
38.701785
  0
VERTEX
  8
praia
 10
-9.410327
 20
38.701780
  0
VERTEX
  8
praia
 10
-9.410351
 20
38.701773
  0
VERTEX
  8
praia
 10
-9.410372
 20
38.701763
  0
VERTEX
  8
praia
 10
-9.410390
 20
38.701751
  0
VERTEX
  8
praia
 10
-9.410418
 20
38.701733
  0
VERTEX
  8
praia
 10
-9.410431
 20
38.701723
  0
VERTEX
  8
praia
 10
-9.410448
 20
38.701713
  0
VERTEX
  8
praia
 10
-9.410482
 20
38.701697
  0
VERTEX
  8
praia
 10
-9.410524
 20
38.701679
  0
VERTEX
  8
praia
 10
-9.410543
 20
38.701671
  0
VERTEX
  8
praia
 10
-9.410593
 20
38.701655
  0
VERTEX
  8
praia
 10
-9.410620
 20
38.701646
  0
VERTEX
  8
praia
 10
-9.410658
 20
38.701637
  0
VERTEX
  8
praia
 10
-9.410681
 20
38.701632
  0
VERTEX
  8
praia
 10
-9.410707
 20
38.701625
  0
VERTEX
  8
praia
 10
-9.410734
 20
38.701617
  0
VERTEX
  8
praia
 10
-9.410760
 20
38.701611
  0
VERTEX
  8
praia
 10
-9.410783
 20
38.701606
  0
VERTEX
  8
praia
 10
-9.410807
 20
38.701601
  0
VERTEX
  8
praia
 10
-9.410834
 20
38.701596
  0
VERTEX
  8
praia
 10
-9.410861
 20
38.701592
  0
VERTEX
  8
praia
 10
-9.410887
 20
38.701588
  0
VERTEX
  8
praia
 10
-9.410932
 20
38.701584
  0
VERTEX
  8
praia
 10
-9.410958
 20
38.701580
  0
VERTEX
  8
praia
 10
-9.410985
 20
38.701575
  0
VERTEX
  8
praia
 10
-9.411009
 20
38.701572
  0
VERTEX
  8
praia
 10
-9.411046
 20
38.701567
  0
VERTEX
  8
praia
 10
-9.411066
 20
38.701565
  0
VERTEX
  8
praia
 10
-9.411089
 20
38.701562
  0
VERTEX
  8
praia
 10
-9.411212
 20
38.701540
  0
VERTEX
  8
praia
 10
-9.411180
 20
38.701558
  0
VERTEX
  8
praia
 10
-9.411061
 20
38.701588
  0
VERTEX
  8
praia
 10
-9.410745
 20
38.701673
  0
VERTEX
  8
praia
 10
-9.410552
 20
38.701720
  0
VERTEX
  8
praia
 10
-9.410523
 20
38.701720
  0
VERTEX
  8
praia
 10
-9.410526
 20
38.701731
  0
VERTEX
  8
praia
 10
-9.410536
 20
38.701769
  0
VERTEX
  8
praia
 10
-9.410355
 20
38.701797
  0
VERTEX
  8
praia
 10
-9.410368
 20
38.701826
  0
VERTEX
  8
praia
 10
-9.409937
 20
38.701953
  0
VERTEX
  8
praia
 10
-9.409920
 20
38.701921
  0
VERTEX
  8
praia
 10
-9.409805
 20
38.701967
  0
VERTEX
  8
praia
 10
-9.409784
 20
38.701939
  0
VERTEX
  8
praia
 10
-9.409641
 20
38.702005
  0
VERTEX
  8
praia
 10
-9.409493
 20
38.702036
  0
VERTEX
  8
praia
 10
-9.409390
 20
38.702059
  0
VERTEX
  8
praia
 10
-9.409287
 20
38.702054
  0
VERTEX
  8
praia
 10
-9.409279
 20
38.702083
  0
VERTEX
  8
praia
 10
-9.409189
 20
38.702094
  0
VERTEX
  8
praia
 10
-9.408983
 20
38.702138
  0
VERTEX
  8
praia
 10
-9.408756
 20
38.702137
  0
VERTEX
  8
praia
 10
-9.408684
 20
38.702141
  0
VERTEX
  8
praia
 10
-9.408657
 20
38.702117
  0
VERTEX
  8
praia
 10
-9.408634
 20
38.702098
  0
VERTEX
  8
praia
 10
-9.408606
 20
38.702074
  0
VERTEX
  8
praia
 10
-9.408599
 20
38.702071
  0
VERTEX
  8
praia
 10
-9.408580
 20
38.702062
  0
VERTEX
  8
praia
 10
-9.408556
 20
38.702042
  0
VERTEX
  8
praia
 10
-9.408555
 20
38.701952
  0
VERTEX
  8
praia
 10
-9.408553
 20
38.701821
  0
VERTEX
  8
praia
 10
-9.408544
 20
38.701262
  0
SEQEND
  0
POLYLINE
  8
praia
  6
BYLAYER
 66
1
 70
1
 40
0.000000
 41
0.000000
  0
VERTEX
  8
praia
 10
-9.411680
 20
38.701550
  0
VERTEX
  8
praia
 10
-9.411679
 20
38.701549
  0
VERTEX
  8
praia
 10
-9.411679
 20
38.701549
  0
VERTEX
  8
praia
 10
-9.411581
 20
38.701579
  0
VERTEX
  8
praia
 10
-9.411529
 20
38.701590
  0
VERTEX
  8
praia
 10
-9.411462
 20
38.701603
  0
VERTEX
  8
praia
 10
-9.411428
 20
38.701581
  0
VERTEX
  8
praia
 10
-9.411256
 20
38.701535
  0
VERTEX
  8
praia
 10
-9.412246
 20
38.701434
  0
VERTEX
  8
praia
 10
-9.412403
 20
38.701422
  0
VERTEX
  8
praia
 10
-9.412401
 20
38.701476
  0
VERTEX
  8
praia
 10
-9.412401
 20
38.701493
  0
VERTEX
  8
praia
 10
-9.412368
 20
38.701513
  0
VERTEX
  8
praia
 10
-9.412356
 20
38.701514
  0
VERTEX
  8
praia
 10
-9.412039
 20
38.701566
  0
VERTEX
  8
praia
 10
-9.411981
 20
38.701575
  0
VERTEX
  8
praia
 10
-9.411980
 20
38.701574
  0
VERTEX
  8
praia
 10
-9.411960
 20
38.701527
  0
VERTEX
  8
praia
 10
-9.411875
 20
38.701547
  0
VERTEX
  8
praia
 10
-9.411692
 20
38.701591
  0
VERTEX
  8
praia
 10
-9.411680
 20
38.701550
  0
SEQEND
  0
POINT
  8
praia
  6
BYLAYER
 10
-9.409266
 20
38.701830
 50
0.625987
  0
POLYLINE
  8
praia
  6
BYLAYER
 66
1
 70
1
 40
0.000000
 41
0.000000
  0
VERTEX
  8
praia
 10
-9.417431
 20
38.699231
  0
VERTEX
  8
praia
 10
-9.417435
 20
38.699232
  0
VERTEX
  8
praia
 10
-9.417459
 20
38.699232
  0
VERTEX
  8
praia
 10
-9.417497
 20
38.699225
  0
VERTEX
  8
praia
 10
-9.417519
 20
38.699216
  0
VERTEX
  8
praia
 10
-9.417561
 20
38.699199
  0
VERTEX
  8
praia
 10
-9.417580
 20
38.699190
  0
VERTEX
  8
praia
 10
-9.417599
 20
38.699184
  0
VERTEX
  8
praia
 10
-9.417636
 20
38.699170
  0
VERTEX
  8
praia
 10
-9.417659
 20
38.699159
  0
VERTEX
  8
praia
 10
-9.417683
 20
38.699150
  0
VERTEX
  8
praia
 10
-9.417708
 20
38.699142
  0
VERTEX
  8
praia
 10
-9.417731
 20
38.699135
  0
VERTEX
  8
praia
 10
-9.417754
 20
38.699126
  0
VERTEX
  8
praia
 10
-9.417781
 20
38.699114
  0
VERTEX
  8
praia
 10
-9.417808
 20
38.699099
  0
VERTEX
  8
praia
 10
-9.417836
 20
38.699084
  0
VERTEX
  8
praia
 10
-9.417864
 20
38.699069
  0
VERTEX
  8
praia
 10
-9.417917
 20
38.699044
  0
VERTEX
  8
praia
 10
-9.417944
 20
38.699031
  0
VERTEX
  8
praia
 10
-9.418011
 20
38.698992
  0
VERTEX
  8
praia
 10
-9.418056
 20
38.698963
  0
VERTEX
  8
praia
 10
-9.418073
 20
38.698949
  0
VERTEX
  8
praia
 10
-9.418095
 20
38.698921
  0
VERTEX
  8
praia
 10
-9.418101
 20
38.698912
  0
VERTEX
  8
praia
 10
-9.418126
 20
38.698892
  0
VERTEX
  8
praia
 10
-9.418152
 20
38.698873
  0
VERTEX
  8
praia
 10
-9.418172
 20
38.698857
  0
VERTEX
  8
praia
 10
-9.418174
 20
38.698856
  0
VERTEX
  8
praia
 10
-9.418186
 20
38.698839
  0
VERTEX
  8
praia
 10
-9.418205
 20
38.698839
  0
VERTEX
  8
praia
 10
-9.418222
 20
38.698852
  0
VERTEX
  8
praia
 10
-9.418245
 20
38.698879
  0
VERTEX
  8
praia
 10
-9.418247
 20
38.698881
  0
VERTEX
  8
praia
 10
-9.418290
 20
38.698912
  0
VERTEX
  8
praia
 10
-9.418304
 20
38.698916
  0
VERTEX
  8
praia
 10
-9.418330
 20
38.698923
  0
VERTEX
  8
praia
 10
-9.418370
 20
38.698930
  0
VERTEX
  8
praia
 10
-9.418392
 20
38.698981
  0
VERTEX
  8
praia
 10
-9.418408
 20
38.699044
  0
VERTEX
  8
praia
 10
-9.418415
 20
38.699077
  0
VERTEX
  8
praia
 10
-9.418407
 20
38.699079
  0
VERTEX
  8
praia
 10
-9.418419
 20
38.699110
  0
VERTEX
  8
praia
 10
-9.418374
 20
38.699131
  0
VERTEX
  8
praia
 10
-9.418351
 20
38.699142
  0
VERTEX
  8
praia
 10
-9.418332
 20
38.699151
  0
VERTEX
  8
praia
 10
-9.418352
 20
38.699173
  0
VERTEX
  8
praia
 10
-9.418344
 20
38.699177
  0
VERTEX
  8
praia
 10
-9.418327
 20
38.699185
  0
VERTEX
  8
praia
 10
-9.418315
 20
38.699191
  0
VERTEX
  8
praia
 10
-9.418149
 20
38.699269
  0
VERTEX
  8
praia
 10
-9.418126
 20
38.699245
  0
VERTEX
  8
praia
 10
-9.418111
 20
38.699251
  0
VERTEX
  8
praia
 10
-9.418099
 20
38.699256
  0
VERTEX
  8
praia
 10
-9.418084
 20
38.699262
  0
VERTEX
  8
praia
 10
-9.418065
 20
38.699269
  0
VERTEX
  8
praia
 10
-9.418053
 20
38.699274
  0
VERTEX
  8
praia
 10
-9.418046
 20
38.699277
  0
VERTEX
  8
praia
 10
-9.418038
 20
38.699280
  0
VERTEX
  8
praia
 10
-9.418022
 20
38.699286
  0
VERTEX
  8
praia
 10
-9.418016
 20
38.699288
  0
VERTEX
  8
praia
 10
-9.418012
 20
38.699290
  0
VERTEX
  8
praia
 10
-9.417999
 20
38.699274
  0
VERTEX
  8
praia
 10
-9.417994
 20
38.699267
  0
VERTEX
  8
praia
 10
-9.417976
 20
38.699274
  0
VERTEX
  8
praia
 10
-9.417958
 20
38.699281
  0
VERTEX
  8
praia
 10
-9.417945
 20
38.699286
  0
VERTEX
  8
praia
 10
-9.417929
 20
38.699293
  0
VERTEX
  8
praia
 10
-9.417903
 20
38.699303
  0
VERTEX
  8
praia
 10
-9.417892
 20
38.699295
  0
VERTEX
  8
praia
 10
-9.417868
 20
38.699295
  0
VERTEX
  8
praia
 10
-9.417865
 20
38.699293
  0
VERTEX
  8
praia
 10
-9.417863
 20
38.699291
  0
VERTEX
  8
praia
 10
-9.417861
 20
38.699290
  0
VERTEX
  8
praia
 10
-9.417860
 20
38.699289
  0
VERTEX
  8
praia
 10
-9.417858
 20
38.699288
  0
VERTEX
  8
praia
 10
-9.417856
 20
38.699287
  0
VERTEX
  8
praia
 10
-9.417854
 20
38.699286
  0
VERTEX
  8
praia
 10
-9.417853
 20
38.699285
  0
VERTEX
  8
praia
 10
-9.417850
 20
38.699283
  0
VERTEX
  8
praia
 10
-9.417848
 20
38.699282
  0
VERTEX
  8
praia
 10
-9.417844
 20
38.699279
  0
VERTEX
  8
praia
 10
-9.417841
 20
38.699278
  0
VERTEX
  8
praia
 10
-9.417834
 20
38.699273
  0
VERTEX
  8
praia
 10
-9.417828
 20
38.699269
  0
VERTEX
  8
praia
 10
-9.417815
 20
38.699265
  0
VERTEX
  8
praia
 10
-9.417788
 20
38.699255
  0
VERTEX
  8
praia
 10
-9.417730
 20
38.699235
  0
VERTEX
  8
praia
 10
-9.417717
 20
38.699246
  0
VERTEX
  8
praia
 10
-9.417702
 20
38.699257
  0
VERTEX
  8
praia
 10
-9.417686
 20
38.699270
  0
VERTEX
  8
praia
 10
-9.417682
 20
38.699274
  0
VERTEX
  8
praia
 10
-9.417673
 20
38.699281
  0
VERTEX
  8
praia
 10
-9.417663
 20
38.699290
  0
VERTEX
  8
praia
 10
-9.417648
 20
38.699301
  0
VERTEX
  8
praia
 10
-9.417637
 20
38.699311
  0
VERTEX
  8
praia
 10
-9.417628
 20
38.699318
  0
VERTEX
  8
praia
 10
-9.417621
 20
38.699323
  0
VERTEX
  8
praia
 10
-9.417611
 20
38.699332
  0
VERTEX
  8
praia
 10
-9.417598
 20
38.699342
  0
VERTEX
  8
praia
 10
-9.417586
 20
38.699352
  0
VERTEX
  8
praia
 10
-9.417573
 20
38.699363
  0
VERTEX
  8
praia
 10
-9.417560
 20
38.699373
  0
VERTEX
  8
praia
 10
-9.417555
 20
38.699377
  0
VERTEX
  8
praia
 10
-9.417537
 20
38.699378
  0
VERTEX
  8
praia
 10
-9.417498
 20
38.699380
  0
VERTEX
  8
praia
 10
-9.417479
 20
38.699381
  0
VERTEX
  8
praia
 10
-9.417449
 20
38.699382
  0
VERTEX
  8
praia
 10
-9.417445
 20
38.699382
  0
VERTEX
  8
praia
 10
-9.417416
 20
38.699344
  0
VERTEX
  8
praia
 10
-9.417431
 20
38.699231
  0
SEQEND
  0
POINT
  8
praia
  6
BYLAYER
 10
-9.417992
 20
38.699133
 50
0.630251
  0
POLYLINE
  8
praia
  6
BYLAYER
 66
1
 70
1
 40
0.000000
 41
0.000000
  0
VERTEX
  8
praia
 10
-9.418833
 20
38.697375
  0
VERTEX
  8
praia
 10
-9.418796
 20
38.697355
  0
VERTEX
  8
praia
 10
-9.418837
 20
38.697315
  0
VERTEX
  8
praia
 10
-9.418869
 20
38.697272
  0
VERTEX
  8
praia
 10
-9.418909
 20
38.697232
  0
VERTEX
  8
praia
 10
-9.418929
 20
38.697215
  0
VERTEX
  8
praia
 10
-9.418951
 20
38.697197
  0
VERTEX
  8
praia
 10
-9.418974
 20
38.697178
  0
VERTEX
  8
praia
 10
-9.418998
 20
38.697157
  0
VERTEX
  8
praia
 10
-9.419045
 20
38.697122
  0
VERTEX
  8
praia
 10
-9.419066
 20
38.697104
  0
VERTEX
  8
praia
 10
-9.419066
 20
38.697103
  0
VERTEX
  8
praia
 10
-9.419087
 20
38.697083
  0
VERTEX
  8
praia
 10
-9.419107
 20
38.697060
  0
VERTEX
  8
praia
 10
-9.419146
 20
38.697017
  0
VERTEX
  8
praia
 10
-9.419183
 20
38.696975
  0
VERTEX
  8
praia
 10
-9.419228
 20
38.696927
  0
VERTEX
  8
praia
 10
-9.419263
 20
38.696888
  0
VERTEX
  8
praia
 10
-9.419285
 20
38.696866
  0
VERTEX
  8
praia
 10
-9.419309
 20
38.696844
  0
VERTEX
  8
praia
 10
-9.419332
 20
38.696820
  0
VERTEX
  8
praia
 10
-9.419375
 20
38.696781
  0
VERTEX
  8
praia
 10
-9.419397
 20
38.696762
  0
VERTEX
  8
praia
 10
-9.419434
 20
38.696726
  0
VERTEX
  8
praia
 10
-9.419443
 20
38.696718
  0
VERTEX
  8
praia
 10
-9.419481
 20
38.696680
  0
VERTEX
  8
praia
 10
-9.419519
 20
38.696641
  0
VERTEX
  8
praia
 10
-9.419540
 20
38.696621
  0
VERTEX
  8
praia
 10
-9.419579
 20
38.696585
  0
VERTEX
  8
praia
 10
-9.419619
 20
38.696553
  0
VERTEX
  8
praia
 10
-9.419662
 20
38.696518
  0
VERTEX
  8
praia
 10
-9.419696
 20
38.696488
  0
VERTEX
  8
praia
 10
-9.419717
 20
38.696471
  0
VERTEX
  8
praia
 10
-9.419757
 20
38.696435
  0
VERTEX
  8
praia
 10
-9.419789
 20
38.696403
  0
VERTEX
  8
praia
 10
-9.419809
 20
38.696382
  0
VERTEX
  8
praia
 10
-9.419842
 20
38.696348
  0
VERTEX
  8
praia
 10
-9.419859
 20
38.696333
  0
VERTEX
  8
praia
 10
-9.419879
 20
38.696318
  0
VERTEX
  8
praia
 10
-9.419928
 20
38.696281
  0
VERTEX
  8
praia
 10
-9.419974
 20
38.696234
  0
VERTEX
  8
praia
 10
-9.420002
 20
38.696203
  0
VERTEX
  8
praia
 10
-9.420008
 20
38.696194
  0
VERTEX
  8
praia
 10
-9.420037
 20
38.696224
  0
VERTEX
  8
praia
 10
-9.420054
 20
38.696243
  0
VERTEX
  8
praia
 10
-9.420076
 20
38.696265
  0
VERTEX
  8
praia
 10
-9.420087
 20
38.696276
  0
VERTEX
  8
praia
 10
-9.420088
 20
38.696278
  0
VERTEX
  8
praia
 10
-9.420110
 20
38.696301
  0
VERTEX
  8
praia
 10
-9.420120
 20
38.696310
  0
VERTEX
  8
praia
 10
-9.420127
 20
38.696318
  0
VERTEX
  8
praia
 10
-9.420140
 20
38.696334
  0
VERTEX
  8
praia
 10
-9.420143
 20
38.696340
  0
VERTEX
  8
praia
 10
-9.420158
 20
38.696357
  0
VERTEX
  8
praia
 10
-9.420166
 20
38.696369
  0
VERTEX
  8
praia
 10
-9.420174
 20
38.696380
  0
VERTEX
  8
praia
 10
-9.420189
 20
38.696402
  0
VERTEX
  8
praia
 10
-9.420203
 20
38.696424
  0
VERTEX
  8
praia
 10
-9.420216
 20
38.696449
  0
VERTEX
  8
praia
 10
-9.420219
 20
38.696455
  0
VERTEX
  8
praia
 10
-9.420229
 20
38.696479
  0
VERTEX
  8
praia
 10
-9.420231
 20
38.696488
  0
VERTEX
  8
praia
 10
-9.420189
 20
38.696512
  0
VERTEX
  8
praia
 10
-9.420111
 20
38.696559
  0
VERTEX
  8
praia
 10
-9.420118
 20
38.696565
  0
VERTEX
  8
praia
 10
-9.420192
 20
38.696646
  0
VERTEX
  8
praia
 10
-9.420211
 20
38.696667
  0
VERTEX
  8
praia
 10
-9.420213
 20
38.696670
  0
VERTEX
  8
praia
 10
-9.420209
 20
38.696673
  0
VERTEX
  8
praia
 10
-9.420172
 20
38.696699
  0
VERTEX
  8
praia
 10
-9.420144
 20
38.696717
  0
VERTEX
  8
praia
 10
-9.420151
 20
38.696725
  0
VERTEX
  8
praia
 10
-9.420174
 20
38.696749
  0
VERTEX
  8
praia
 10
-9.420199
 20
38.696775
  0
VERTEX
  8
praia
 10
-9.420220
 20
38.696797
  0
VERTEX
  8
praia
 10
-9.420186
 20
38.696816
  0
VERTEX
  8
praia
 10
-9.420137
 20
38.696847
  0
VERTEX
  8
praia
 10
-9.420074
 20
38.696883
  0
VERTEX
  8
praia
 10
-9.420016
 20
38.696911
  0
VERTEX
  8
praia
 10
-9.419966
 20
38.696934
  0
VERTEX
  8
praia
 10
-9.419879
 20
38.696976
  0
VERTEX
  8
praia
 10
-9.419832
 20
38.696998
  0
VERTEX
  8
praia
 10
-9.419801
 20
38.696969
  0
VERTEX
  8
praia
 10
-9.419731
 20
38.697007
  0
VERTEX
  8
praia
 10
-9.419721
 20
38.696995
  0
VERTEX
  8
praia
 10
-9.419697
 20
38.696964
  0
VERTEX
  8
praia
 10
-9.419675
 20
38.696944
  0
VERTEX
  8
praia
 10
-9.419633
 20
38.696964
  0
VERTEX
  8
praia
 10
-9.419569
 20
38.696995
  0
VERTEX
  8
praia
 10
-9.419527
 20
38.697016
  0
VERTEX
  8
praia
 10
-9.419512
 20
38.697023
  0
VERTEX
  8
praia
 10
-9.419477
 20
38.697040
  0
VERTEX
  8
praia
 10
-9.419406
 20
38.697075
  0
VERTEX
  8
praia
 10
-9.419395
 20
38.697080
  0
VERTEX
  8
praia
 10
-9.419300
 20
38.697129
  0
VERTEX
  8
praia
 10
-9.419276
 20
38.697142
  0
VERTEX
  8
praia
 10
-9.419245
 20
38.697158
  0
VERTEX
  8
praia
 10
-9.419176
 20
38.697194
  0
VERTEX
  8
praia
 10
-9.419189
 20
38.697226
  0
VERTEX
  8
praia
 10
-9.419192
 20
38.697232
  0
VERTEX
  8
praia
 10
-9.419193
 20
38.697237
  0
VERTEX
  8
praia
 10
-9.419190
 20
38.697239
  0
VERTEX
  8
praia
 10
-9.419160
 20
38.697270
  0
VERTEX
  8
praia
 10
-9.419129
 20
38.697297
  0
VERTEX
  8
praia
 10
-9.419090
 20
38.697331
  0
VERTEX
  8
praia
 10
-9.419083
 20
38.697337
  0
VERTEX
  8
praia
 10
-9.419083
 20
38.697337
  0
VERTEX
  8
praia
 10
-9.419016
 20
38.697338
  0
VERTEX
  8
praia
 10
-9.419008
 20
38.697344
  0
VERTEX
  8
praia
 10
-9.418967
 20
38.697344
  0
VERTEX
  8
praia
 10
-9.418942
 20
38.697357
  0
VERTEX
  8
praia
 10
-9.418940
 20
38.697358
  0
VERTEX
  8
praia
 10
-9.418913
 20
38.697372
  0
VERTEX
  8
praia
 10
-9.418907
 20
38.697376
  0
VERTEX
  8
praia
 10
-9.418894
 20
38.697382
  0
VERTEX
  8
praia
 10
-9.418871
 20
38.697395
  0
VERTEX
  8
praia
 10
-9.418863
 20
38.697391
  0
VERTEX
  8
praia
 10
-9.418858
 20
38.697389
  0
VERTEX
  8
praia
 10
-9.418844
 20
38.697381
  0
VERTEX
  8
praia
 10
-9.418833
 20
38.697375
  0
SEQEND
  0
POINT
  8
praia
  6
BYLAYER
 10
-9.419673
 20
38.696781
 50
0.631064
  0
POLYLINE
  8
praia
  6
BYLAYER
 66
1
 70
1
 40
0.000000
 41
0.000000
  0
VERTEX
  8
praia
 10
-9.403053
 20
38.703142
  0
VERTEX
  8
praia
 10
-9.403061
 20
38.703142
  0
VERTEX
  8
praia
 10
-9.403078
 20
38.703141
  0
VERTEX
  8
praia
 10
-9.403090
 20
38.703152
  0
VERTEX
  8
praia
 10
-9.403104
 20
38.703169
  0
VERTEX
  8
praia
 10
-9.403105
 20
38.703186
  0
VERTEX
  8
praia
 10
-9.403107
 20
38.703193
  0
VERTEX
  8
praia
 10
-9.403107
 20
38.703203
  0
VERTEX
  8
praia
 10
-9.403103
 20
38.703222
  0
VERTEX
  8
praia
 10
-9.403100
 20
38.703230
  0
VERTEX
  8
praia
 10
-9.403098
 20
38.703239
  0
VERTEX
  8
praia
 10
-9.403094
 20
38.703251
  0
VERTEX
  8
praia
 10
-9.403101
 20
38.703261
  0
VERTEX
  8
praia
 10
-9.403121
 20
38.703263
  0
VERTEX
  8
praia
 10
-9.403148
 20
38.703257
  0
VERTEX
  8
praia
 10
-9.403178
 20
38.703250
  0
VERTEX
  8
praia
 10
-9.403196
 20
38.703245
  0
VERTEX
  8
praia
 10
-9.403205
 20
38.703242
  0
VERTEX
  8
praia
 10
-9.403239
 20
38.703230
  0
VERTEX
  8
praia
 10
-9.403261
 20
38.703223
  0
VERTEX
  8
praia
 10
-9.403288
 20
38.703218
  0
VERTEX
  8
praia
 10
-9.403313
 20
38.703220
  0
VERTEX
  8
praia
 10
-9.403364
 20
38.703230
  0
VERTEX
  8
praia
 10
-9.403388
 20
38.703236
  0
VERTEX
  8
praia
 10
-9.403433
 20
38.703252
  0
VERTEX
  8
praia
 10
-9.403456
 20
38.703258
  0
VERTEX
  8
praia
 10
-9.403479
 20
38.703261
  0
VERTEX
  8
praia
 10
-9.403503
 20
38.703263
  0
VERTEX
  8
praia
 10
-9.403523
 20
38.703265
  0
VERTEX
  8
praia
 10
-9.403542
 20
38.703270
  0
VERTEX
  8
praia
 10
-9.403559
 20
38.703277
  0
VERTEX
  8
praia
 10
-9.403578
 20
38.703286
  0
VERTEX
  8
praia
 10
-9.403600
 20
38.703296
  0
VERTEX
  8
praia
 10
-9.403623
 20
38.703306
  0
VERTEX
  8
praia
 10
-9.403641
 20
38.703313
  0
VERTEX
  8
praia
 10
-9.403669
 20
38.703324
  0
VERTEX
  8
praia
 10
-9.403692
 20
38.703335
  0
VERTEX
  8
praia
 10
-9.403716
 20
38.703344
  0
VERTEX
  8
praia
 10
-9.403740
 20
38.703352
  0
VERTEX
  8
praia
 10
-9.403762
 20
38.703362
  0
VERTEX
  8
praia
 10
-9.403783
 20
38.703374
  0
VERTEX
  8
praia
 10
-9.403801
 20
38.703386
  0
VERTEX
  8
praia
 10
-9.403820
 20
38.703399
  0
VERTEX
  8
praia
 10
-9.403840
 20
38.703410
  0
VERTEX
  8
praia
 10
-9.403860
 20
38.703420
  0
VERTEX
  8
praia
 10
-9.403882
 20
38.703429
  0
VERTEX
  8
praia
 10
-9.403906
 20
38.703436
  0
VERTEX
  8
praia
 10
-9.403927
 20
38.703442
  0
VERTEX
  8
praia
 10
-9.403947
 20
38.703446
  0
VERTEX
  8
praia
 10
-9.403966
 20
38.703451
  0
VERTEX
  8
praia
 10
-9.403985
 20
38.703460
  0
VERTEX
  8
praia
 10
-9.404003
 20
38.703472
  0
VERTEX
  8
praia
 10
-9.404023
 20
38.703485
  0
VERTEX
  8
praia
 10
-9.404044
 20
38.703499
  0
VERTEX
  8
praia
 10
-9.404084
 20
38.703526
  0
VERTEX
  8
praia
 10
-9.404109
 20
38.703537
  0
VERTEX
  8
praia
 10
-9.404133
 20
38.703547
  0
VERTEX
  8
praia
 10
-9.404153
 20
38.703557
  0
VERTEX
  8
praia
 10
-9.404173
 20
38.703566
  0
VERTEX
  8
praia
 10
-9.404193
 20
38.703577
  0
VERTEX
  8
praia
 10
-9.404216
 20
38.703587
  0
VERTEX
  8
praia
 10
-9.404241
 20
38.703597
  0
VERTEX
  8
praia
 10
-9.404266
 20
38.703607
  0
VERTEX
  8
praia
 10
-9.404289
 20
38.703615
  0
VERTEX
  8
praia
 10
-9.404315
 20
38.703626
  0
VERTEX
  8
praia
 10
-9.404336
 20
38.703638
  0
VERTEX
  8
praia
 10
-9.404358
 20
38.703649
  0
VERTEX
  8
praia
 10
-9.404381
 20
38.703656
  0
VERTEX
  8
praia
 10
-9.404409
 20
38.703662
  0
VERTEX
  8
praia
 10
-9.404438
 20
38.703667
  0
VERTEX
  8
praia
 10
-9.404465
 20
38.703676
  0
VERTEX
  8
praia
 10
-9.404490
 20
38.703685
  0
VERTEX
  8
praia
 10
-9.404515
 20
38.703692
  0
VERTEX
  8
praia
 10
-9.404537
 20
38.703696
  0
VERTEX
  8
praia
 10
-9.404563
 20
38.703695
  0
VERTEX
  8
praia
 10
-9.404590
 20
38.703692
  0
VERTEX
  8
praia
 10
-9.404616
 20
38.703687
  0
VERTEX
  8
praia
 10
-9.404643
 20
38.703681
  0
VERTEX
  8
praia
 10
-9.404667
 20
38.703675
  0
VERTEX
  8
praia
 10
-9.404691
 20
38.703670
  0
VERTEX
  8
praia
 10
-9.404718
 20
38.703664
  0
VERTEX
  8
praia
 10
-9.404748
 20
38.703657
  0
VERTEX
  8
praia
 10
-9.404778
 20
38.703654
  0
VERTEX
  8
praia
 10
-9.404807
 20
38.703652
  0
VERTEX
  8
praia
 10
-9.404817
 20
38.703652
  0
VERTEX
  8
praia
 10
-9.404820
 20
38.703672
  0
VERTEX
  8
praia
 10
-9.404811
 20
38.703690
  0
VERTEX
  8
praia
 10
-9.404812
 20
38.703702
  0
VERTEX
  8
praia
 10
-9.404813
 20
38.703707
  0
VERTEX
  8
praia
 10
-9.404813
 20
38.703715
  0
VERTEX
  8
praia
 10
-9.404595
 20
38.703717
  0
VERTEX
  8
praia
 10
-9.404357
 20
38.703707
  0
VERTEX
  8
praia
 10
-9.404130
 20
38.703680
  0
VERTEX
  8
praia
 10
-9.403795
 20
38.703628
  0
VERTEX
  8
praia
 10
-9.403749
 20
38.703740
  0
VERTEX
  8
praia
 10
-9.403697
 20
38.703731
  0
VERTEX
  8
praia
 10
-9.403692
 20
38.703734
  0
VERTEX
  8
praia
 10
-9.403655
 20
38.703721
  0
VERTEX
  8
praia
 10
-9.403621
 20
38.703709
  0
VERTEX
  8
praia
 10
-9.403581
 20
38.703695
  0
VERTEX
  8
praia
 10
-9.403560
 20
38.703689
  0
VERTEX
  8
praia
 10
-9.403526
 20
38.703681
  0
VERTEX
  8
praia
 10
-9.403502
 20
38.703675
  0
VERTEX
  8
praia
 10
-9.403478
 20
38.703670
  0
VERTEX
  8
praia
 10
-9.403456
 20
38.703667
  0
VERTEX
  8
praia
 10
-9.403434
 20
38.703664
  0
VERTEX
  8
praia
 10
-9.403410
 20
38.703661
  0
VERTEX
  8
praia
 10
-9.403386
 20
38.703658
  0
VERTEX
  8
praia
 10
-9.403361
 20
38.703656
  0
VERTEX
  8
praia
 10
-9.403335
 20
38.703654
  0
VERTEX
  8
praia
 10
-9.403307
 20
38.703652
  0
VERTEX
  8
praia
 10
-9.403279
 20
38.703648
  0
VERTEX
  8
praia
 10
-9.403252
 20
38.703644
  0
VERTEX
  8
praia
 10
-9.403226
 20
38.703639
  0
VERTEX
  8
praia
 10
-9.403201
 20
38.703633
  0
VERTEX
  8
praia
 10
-9.403175
 20
38.703629
  0
VERTEX
  8
praia
 10
-9.403146
 20
38.703625
  0
VERTEX
  8
praia
 10
-9.403119
 20
38.703621
  0
VERTEX
  8
praia
 10
-9.403093
 20
38.703618
  0
VERTEX
  8
praia
 10
-9.403068
 20
38.703615
  0
VERTEX
  8
praia
 10
-9.403045
 20
38.703611
  0
VERTEX
  8
praia
 10
-9.403019
 20
38.703607
  0
VERTEX
  8
praia
 10
-9.402993
 20
38.703603
  0
VERTEX
  8
praia
 10
-9.402966
 20
38.703597
  0
VERTEX
  8
praia
 10
-9.402940
 20
38.703590
  0
VERTEX
  8
praia
 10
-9.402914
 20
38.703585
  0
VERTEX
  8
praia
 10
-9.402888
 20
38.703580
  0
VERTEX
  8
praia
 10
-9.402837
 20
38.703572
  0
VERTEX
  8
praia
 10
-9.402789
 20
38.703564
  0
VERTEX
  8
praia
 10
-9.402756
 20
38.703558
  0
VERTEX
  8
praia
 10
-9.402726
 20
38.703552
  0
VERTEX
  8
praia
 10
-9.402700
 20
38.703547
  0
VERTEX
  8
praia
 10
-9.402672
 20
38.703543
  0
VERTEX
  8
praia
 10
-9.402641
 20
38.703540
  0
VERTEX
  8
praia
 10
-9.402609
 20
38.703537
  0
VERTEX
  8
praia
 10
-9.402575
 20
38.703534
  0
VERTEX
  8
praia
 10
-9.402522
 20
38.703528
  0
VERTEX
  8
praia
 10
-9.402481
 20
38.703524
  0
VERTEX
  8
praia
 10
-9.402451
 20
38.703519
  0
VERTEX
  8
praia
 10
-9.402419
 20
38.703515
  0
VERTEX
  8
praia
 10
-9.402390
 20
38.703511
  0
VERTEX
  8
praia
 10
-9.402363
 20
38.703505
  0
VERTEX
  8
praia
 10
-9.402337
 20
38.703500
  0
VERTEX
  8
praia
 10
-9.402310
 20
38.703495
  0
VERTEX
  8
praia
 10
-9.402280
 20
38.703490
  0
VERTEX
  8
praia
 10
-9.402251
 20
38.703484
  0
VERTEX
  8
praia
 10
-9.402225
 20
38.703480
  0
VERTEX
  8
praia
 10
-9.402202
 20
38.703475
  0
VERTEX
  8
praia
 10
-9.402181
 20
38.703472
  0
VERTEX
  8
praia
 10
-9.402150
 20
38.703469
  0
VERTEX
  8
praia
 10
-9.402141
 20
38.703469
  0
VERTEX
  8
praia
 10
-9.402123
 20
38.703470
  0
VERTEX
  8
praia
 10
-9.402104
 20
38.703471
  0
VERTEX
  8
praia
 10
-9.402089
 20
38.703470
  0
VERTEX
  8
praia
 10
-9.402071
 20
38.703469
  0
VERTEX
  8
praia
 10
-9.402025
 20
38.703475
  0
VERTEX
  8
praia
 10
-9.401990
 20
38.703472
  0
VERTEX
  8
praia
 10
-9.401956
 20
38.703469
  0
VERTEX
  8
praia
 10
-9.401804
 20
38.703447
  0
VERTEX
  8
praia
 10
-9.401639
 20
38.703430
  0
VERTEX
  8
praia
 10
-9.401464
 20
38.703414
  0
VERTEX
  8
praia
 10
-9.401395
 20
38.703407
  0
VERTEX
  8
praia
 10
-9.401175
 20
38.703388
  0
VERTEX
  8
praia
 10
-9.400949
 20
38.703373
  0
VERTEX
  8
praia
 10
-9.400718
 20
38.703353
  0
VERTEX
  8
praia
 10
-9.400382
 20
38.703327
  0
VERTEX
  8
praia
 10
-9.399774
 20
38.703269
  0
VERTEX
  8
praia
 10
-9.399646
 20
38.703259
  0
VERTEX
  8
praia
 10
-9.399411
 20
38.703235
  0
VERTEX
  8
praia
 10
-9.399046
 20
38.703202
  0
VERTEX
  8
praia
 10
-9.398821
 20
38.703185
  0
VERTEX
  8
praia
 10
-9.398642
 20
38.703172
  0
VERTEX
  8
praia
 10
-9.398371
 20
38.703156
  0
VERTEX
  8
praia
 10
-9.398239
 20
38.703146
  0
VERTEX
  8
praia
 10
-9.398244
 20
38.703066
  0
VERTEX
  8
praia
 10
-9.398294
 20
38.702961
  0
VERTEX
  8
praia
 10
-9.398247
 20
38.702879
  0
VERTEX
  8
praia
 10
-9.398185
 20
38.702739
  0
VERTEX
  8
praia
 10
-9.398144
 20
38.702745
  0
VERTEX
  8
praia
 10
-9.398054
 20
38.702693
  0
VERTEX
  8
praia
 10
-9.398005
 20
38.702633
  0
VERTEX
  8
praia
 10
-9.398025
 20
38.702623
  0
VERTEX
  8
praia
 10
-9.398032
 20
38.702606
  0
VERTEX
  8
praia
 10
-9.398024
 20
38.702585
  0
VERTEX
  8
praia
 10
-9.397996
 20
38.702576
  0
VERTEX
  8
praia
 10
-9.397970
 20
38.702578
  0
VERTEX
  8
praia
 10
-9.397956
 20
38.702587
  0
VERTEX
  8
praia
 10
-9.397950
 20
38.702594
  0
VERTEX
  8
praia
 10
-9.397809
 20
38.702499
  0
VERTEX
  8
praia
 10
-9.397686
 20
38.702429
  0
VERTEX
  8
praia
 10
-9.397541
 20
38.702351
  0
VERTEX
  8
praia
 10
-9.397364
 20
38.702270
  0
VERTEX
  8
praia
 10
-9.397213
 20
38.702215
  0
VERTEX
  8
praia
 10
-9.397182
 20
38.702208
  0
VERTEX
  8
praia
 10
-9.397187
 20
38.702179
  0
VERTEX
  8
praia
 10
-9.397192
 20
38.702156
  0
VERTEX
  8
praia
 10
-9.397195
 20
38.702137
  0
VERTEX
  8
praia
 10
-9.397197
 20
38.702127
  0
VERTEX
  8
praia
 10
-9.397199
 20
38.702117
  0
VERTEX
  8
praia
 10
-9.397201
 20
38.702108
  0
VERTEX
  8
praia
 10
-9.397205
 20
38.702090
  0
VERTEX
  8
praia
 10
-9.397209
 20
38.702072
  0
VERTEX
  8
praia
 10
-9.397210
 20
38.702065
  0
VERTEX
  8
praia
 10
-9.397211
 20
38.702059
  0
VERTEX
  8
praia
 10
-9.397215
 20
38.702038
  0
VERTEX
  8
praia
 10
-9.397217
 20
38.702030
  0
VERTEX
  8
praia
 10
-9.397235
 20
38.701943
  0
VERTEX
  8
praia
 10
-9.397252
 20
38.701859
  0
VERTEX
  8
praia
 10
-9.397253
 20
38.701854
  0
VERTEX
  8
praia
 10
-9.397254
 20
38.701847
  0
VERTEX
  8
praia
 10
-9.397256
 20
38.701840
  0
VERTEX
  8
praia
 10
-9.397249
 20
38.701837
  0
VERTEX
  8
praia
 10
-9.397243
 20
38.701834
  0
VERTEX
  8
praia
 10
-9.397248
 20
38.701827
  0
VERTEX
  8
praia
 10
-9.397251
 20
38.701823
  0
VERTEX
  8
praia
 10
-9.397251
 20
38.701822
  0
VERTEX
  8
praia
 10
-9.397251
 20
38.701822
  0
VERTEX
  8
praia
 10
-9.397256
 20
38.701815
  0
VERTEX
  8
praia
 10
-9.397256
 20
38.701815
  0
VERTEX
  8
praia
 10
-9.397260
 20
38.701810
  0
VERTEX
  8
praia
 10
-9.397267
 20
38.701800
  0
VERTEX
  8
praia
 10
-9.397268
 20
38.701791
  0
VERTEX
  8
praia
 10
-9.397285
 20
38.701801
  0
VERTEX
  8
praia
 10
-9.397901
 20
38.701440
  0
VERTEX
  8
praia
 10
-9.397896
 20
38.701430
  0
VERTEX
  8
praia
 10
-9.397951
 20
38.701415
  0
VERTEX
  8
praia
 10
-9.397955
 20
38.701425
  0
VERTEX
  8
praia
 10
-9.398143
 20
38.701423
  0
VERTEX
  8
praia
 10
-9.398689
 20
38.701011
  0
VERTEX
  8
praia
 10
-9.398804
 20
38.700973
  0
VERTEX
  8
praia
 10
-9.398875
 20
38.700991
  0
VERTEX
  8
praia
 10
-9.398902
 20
38.701030
  0
VERTEX
  8
praia
 10
-9.398916
 20
38.701067
  0
VERTEX
  8
praia
 10
-9.398939
 20
38.701099
  0
VERTEX
  8
praia
 10
-9.398959
 20
38.701124
  0
VERTEX
  8
praia
 10
-9.398970
 20
38.701156
  0
VERTEX
  8
praia
 10
-9.398978
 20
38.701184
  0
VERTEX
  8
praia
 10
-9.399002
 20
38.701208
  0
VERTEX
  8
praia
 10
-9.399009
 20
38.701237
  0
VERTEX
  8
praia
 10
-9.399031
 20
38.701268
  0
VERTEX
  8
praia
 10
-9.399037
 20
38.701296
  0
VERTEX
  8
praia
 10
-9.399052
 20
38.701308
  0
VERTEX
  8
praia
 10
-9.399062
 20
38.701320
  0
VERTEX
  8
praia
 10
-9.399080
 20
38.701367
  0
VERTEX
  8
praia
 10
-9.399105
 20
38.701390
  0
VERTEX
  8
praia
 10
-9.399115
 20
38.701422
  0
VERTEX
  8
praia
 10
-9.399136
 20
38.701469
  0
VERTEX
  8
praia
 10
-9.399137
 20
38.701470
  0
VERTEX
  8
praia
 10
-9.399137
 20
38.701471
  0
VERTEX
  8
praia
 10
-9.399153
 20
38.701508
  0
VERTEX
  8
praia
 10
-9.399151
 20
38.701547
  0
VERTEX
  8
praia
 10
-9.399087
 20
38.701593
  0
VERTEX
  8
praia
 10
-9.399006
 20
38.701645
  0
VERTEX
  8
praia
 10
-9.398926
 20
38.701674
  0
VERTEX
  8
praia
 10
-9.398855
 20
38.701681
  0
VERTEX
  8
praia
 10
-9.398687
 20
38.701776
  0
VERTEX
  8
praia
 10
-9.398531
 20
38.701882
  0
VERTEX
  8
praia
 10
-9.398457
 20
38.701939
  0
VERTEX
  8
praia
 10
-9.398363
 20
38.702020
  0
VERTEX
  8
praia
 10
-9.398354
 20
38.702031
  0
VERTEX
  8
praia
 10
-9.398343
 20
38.702046
  0
VERTEX
  8
praia
 10
-9.398354
 20
38.702060
  0
VERTEX
  8
praia
 10
-9.398368
 20
38.702068
  0
VERTEX
  8
praia
 10
-9.398387
 20
38.702073
  0
VERTEX
  8
praia
 10
-9.398411
 20
38.702073
  0
VERTEX
  8
praia
 10
-9.398420
 20
38.702080
  0
VERTEX
  8
praia
 10
-9.398425
 20
38.702082
  0
VERTEX
  8
praia
 10
-9.398441
 20
38.702090
  0
VERTEX
  8
praia
 10
-9.398464
 20
38.702113
  0
VERTEX
  8
praia
 10
-9.398502
 20
38.702141
  0
VERTEX
  8
praia
 10
-9.398524
 20
38.702157
  0
VERTEX
  8
praia
 10
-9.398539
 20
38.702176
  0
VERTEX
  8
praia
 10
-9.398553
 20
38.702192
  0
VERTEX
  8
praia
 10
-9.398569
 20
38.702204
  0
VERTEX
  8
praia
 10
-9.398589
 20
38.702217
  0
VERTEX
  8
praia
 10
-9.398611
 20
38.702232
  0
VERTEX
  8
praia
 10
-9.398633
 20
38.702250
  0
VERTEX
  8
praia
 10
-9.398656
 20
38.702270
  0
VERTEX
  8
praia
 10
-9.398697
 20
38.702303
  0
VERTEX
  8
praia
 10
-9.398718
 20
38.702321
  0
VERTEX
  8
praia
 10
-9.398742
 20
38.702339
  0
VERTEX
  8
praia
 10
-9.398777
 20
38.702367
  0
VERTEX
  8
praia
 10
-9.398800
 20
38.702383
  0
VERTEX
  8
praia
 10
-9.398823
 20
38.702397
  0
VERTEX
  8
praia
 10
-9.398850
 20
38.702411
  0
VERTEX
  8
praia
 10
-9.398876
 20
38.702426
  0
VERTEX
  8
praia
 10
-9.398904
 20
38.702440
  0
VERTEX
  8
praia
 10
-9.398931
 20
38.702454
  0
VERTEX
  8
praia
 10
-9.398959
 20
38.702466
  0
VERTEX
  8
praia
 10
-9.398986
 20
38.702477
  0
VERTEX
  8
praia
 10
-9.399015
 20
38.702487
  0
VERTEX
  8
praia
 10
-9.399044
 20
38.702494
  0
VERTEX
  8
praia
 10
-9.399073
 20
38.702501
  0
VERTEX
  8
praia
 10
-9.399102
 20
38.702508
  0
VERTEX
  8
praia
 10
-9.399114
 20
38.702507
  0
VERTEX
  8
praia
 10
-9.399133
 20
38.702512
  0
VERTEX
  8
praia
 10
-9.399151
 20
38.702518
  0
VERTEX
  8
praia
 10
-9.399197
 20
38.702532
  0
VERTEX
  8
praia
 10
-9.399230
 20
38.702537
  0
VERTEX
  8
praia
 10
-9.399258
 20
38.702544
  0
VERTEX
  8
praia
 10
-9.399287
 20
38.702551
  0
VERTEX
  8
praia
 10
-9.399334
 20
38.702561
  0
VERTEX
  8
praia
 10
-9.399365
 20
38.702567
  0
VERTEX
  8
praia
 10
-9.399408
 20
38.702572
  0
VERTEX
  8
praia
 10
-9.399423
 20
38.702571
  0
VERTEX
  8
praia
 10
-9.399451
 20
38.702577
  0
VERTEX
  8
praia
 10
-9.399481
 20
38.702581
  0
VERTEX
  8
praia
 10
-9.399530
 20
38.702585
  0
VERTEX
  8
praia
 10
-9.399544
 20
38.702587
  0
VERTEX
  8
praia
 10
-9.399574
 20
38.702589
  0
VERTEX
  8
praia
 10
-9.399600
 20
38.702592
  0
VERTEX
  8
praia
 10
-9.399673
 20
38.702594
  0
VERTEX
  8
praia
 10
-9.399703
 20
38.702596
  0
VERTEX
  8
praia
 10
-9.399754
 20
38.702602
  0
VERTEX
  8
praia
 10
-9.399783
 20
38.702605
  0
VERTEX
  8
praia
 10
-9.399810
 20
38.702607
  0
VERTEX
  8
praia
 10
-9.399838
 20
38.702610
  0
VERTEX
  8
praia
 10
-9.399863
 20
38.702613
  0
VERTEX
  8
praia
 10
-9.399891
 20
38.702615
  0
VERTEX
  8
praia
 10
-9.399915
 20
38.702618
  0
VERTEX
  8
praia
 10
-9.399937
 20
38.702621
  0
VERTEX
  8
praia
 10
-9.399956
 20
38.702622
  0
VERTEX
  8
praia
 10
-9.399980
 20
38.702621
  0
VERTEX
  8
praia
 10
-9.399999
 20
38.702620
  0
VERTEX
  8
praia
 10
-9.400036
 20
38.702621
  0
VERTEX
  8
praia
 10
-9.400102
 20
38.702623
  0
VERTEX
  8
praia
 10
-9.400142
 20
38.702622
  0
VERTEX
  8
praia
 10
-9.400165
 20
38.702621
  0
VERTEX
  8
praia
 10
-9.400205
 20
38.702615
  0
VERTEX
  8
praia
 10
-9.400212
 20
38.702616
  0
VERTEX
  8
praia
 10
-9.400223
 20
38.702615
  0
VERTEX
  8
praia
 10
-9.400248
 20
38.702608
  0
VERTEX
  8
praia
 10
-9.400264
 20
38.702603
  0
VERTEX
  8
praia
 10
-9.400283
 20
38.702593
  0
VERTEX
  8
praia
 10
-9.400302
 20
38.702581
  0
VERTEX
  8
praia
 10
-9.400319
 20
38.702568
  0
VERTEX
  8
praia
 10
-9.400334
 20
38.702555
  0
VERTEX
  8
praia
 10
-9.400346
 20
38.702545
  0
VERTEX
  8
praia
 10
-9.400363
 20
38.702531
  0
VERTEX
  8
praia
 10
-9.400387
 20
38.702510
  0
VERTEX
  8
praia
 10
-9.400393
 20
38.702506
  0
VERTEX
  8
praia
 10
-9.400430
 20
38.702491
  0
VERTEX
  8
praia
 10
-9.400452
 20
38.702483
  0
VERTEX
  8
praia
 10
-9.400474
 20
38.702475
  0
VERTEX
  8
praia
 10
-9.400498
 20
38.702468
  0
VERTEX
  8
praia
 10
-9.400518
 20
38.702461
  0
VERTEX
  8
praia
 10
-9.400538
 20
38.702455
  0
VERTEX
  8
praia
 10
-9.400561
 20
38.702450
  0
VERTEX
  8
praia
 10
-9.400632
 20
38.702434
  0
VERTEX
  8
praia
 10
-9.400654
 20
38.702431
  0
VERTEX
  8
praia
 10
-9.400697
 20
38.702425
  0
VERTEX
  8
praia
 10
-9.400737
 20
38.702421
  0
VERTEX
  8
praia
 10
-9.400762
 20
38.702420
  0
VERTEX
  8
praia
 10
-9.400774
 20
38.702422
  0
VERTEX
  8
praia
 10
-9.400797
 20
38.702426
  0
VERTEX
  8
praia
 10
-9.400817
 20
38.702433
  0
VERTEX
  8
praia
 10
-9.400823
 20
38.702438
  0
VERTEX
  8
praia
 10
-9.400834
 20
38.702448
  0
VERTEX
  8
praia
 10
-9.400839
 20
38.702454
  0
VERTEX
  8
praia
 10
-9.400846
 20
38.702481
  0
VERTEX
  8
praia
 10
-9.400848
 20
38.702498
  0
VERTEX
  8
praia
 10
-9.400848
 20
38.702514
  0
VERTEX
  8
praia
 10
-9.400844
 20
38.702531
  0
VERTEX
  8
praia
 10
-9.400841
 20
38.702538
  0
VERTEX
  8
praia
 10
-9.400827
 20
38.702564
  0
VERTEX
  8
praia
 10
-9.400806
 20
38.702595
  0
VERTEX
  8
praia
 10
-9.400796
 20
38.702611
  0
VERTEX
  8
praia
 10
-9.400784
 20
38.702628
  0
VERTEX
  8
praia
 10
-9.400771
 20
38.702643
  0
VERTEX
  8
praia
 10
-9.400759
 20
38.702658
  0
VERTEX
  8
praia
 10
-9.400755
 20
38.702663
  0
VERTEX
  8
praia
 10
-9.400748
 20
38.702671
  0
VERTEX
  8
praia
 10
-9.400736
 20
38.702685
  0
VERTEX
  8
praia
 10
-9.400727
 20
38.702705
  0
VERTEX
  8
praia
 10
-9.400724
 20
38.702718
  0
VERTEX
  8
praia
 10
-9.400725
 20
38.702725
  0
VERTEX
  8
praia
 10
-9.400726
 20
38.702731
  0
VERTEX
  8
praia
 10
-9.400729
 20
38.702737
  0
VERTEX
  8
praia
 10
-9.400734
 20
38.702743
  0
VERTEX
  8
praia
 10
-9.400750
 20
38.702754
  0
VERTEX
  8
praia
 10
-9.400758
 20
38.702759
  0
VERTEX
  8
praia
 10
-9.400777
 20
38.702768
  0
VERTEX
  8
praia
 10
-9.400794
 20
38.702774
  0
VERTEX
  8
praia
 10
-9.400815
 20
38.702780
  0
VERTEX
  8
praia
 10
-9.400833
 20
38.702785
  0
VERTEX
  8
praia
 10
-9.400844
 20
38.702787
  0
VERTEX
  8
praia
 10
-9.400867
 20
38.702790
  0
VERTEX
  8
praia
 10
-9.400893
 20
38.702793
  0
VERTEX
  8
praia
 10
-9.400916
 20
38.702794
  0
VERTEX
  8
praia
 10
-9.400938
 20
38.702796
  0
VERTEX
  8
praia
 10
-9.400978
 20
38.702798
  0
VERTEX
  8
praia
 10
-9.401036
 20
38.702809
  0
VERTEX
  8
praia
 10
-9.401061
 20
38.702816
  0
VERTEX
  8
praia
 10
-9.401073
 20
38.702816
  0
VERTEX
  8
praia
 10
-9.401093
 20
38.702829
  0
VERTEX
  8
praia
 10
-9.401103
 20
38.702834
  0
VERTEX
  8
praia
 10
-9.401125
 20
38.702850
  0
VERTEX
  8
praia
 10
-9.401142
 20
38.702863
  0
VERTEX
  8
praia
 10
-9.401159
 20
38.702875
  0
VERTEX
  8
praia
 10
-9.401190
 20
38.702895
  0
VERTEX
  8
praia
 10
-9.401209
 20
38.702907
  0
VERTEX
  8
praia
 10
-9.401232
 20
38.702918
  0
VERTEX
  8
praia
 10
-9.401243
 20
38.702922
  0
VERTEX
  8
praia
 10
-9.401271
 20
38.702929
  0
VERTEX
  8
praia
 10
-9.401282
 20
38.702929
  0
VERTEX
  8
praia
 10
-9.401303
 20
38.702927
  0
VERTEX
  8
praia
 10
-9.401330
 20
38.702925
  0
VERTEX
  8
praia
 10
-9.401354
 20
38.702924
  0
VERTEX
  8
praia
 10
-9.401363
 20
38.702924
  0
VERTEX
  8
praia
 10
-9.401385
 20
38.702927
  0
VERTEX
  8
praia
 10
-9.401397
 20
38.702930
  0
VERTEX
  8
praia
 10
-9.401420
 20
38.702938
  0
VERTEX
  8
praia
 10
-9.401431
 20
38.702942
  0
VERTEX
  8
praia
 10
-9.401453
 20
38.702954
  0
VERTEX
  8
praia
 10
-9.401477
 20
38.702959
  0
VERTEX
  8
praia
 10
-9.401487
 20
38.702969
  0
VERTEX
  8
praia
 10
-9.401491
 20
38.702970
  0
VERTEX
  8
praia
 10
-9.401511
 20
38.702976
  0
VERTEX
  8
praia
 10
-9.401527
 20
38.702982
  0
VERTEX
  8
praia
 10
-9.401537
 20
38.702985
  0
VERTEX
  8
praia
 10
-9.401546
 20
38.702986
  0
VERTEX
  8
praia
 10
-9.401567
 20
38.702992
  0
VERTEX
  8
praia
 10
-9.401589
 20
38.702997
  0
VERTEX
  8
praia
 10
-9.401612
 20
38.703003
  0
VERTEX
  8
praia
 10
-9.401636
 20
38.703010
  0
VERTEX
  8
praia
 10
-9.401659
 20
38.703016
  0
VERTEX
  8
praia
 10
-9.401670
 20
38.703020
  0
VERTEX
  8
praia
 10
-9.401692
 20
38.703028
  0
VERTEX
  8
praia
 10
-9.401727
 20
38.703046
  0
VERTEX
  8
praia
 10
-9.401747
 20
38.703057
  0
VERTEX
  8
praia
 10
-9.401769
 20
38.703069
  0
VERTEX
  8
praia
 10
-9.401790
 20
38.703081
  0
VERTEX
  8
praia
 10
-9.401807
 20
38.703092
  0
VERTEX
  8
praia
 10
-9.401815
 20
38.703098
  0
VERTEX
  8
praia
 10
-9.401826
 20
38.703109
  0
VERTEX
  8
praia
 10
-9.401837
 20
38.703125
  0
VERTEX
  8
praia
 10
-9.401848
 20
38.703136
  0
VERTEX
  8
praia
 10
-9.401858
 20
38.703146
  0
VERTEX
  8
praia
 10
-9.401868
 20
38.703159
  0
VERTEX
  8
praia
 10
-9.401879
 20
38.703177
  0
VERTEX
  8
praia
 10
-9.401889
 20
38.703193
  0
VERTEX
  8
praia
 10
-9.401895
 20
38.703200
  0
VERTEX
  8
praia
 10
-9.401903
 20
38.703206
  0
VERTEX
  8
praia
 10
-9.401911
 20
38.703211
  0
VERTEX
  8
praia
 10
-9.401929
 20
38.703218
  0
VERTEX
  8
praia
 10
-9.401969
 20
38.703234
  0
VERTEX
  8
praia
 10
-9.401980
 20
38.703238
  0
VERTEX
  8
praia
 10
-9.402005
 20
38.703243
  0
VERTEX
  8
praia
 10
-9.402031
 20
38.703248
  0
VERTEX
  8
praia
 10
-9.402058
 20
38.703253
  0
VERTEX
  8
praia
 10
-9.402103
 20
38.703262
  0
VERTEX
  8
praia
 10
-9.402147
 20
38.703269
  0
VERTEX
  8
praia
 10
-9.402171
 20
38.703273
  0
VERTEX
  8
praia
 10
-9.402196
 20
38.703278
  0
VERTEX
  8
praia
 10
-9.402226
 20
38.703283
  0
VERTEX
  8
praia
 10
-9.402249
 20
38.703287
  0
VERTEX
  8
praia
 10
-9.402270
 20
38.703292
  0
VERTEX
  8
praia
 10
-9.402292
 20
38.703295
  0
VERTEX
  8
praia
 10
-9.402337
 20
38.703303
  0
VERTEX
  8
praia
 10
-9.402362
 20
38.703309
  0
VERTEX
  8
praia
 10
-9.402386
 20
38.703315
  0
VERTEX
  8
praia
 10
-9.402409
 20
38.703320
  0
VERTEX
  8
praia
 10
-9.402432
 20
38.703325
  0
VERTEX
  8
praia
 10
-9.402452
 20
38.703331
  0
VERTEX
  8
praia
 10
-9.402474
 20
38.703335
  0
VERTEX
  8
praia
 10
-9.402497
 20
38.703339
  0
VERTEX
  8
praia
 10
-9.402520
 20
38.703342
  0
VERTEX
  8
praia
 10
-9.402546
 20
38.703346
  0
VERTEX
  8
praia
 10
-9.402578
 20
38.703349
  0
VERTEX
  8
praia
 10
-9.402624
 20
38.703352
  0
VERTEX
  8
praia
 10
-9.402652
 20
38.703354
  0
VERTEX
  8
praia
 10
-9.402681
 20
38.703355
  0
VERTEX
  8
praia
 10
-9.402712
 20
38.703357
  0
VERTEX
  8
praia
 10
-9.402743
 20
38.703357
  0
VERTEX
  8
praia
 10
-9.402770
 20
38.703358
  0
VERTEX
  8
praia
 10
-9.402795
 20
38.703359
  0
VERTEX
  8
praia
 10
-9.402820
 20
38.703358
  0
VERTEX
  8
praia
 10
-9.402850
 20
38.703355
  0
VERTEX
  8
praia
 10
-9.402880
 20
38.703351
  0
VERTEX
  8
praia
 10
-9.402907
 20
38.703345
  0
VERTEX
  8
praia
 10
-9.402932
 20
38.703332
  0
VERTEX
  8
praia
 10
-9.402948
 20
38.703320
  0
VERTEX
  8
praia
 10
-9.402956
 20
38.703305
  0
VERTEX
  8
praia
 10
-9.402964
 20
38.703288
  0
VERTEX
  8
praia
 10
-9.402979
 20
38.703271
  0
VERTEX
  8
praia
 10
-9.402999
 20
38.703256
  0
VERTEX
  8
praia
 10
-9.403016
 20
38.703238
  0
VERTEX
  8
praia
 10
-9.403030
 20
38.703219
  0
VERTEX
  8
praia
 10
-9.403037
 20
38.703202
  0
VERTEX
  8
praia
 10
-9.403036
 20
38.703185
  0
VERTEX
  8
praia
 10
-9.403037
 20
38.703170
  0
VERTEX
  8
praia
 10
-9.403040
 20
38.703156
  0
VERTEX
  8
praia
 10
-9.403053
 20
38.703142
  0
SEQEND
  0
POINT
  8
praia
  6
BYLAYER
 10
-9.399767
 20
38.702632
 50
0.621335
  0
POLYLINE
  8
praia
  6
BYLAYER
 66
1
 70
1
 40
0.000000
 41
0.000000
  0
VERTEX
  8
praia
 10
-9.415815
 20
38.700397
  0
VERTEX
  8
praia
 10
-9.415915
 20
38.700561
  0
VERTEX
  8
praia
 10
-9.415846
 20
38.700592
  0
VERTEX
  8
praia
 10
-9.415701
 20
38.700774
  0
VERTEX
  8
praia
 10
-9.415499
 20
38.700803
  0
VERTEX
  8
praia
 10
-9.415574
 20
38.700847
  0
VERTEX
  8
praia
 10
-9.415076
 20
38.700914
  0
VERTEX
  8
praia
 10
-9.415037
 20
38.700992
  0
VERTEX
  8
praia
 10
-9.414904
 20
38.700987
  0
VERTEX
  8
praia
 10
-9.414756
 20
38.700979
  0
VERTEX
  8
praia
 10
-9.414636
 20
38.700987
  0
VERTEX
  8
praia
 10
-9.414566
 20
38.700981
  0
VERTEX
  8
praia
 10
-9.414451
 20
38.700995
  0
VERTEX
  8
praia
 10
-9.414352
 20
38.701006
  0
VERTEX
  8
praia
 10
-9.414261
 20
38.701023
  0
VERTEX
  8
praia
 10
-9.414175
 20
38.701031
  0
VERTEX
  8
praia
 10
-9.414084
 20
38.701048
  0
VERTEX
  8
praia
 10
-9.414014
 20
38.701048
  0
VERTEX
  8
praia
 10
-9.413981
 20
38.701023
  0
VERTEX
  8
praia
 10
-9.413954
 20
38.700993
  0
VERTEX
  8
praia
 10
-9.413789
 20
38.700806
  0
VERTEX
  8
praia
 10
-9.413728
 20
38.700741
  0
VERTEX
  8
praia
 10
-9.413714
 20
38.700726
  0
VERTEX
  8
praia
 10
-9.413719
 20
38.700724
  0
VERTEX
  8
praia
 10
-9.413746
 20
38.700710
  0
VERTEX
  8
praia
 10
-9.413767
 20
38.700701
  0
VERTEX
  8
praia
 10
-9.413799
 20
38.700693
  0
VERTEX
  8
praia
 10
-9.413833
 20
38.700687
  0
VERTEX
  8
praia
 10
-9.413898
 20
38.700679
  0
VERTEX
  8
praia
 10
-9.413962
 20
38.700675
  0
VERTEX
  8
praia
 10
-9.414044
 20
38.700672
  0
VERTEX
  8
praia
 10
-9.414085
 20
38.700669
  0
VERTEX
  8
praia
 10
-9.414124
 20
38.700663
  0
VERTEX
  8
praia
 10
-9.414209
 20
38.700650
  0
VERTEX
  8
praia
 10
-9.414255
 20
38.700644
  0
VERTEX
  8
praia
 10
-9.414296
 20
38.700639
  0
VERTEX
  8
praia
 10
-9.414334
 20
38.700634
  0
VERTEX
  8
praia
 10
-9.414375
 20
38.700628
  0
VERTEX
  8
praia
 10
-9.414461
 20
38.700612
  0
VERTEX
  8
praia
 10
-9.414503
 20
38.700603
  0
VERTEX
  8
praia
 10
-9.414539
 20
38.700592
  0
VERTEX
  8
praia
 10
-9.414577
 20
38.700584
  0
VERTEX
  8
praia
 10
-9.414654
 20
38.700574
  0
VERTEX
  8
praia
 10
-9.414698
 20
38.700573
  0
VERTEX
  8
praia
 10
-9.414787
 20
38.700573
  0
VERTEX
  8
praia
 10
-9.414879
 20
38.700572
  0
VERTEX
  8
praia
 10
-9.414920
 20
38.700570
  0
VERTEX
  8
praia
 10
-9.414962
 20
38.700566
  0
VERTEX
  8
praia
 10
-9.415004
 20
38.700562
  0
VERTEX
  8
praia
 10
-9.415045
 20
38.700558
  0
VERTEX
  8
praia
 10
-9.415085
 20
38.700554
  0
VERTEX
  8
praia
 10
-9.415121
 20
38.700548
  0
VERTEX
  8
praia
 10
-9.415165
 20
38.700543
  0
VERTEX
  8
praia
 10
-9.415208
 20
38.700538
  0
VERTEX
  8
praia
 10
-9.415248
 20
38.700533
  0
VERTEX
  8
praia
 10
-9.415285
 20
38.700527
  0
VERTEX
  8
praia
 10
-9.415322
 20
38.700522
  0
VERTEX
  8
praia
 10
-9.415362
 20
38.700515
  0
VERTEX
  8
praia
 10
-9.415443
 20
38.700496
  0
VERTEX
  8
praia
 10
-9.415521
 20
38.700474
  0
VERTEX
  8
praia
 10
-9.415562
 20
38.700463
  0
VERTEX
  8
praia
 10
-9.415641
 20
38.700441
  0
VERTEX
  8
praia
 10
-9.415721
 20
38.700419
  0
VERTEX
  8
praia
 10
-9.415760
 20
38.700409
  0
VERTEX
  8
praia
 10
-9.415815
 20
38.700397
  0
SEQEND
  0
POINT
  8
praia
  6
BYLAYER
 10
-9.414824
 20
38.700751
 50
0.628707
  0
POLYLINE
  8
praia
  6
BYLAYER
 66
1
 70
1
 40
0.000000
 41
0.000000
  0
VERTEX
  8
praia
 10
-9.362053
 20
38.688874
  0
VERTEX
  8
praia
 10
-9.362092
 20
38.688878
  0
VERTEX
  8
praia
 10
-9.362092
 20
38.688883
  0
VERTEX
  8
praia
 10
-9.362094
 20
38.688902
  0
VERTEX
  8
praia
 10
-9.362092
 20
38.688913
  0
VERTEX
  8
praia
 10
-9.362091
 20
38.688914
  0
VERTEX
  8
praia
 10
-9.362090
 20
38.688920
  0
VERTEX
  8
praia
 10
-9.362089
 20
38.688927
  0
VERTEX
  8
praia
 10
-9.362088
 20
38.688929
  0
VERTEX
  8
praia
 10
-9.362086
 20
38.688940
  0
VERTEX
  8
praia
 10
-9.362082
 20
38.688958
  0
VERTEX
  8
praia
 10
-9.362082
 20
38.688959
  0
VERTEX
  8
praia
 10
-9.362082
 20
38.688960
  0
VERTEX
  8
praia
 10
-9.362081
 20
38.688964
  0
VERTEX
  8
praia
 10
-9.362077
 20
38.688985
  0
VERTEX
  8
praia
 10
-9.362076
 20
38.688987
  0
VERTEX
  8
praia
 10
-9.362071
 20
38.689011
  0
VERTEX
  8
praia
 10
-9.362067
 20
38.689029
  0
VERTEX
  8
praia
 10
-9.362064
 20
38.689044
  0
VERTEX
  8
praia
 10
-9.362064
 20
38.689046
  0
VERTEX
  8
praia
 10
-9.362063
 20
38.689052
  0
VERTEX
  8
praia
 10
-9.362062
 20
38.689053
  0
VERTEX
  8
praia
 10
-9.362061
 20
38.689060
  0
VERTEX
  8
praia
 10
-9.362060
 20
38.689065
  0
VERTEX
  8
praia
 10
-9.362059
 20
38.689070
  0
VERTEX
  8
praia
 10
-9.362056
 20
38.689081
  0
VERTEX
  8
praia
 10
-9.362052
 20
38.689104
  0
VERTEX
  8
praia
 10
-9.362049
 20
38.689117
  0
VERTEX
  8
praia
 10
-9.362046
 20
38.689126
  0
VERTEX
  8
praia
 10
-9.362046
 20
38.689127
  0
VERTEX
  8
praia
 10
-9.362044
 20
38.689133
  0
VERTEX
  8
praia
 10
-9.362043
 20
38.689133
  0
VERTEX
  8
praia
 10
-9.362043
 20
38.689134
  0
VERTEX
  8
praia
 10
-9.362043
 20
38.689135
  0
VERTEX
  8
praia
 10
-9.362041
 20
38.689140
  0
VERTEX
  8
praia
 10
-9.362040
 20
38.689145
  0
VERTEX
  8
praia
 10
-9.362039
 20
38.689146
  0
VERTEX
  8
praia
 10
-9.362039
 20
38.689146
  0
VERTEX
  8
praia
 10
-9.362039
 20
38.689148
  0
VERTEX
  8
praia
 10
-9.362038
 20
38.689150
  0
VERTEX
  8
praia
 10
-9.362038
 20
38.689151
  0
VERTEX
  8
praia
 10
-9.362037
 20
38.689154
  0
VERTEX
  8
praia
 10
-9.362031
 20
38.689170
  0
VERTEX
  8
praia
 10
-9.361934
 20
38.689176
  0
VERTEX
  8
praia
 10
-9.361801
 20
38.689104
  0
VERTEX
  8
praia
 10
-9.361784
 20
38.689094
  0
VERTEX
  8
praia
 10
-9.361646
 20
38.689104
  0
VERTEX
  8
praia
 10
-9.361593
 20
38.689105
  0
VERTEX
  8
praia
 10
-9.361378
 20
38.688990
  0
VERTEX
  8
praia
 10
-9.361206
 20
38.688834
  0
VERTEX
  8
praia
 10
-9.361097
 20
38.688710
  0
VERTEX
  8
praia
 10
-9.360787
 20
38.688613
  0
VERTEX
  8
praia
 10
-9.360668
 20
38.688465
  0
VERTEX
  8
praia
 10
-9.360400
 20
38.688343
  0
VERTEX
  8
praia
 10
-9.360110
 20
38.688162
  0
VERTEX
  8
praia
 10
-9.359906
 20
38.688056
  0
VERTEX
  8
praia
 10
-9.359926
 20
38.688006
  0
VERTEX
  8
praia
 10
-9.359584
 20
38.687843
  0
VERTEX
  8
praia
 10
-9.359433
 20
38.687736
  0
VERTEX
  8
praia
 10
-9.359324
 20
38.687571
  0
VERTEX
  8
praia
 10
-9.359304
 20
38.687539
  0
VERTEX
  8
praia
 10
-9.359477
 20
38.687484
  0
VERTEX
  8
praia
 10
-9.359535
 20
38.687466
  0
VERTEX
  8
praia
 10
-9.359635
 20
38.687436
  0
VERTEX
  8
praia
 10
-9.359663
 20
38.687428
  0
VERTEX
  8
praia
 10
-9.359669
 20
38.687439
  0
VERTEX
  8
praia
 10
-9.359686
 20
38.687473
  0
VERTEX
  8
praia
 10
-9.359705
 20
38.687516
  0
VERTEX
  8
praia
 10
-9.359716
 20
38.687537
  0
VERTEX
  8
praia
 10
-9.359746
 20
38.687575
  0
VERTEX
  8
praia
 10
-9.359784
 20
38.687614
  0
VERTEX
  8
praia
 10
-9.359837
 20
38.687654
  0
VERTEX
  8
praia
 10
-9.359858
 20
38.687669
  0
VERTEX
  8
praia
 10
-9.359910
 20
38.687702
  0
VERTEX
  8
praia
 10
-9.359954
 20
38.687729
  0
VERTEX
  8
praia
 10
-9.360003
 20
38.687753
  0
VERTEX
  8
praia
 10
-9.360057
 20
38.687780
  0
VERTEX
  8
praia
 10
-9.360125
 20
38.687811
  0
VERTEX
  8
praia
 10
-9.360149
 20
38.687823
  0
VERTEX
  8
praia
 10
-9.360194
 20
38.687842
  0
VERTEX
  8
praia
 10
-9.360233
 20
38.687861
  0
VERTEX
  8
praia
 10
-9.360253
 20
38.687870
  0
VERTEX
  8
praia
 10
-9.360291
 20
38.687885
  0
VERTEX
  8
praia
 10
-9.360302
 20
38.687892
  0
VERTEX
  8
praia
 10
-9.360341
 20
38.687918
  0
VERTEX
  8
praia
 10
-9.360369
 20
38.687937
  0
VERTEX
  8
praia
 10
-9.360410
 20
38.687963
  0
VERTEX
  8
praia
 10
-9.360465
 20
38.688004
  0
VERTEX
  8
praia
 10
-9.360504
 20
38.688033
  0
VERTEX
  8
praia
 10
-9.360526
 20
38.688050
  0
VERTEX
  8
praia
 10
-9.360548
 20
38.688064
  0
VERTEX
  8
praia
 10
-9.360568
 20
38.688072
  0
VERTEX
  8
praia
 10
-9.360588
 20
38.688076
  0
VERTEX
  8
praia
 10
-9.360609
 20
38.688077
  0
VERTEX
  8
praia
 10
-9.360632
 20
38.688082
  0
VERTEX
  8
praia
 10
-9.360677
 20
38.688100
  0
VERTEX
  8
praia
 10
-9.360699
 20
38.688113
  0
VERTEX
  8
praia
 10
-9.360753
 20
38.688141
  0
VERTEX
  8
praia
 10
-9.360775
 20
38.688154
  0
VERTEX
  8
praia
 10
-9.360797
 20
38.688168
  0
VERTEX
  8
praia
 10
-9.360830
 20
38.688194
  0
VERTEX
  8
praia
 10
-9.360866
 20
38.688222
  0
VERTEX
  8
praia
 10
-9.360888
 20
38.688241
  0
VERTEX
  8
praia
 10
-9.360927
 20
38.688276
  0
VERTEX
  8
praia
 10
-9.360964
 20
38.688307
  0
VERTEX
  8
praia
 10
-9.361007
 20
38.688337
  0
VERTEX
  8
praia
 10
-9.361049
 20
38.688366
  0
VERTEX
  8
praia
 10
-9.361070
 20
38.688380
  0
VERTEX
  8
praia
 10
-9.361118
 20
38.688405
  0
VERTEX
  8
praia
 10
-9.361142
 20
38.688416
  0
VERTEX
  8
praia
 10
-9.361188
 20
38.688432
  0
VERTEX
  8
praia
 10
-9.361211
 20
38.688439
  0
VERTEX
  8
praia
 10
-9.361254
 20
38.688446
  0
VERTEX
  8
praia
 10
-9.361282
 20
38.688454
  0
VERTEX
  8
praia
 10
-9.361344
 20
38.688475
  0
VERTEX
  8
praia
 10
-9.361394
 20
38.688494
  0
VERTEX
  8
praia
 10
-9.361439
 20
38.688519
  0
VERTEX
  8
praia
 10
-9.361458
 20
38.688530
  0
VERTEX
  8
praia
 10
-9.361480
 20
38.688543
  0
VERTEX
  8
praia
 10
-9.361502
 20
38.688558
  0
VERTEX
  8
praia
 10
-9.361539
 20
38.688592
  0
VERTEX
  8
praia
 10
-9.361564
 20
38.688626
  0
VERTEX
  8
praia
 10
-9.361576
 20
38.688644
  0
VERTEX
  8
praia
 10
-9.361592
 20
38.688663
  0
VERTEX
  8
praia
 10
-9.361627
 20
38.688681
  0
VERTEX
  8
praia
 10
-9.361651
 20
38.688683
  0
VERTEX
  8
praia
 10
-9.361670
 20
38.688689
  0
VERTEX
  8
praia
 10
-9.361689
 20
38.688701
  0
VERTEX
  8
praia
 10
-9.361728
 20
38.688733
  0
VERTEX
  8
praia
 10
-9.361746
 20
38.688748
  0
VERTEX
  8
praia
 10
-9.361766
 20
38.688752
  0
VERTEX
  8
praia
 10
-9.361788
 20
38.688745
  0
VERTEX
  8
praia
 10
-9.361806
 20
38.688743
  0
VERTEX
  8
praia
 10
-9.361821
 20
38.688751
  0
VERTEX
  8
praia
 10
-9.361836
 20
38.688762
  0
VERTEX
  8
praia
 10
-9.361856
 20
38.688768
  0
VERTEX
  8
praia
 10
-9.361881
 20
38.688766
  0
VERTEX
  8
praia
 10
-9.361905
 20
38.688761
  0
VERTEX
  8
praia
 10
-9.361928
 20
38.688757
  0
VERTEX
  8
praia
 10
-9.361945
 20
38.688756
  0
VERTEX
  8
praia
 10
-9.361960
 20
38.688759
  0
VERTEX
  8
praia
 10
-9.361965
 20
38.688762
  0
VERTEX
  8
praia
 10
-9.361972
 20
38.688770
  0
VERTEX
  8
praia
 10
-9.361988
 20
38.688788
  0
VERTEX
  8
praia
 10
-9.362003
 20
38.688812
  0
VERTEX
  8
praia
 10
-9.362011
 20
38.688823
  0
VERTEX
  8
praia
 10
-9.362014
 20
38.688837
  0
VERTEX
  8
praia
 10
-9.362026
 20
38.688859
  0
VERTEX
  8
praia
 10
-9.362053
 20
38.688874
  0
SEQEND
  0
POINT
  8
praia
  6
BYLAYER
 10
-9.360771
 20
38.688360
 50
0.602156
  0
POLYLINE
  8
praia
  6
BYLAYER
 66
1
 70
1
 40
0.000000
 41
0.000000
  0
VERTEX
  8
praia
 10
-9.367874
 20
38.692746
  0
VERTEX
  8
praia
 10
-9.368175
 20
38.692598
  0
VERTEX
  8
praia
 10
-9.368192
 20
38.692627
  0
VERTEX
  8
praia
 10
-9.368212
 20
38.692655
  0
VERTEX
  8
praia
 10
-9.368238
 20
38.692679
  0
VERTEX
  8
praia
 10
-9.368275
 20
38.692699
  0
VERTEX
  8
praia
 10
-9.368313
 20
38.692715
  0
VERTEX
  8
praia
 10
-9.368348
 20
38.692727
  0
VERTEX
  8
praia
 10
-9.368382
 20
38.692744
  0
VERTEX
  8
praia
 10
-9.368418
 20
38.692767
  0
VERTEX
  8
praia
 10
-9.368452
 20
38.692790
  0
VERTEX
  8
praia
 10
-9.368483
 20
38.692810
  0
VERTEX
  8
praia
 10
-9.368520
 20
38.692832
  0
VERTEX
  8
praia
 10
-9.368560
 20
38.692855
  0
VERTEX
  8
praia
 10
-9.368595
 20
38.692876
  0
VERTEX
  8
praia
 10
-9.368630
 20
38.692897
  0
VERTEX
  8
praia
 10
-9.368672
 20
38.692921
  0
VERTEX
  8
praia
 10
-9.368707
 20
38.692941
  0
VERTEX
  8
praia
 10
-9.368741
 20
38.692960
  0
VERTEX
  8
praia
 10
-9.368781
 20
38.692981
  0
VERTEX
  8
praia
 10
-9.368818
 20
38.693004
  0
VERTEX
  8
praia
 10
-9.368851
 20
38.693025
  0
VERTEX
  8
praia
 10
-9.368887
 20
38.693049
  0
VERTEX
  8
praia
 10
-9.368918
 20
38.693073
  0
VERTEX
  8
praia
 10
-9.368944
 20
38.693097
  0
VERTEX
  8
praia
 10
-9.368973
 20
38.693123
  0
VERTEX
  8
praia
 10
-9.369005
 20
38.693149
  0
VERTEX
  8
praia
 10
-9.369036
 20
38.693172
  0
VERTEX
  8
praia
 10
-9.369066
 20
38.693190
  0
VERTEX
  8
praia
 10
-9.369140
 20
38.693223
  0
VERTEX
  8
praia
 10
-9.369179
 20
38.693239
  0
VERTEX
  8
praia
 10
-9.369215
 20
38.693252
  0
VERTEX
  8
praia
 10
-9.369298
 20
38.693278
  0
VERTEX
  8
praia
 10
-9.369335
 20
38.693290
  0
VERTEX
  8
praia
 10
-9.369410
 20
38.693318
  0
VERTEX
  8
praia
 10
-9.369445
 20
38.693331
  0
VERTEX
  8
praia
 10
-9.369480
 20
38.693344
  0
VERTEX
  8
praia
 10
-9.369519
 20
38.693361
  0
VERTEX
  8
praia
 10
-9.369559
 20
38.693380
  0
VERTEX
  8
praia
 10
-9.369596
 20
38.693395
  0
VERTEX
  8
praia
 10
-9.369636
 20
38.693410
  0
VERTEX
  8
praia
 10
-9.369674
 20
38.693429
  0
VERTEX
  8
praia
 10
-9.369709
 20
38.693446
  0
VERTEX
  8
praia
 10
-9.369740
 20
38.693460
  0
VERTEX
  8
praia
 10
-9.369777
 20
38.693474
  0
VERTEX
  8
praia
 10
-9.369815
 20
38.693487
  0
VERTEX
  8
praia
 10
-9.369853
 20
38.693497
  0
VERTEX
  8
praia
 10
-9.369889
 20
38.693505
  0
VERTEX
  8
praia
 10
-9.369930
 20
38.693511
  0
VERTEX
  8
praia
 10
-9.369973
 20
38.693518
  0
VERTEX
  8
praia
 10
-9.370051
 20
38.693534
  0
VERTEX
  8
praia
 10
-9.370094
 20
38.693546
  0
VERTEX
  8
praia
 10
-9.370133
 20
38.693558
  0
VERTEX
  8
praia
 10
-9.370207
 20
38.693579
  0
VERTEX
  8
praia
 10
-9.370248
 20
38.693590
  0
VERTEX
  8
praia
 10
-9.370285
 20
38.693600
  0
VERTEX
  8
praia
 10
-9.370323
 20
38.693608
  0
VERTEX
  8
praia
 10
-9.370365
 20
38.693616
  0
VERTEX
  8
praia
 10
-9.370404
 20
38.693623
  0
VERTEX
  8
praia
 10
-9.370440
 20
38.693628
  0
VERTEX
  8
praia
 10
-9.370512
 20
38.693642
  0
VERTEX
  8
praia
 10
-9.370547
 20
38.693649
  0
VERTEX
  8
praia
 10
-9.370581
 20
38.693653
  0
VERTEX
  8
praia
 10
-9.370613
 20
38.693657
  0
VERTEX
  8
praia
 10
-9.370649
 20
38.693660
  0
VERTEX
  8
praia
 10
-9.370685
 20
38.693662
  0
VERTEX
  8
praia
 10
-9.370720
 20
38.693665
  0
VERTEX
  8
praia
 10
-9.370753
 20
38.693667
  0
VERTEX
  8
praia
 10
-9.370788
 20
38.693669
  0
VERTEX
  8
praia
 10
-9.370798
 20
38.693669
  0
VERTEX
  8
praia
 10
-9.370847
 20
38.693667
  0
VERTEX
  8
praia
 10
-9.370863
 20
38.693665
  0
VERTEX
  8
praia
 10
-9.370913
 20
38.693664
  0
VERTEX
  8
praia
 10
-9.370929
 20
38.693669
  0
VERTEX
  8
praia
 10
-9.370946
 20
38.693672
  0
VERTEX
  8
praia
 10
-9.370966
 20
38.693674
  0
VERTEX
  8
praia
 10
-9.370988
 20
38.693676
  0
VERTEX
  8
praia
 10
-9.371007
 20
38.693678
  0
VERTEX
  8
praia
 10
-9.371025
 20
38.693680
  0
VERTEX
  8
praia
 10
-9.371043
 20
38.693683
  0
VERTEX
  8
praia
 10
-9.371061
 20
38.693686
  0
VERTEX
  8
praia
 10
-9.371111
 20
38.693692
  0
VERTEX
  8
praia
 10
-9.371133
 20
38.693695
  0
VERTEX
  8
praia
 10
-9.371170
 20
38.693698
  0
VERTEX
  8
praia
 10
-9.371204
 20
38.693698
  0
VERTEX
  8
praia
 10
-9.371242
 20
38.693699
  0
VERTEX
  8
praia
 10
-9.371284
 20
38.693702
  0
VERTEX
  8
praia
 10
-9.371302
 20
38.693703
  0
VERTEX
  8
praia
 10
-9.371330
 20
38.693705
  0
VERTEX
  8
praia
 10
-9.371340
 20
38.693707
  0
VERTEX
  8
praia
 10
-9.371348
 20
38.693710
  0
VERTEX
  8
praia
 10
-9.371355
 20
38.693715
  0
VERTEX
  8
praia
 10
-9.371362
 20
38.693718
  0
VERTEX
  8
praia
 10
-9.371374
 20
38.693717
  0
VERTEX
  8
praia
 10
-9.371389
 20
38.693710
  0
VERTEX
  8
praia
 10
-9.371404
 20
38.693701
  0
VERTEX
  8
praia
 10
-9.371420
 20
38.693693
  0
VERTEX
  8
praia
 10
-9.371438
 20
38.693686
  0
VERTEX
  8
praia
 10
-9.371469
 20
38.693676
  0
VERTEX
  8
praia
 10
-9.371487
 20
38.693668
  0
VERTEX
  8
praia
 10
-9.371491
 20
38.693666
  0
VERTEX
  8
praia
 10
-9.371507
 20
38.693654
  0
VERTEX
  8
praia
 10
-9.371523
 20
38.693639
  0
VERTEX
  8
praia
 10
-9.371552
 20
38.693606
  0
VERTEX
  8
praia
 10
-9.371580
 20
38.693571
  0
VERTEX
  8
praia
 10
-9.371608
 20
38.693535
  0
VERTEX
  8
praia
 10
-9.371633
 20
38.693496
  0
VERTEX
  8
praia
 10
-9.371638
 20
38.693487
  0
VERTEX
  8
praia
 10
-9.371655
 20
38.693456
  0
VERTEX
  8
praia
 10
-9.371675
 20
38.693412
  0
VERTEX
  8
praia
 10
-9.371722
 20
38.693304
  0
VERTEX
  8
praia
 10
-9.371740
 20
38.693263
  0
VERTEX
  8
praia
 10
-9.371756
 20
38.693218
  0
VERTEX
  8
praia
 10
-9.371766
 20
38.693171
  0
VERTEX
  8
praia
 10
-9.371774
 20
38.693125
  0
VERTEX
  8
praia
 10
-9.371779
 20
38.693100
  0
VERTEX
  8
praia
 10
-9.371797
 20
38.693043
  0
VERTEX
  8
praia
 10
-9.371804
 20
38.693018
  0
VERTEX
  8
praia
 10
-9.371810
 20
38.692997
  0
VERTEX
  8
praia
 10
-9.371815
 20
38.692974
  0
VERTEX
  8
praia
 10
-9.371819
 20
38.692951
  0
VERTEX
  8
praia
 10
-9.371822
 20
38.692907
  0
VERTEX
  8
praia
 10
-9.371823
 20
38.692883
  0
VERTEX
  8
praia
 10
-9.371829
 20
38.692823
  0
VERTEX
  8
praia
 10
-9.371833
 20
38.692801
  0
VERTEX
  8
praia
 10
-9.371855
 20
38.692739
  0
VERTEX
  8
praia
 10
-9.371869
 20
38.692723
  0
VERTEX
  8
praia
 10
-9.371869
 20
38.692723
  0
VERTEX
  8
praia
 10
-9.371873
 20
38.692718
  0
VERTEX
  8
praia
 10
-9.371871
 20
38.692701
  0
VERTEX
  8
praia
 10
-9.371890
 20
38.692701
  0
VERTEX
  8
praia
 10
-9.371905
 20
38.692701
  0
VERTEX
  8
praia
 10
-9.371907
 20
38.692700
  0
VERTEX
  8
praia
 10
-9.371917
 20
38.692697
  0
VERTEX
  8
praia
 10
-9.371953
 20
38.692701
  0
VERTEX
  8
praia
 10
-9.371956
 20
38.692701
  0
VERTEX
  8
praia
 10
-9.371980
 20
38.692704
  0
VERTEX
  8
praia
 10
-9.371986
 20
38.692707
  0
VERTEX
  8
praia
 10
-9.371988
 20
38.692707
  0
VERTEX
  8
praia
 10
-9.372025
 20
38.692722
  0
VERTEX
  8
praia
 10
-9.372042
 20
38.692737
  0
VERTEX
  8
praia
 10
-9.372045
 20
38.692740
  0
VERTEX
  8
praia
 10
-9.372013
 20
38.692752
  0
VERTEX
  8
praia
 10
-9.371992
 20
38.692761
  0
VERTEX
  8
praia
 10
-9.371976
 20
38.692776
  0
VERTEX
  8
praia
 10
-9.371965
 20
38.692793
  0
VERTEX
  8
praia
 10
-9.371958
 20
38.692812
  0
VERTEX
  8
praia
 10
-9.371950
 20
38.692834
  0
VERTEX
  8
praia
 10
-9.371945
 20
38.692857
  0
VERTEX
  8
praia
 10
-9.371940
 20
38.692887
  0
VERTEX
  8
praia
 10
-9.371937
 20
38.692909
  0
VERTEX
  8
praia
 10
-9.371939
 20
38.692928
  0
VERTEX
  8
praia
 10
-9.371942
 20
38.692958
  0
VERTEX
  8
praia
 10
-9.371946
 20
38.692981
  0
VERTEX
  8
praia
 10
-9.371948
 20
38.693000
  0
VERTEX
  8
praia
 10
-9.371941
 20
38.693042
  0
VERTEX
  8
praia
 10
-9.371924
 20
38.693102
  0
VERTEX
  8
praia
 10
-9.371890
 20
38.693170
  0
VERTEX
  8
praia
 10
-9.371866
 20
38.693234
  0
VERTEX
  8
praia
 10
-9.371853
 20
38.693310
  0
VERTEX
  8
praia
 10
-9.371823
 20
38.693382
  0
VERTEX
  8
praia
 10
-9.371797
 20
38.693432
  0
VERTEX
  8
praia
 10
-9.371715
 20
38.693541
  0
VERTEX
  8
praia
 10
-9.371715
 20
38.693542
  0
VERTEX
  8
praia
 10
-9.371620
 20
38.693639
  0
VERTEX
  8
praia
 10
-9.371495
 20
38.693735
  0
VERTEX
  8
praia
 10
-9.371408
 20
38.693807
  0
VERTEX
  8
praia
 10
-9.371342
 20
38.693896
  0
VERTEX
  8
praia
 10
-9.371289
 20
38.693994
  0
VERTEX
  8
praia
 10
-9.371189
 20
38.693894
  0
VERTEX
  8
praia
 10
-9.370998
 20
38.693929
  0
VERTEX
  8
praia
 10
-9.370753
 20
38.693931
  0
VERTEX
  8
praia
 10
-9.370561
 20
38.693885
  0
VERTEX
  8
praia
 10
-9.370455
 20
38.693860
  0
VERTEX
  8
praia
 10
-9.370220
 20
38.693804
  0
VERTEX
  8
praia
 10
-9.369869
 20
38.693783
  0
VERTEX
  8
praia
 10
-9.369603
 20
38.693760
  0
VERTEX
  8
praia
 10
-9.369282
 20
38.693697
  0
VERTEX
  8
praia
 10
-9.368638
 20
38.693337
  0
VERTEX
  8
praia
 10
-9.368132
 20
38.692960
  0
VERTEX
  8
praia
 10
-9.367874
 20
38.692746
  0
SEQEND
  0
POINT
  8
praia
  6
BYLAYER
 10
-9.369740
 20
38.693397
 50
0.606574
  0
POLYLINE
  8
praia
  6
BYLAYER
 66
1
 70
1
 40
0.000000
 41
0.000000
  0
VERTEX
  8
praia
 10
-9.390953
 20
38.701627
  0
VERTEX
  8
praia
 10
-9.390883
 20
38.701597
  0
VERTEX
  8
praia
 10
-9.390679
 20
38.701475
  0
VERTEX
  8
praia
 10
-9.390601
 20
38.701276
  0
VERTEX
  8
praia
 10
-9.390562
 20
38.701178
  0
VERTEX
  8
praia
 10
-9.390727
 20
38.701084
  0
VERTEX
  8
praia
 10
-9.390731
 20
38.701099
  0
VERTEX
  8
praia
 10
-9.390741
 20
38.701129
  0
VERTEX
  8
praia
 10
-9.390742
 20
38.701136
  0
VERTEX
  8
praia
 10
-9.390738
 20
38.701155
  0
VERTEX
  8
praia
 10
-9.390735
 20
38.701167
  0
VERTEX
  8
praia
 10
-9.390737
 20
38.701173
  0
VERTEX
  8
praia
 10
-9.390739
 20
38.701179
  0
VERTEX
  8
praia
 10
-9.390739
 20
38.701181
  0
VERTEX
  8
praia
 10
-9.390741
 20
38.701182
  0
VERTEX
  8
praia
 10
-9.390755
 20
38.701196
  0
VERTEX
  8
praia
 10
-9.390763
 20
38.701203
  0
VERTEX
  8
praia
 10
-9.390771
 20
38.701211
  0
VERTEX
  8
praia
 10
-9.390786
 20
38.701231
  0
VERTEX
  8
praia
 10
-9.390792
 20
38.701245
  0
VERTEX
  8
praia
 10
-9.390794
 20
38.701249
  0
VERTEX
  8
praia
 10
-9.390804
 20
38.701261
  0
VERTEX
  8
praia
 10
-9.390826
 20
38.701284
  0
VERTEX
  8
praia
 10
-9.390829
 20
38.701287
  0
VERTEX
  8
praia
 10
-9.390844
 20
38.701301
  0
VERTEX
  8
praia
 10
-9.390847
 20
38.701303
  0
VERTEX
  8
praia
 10
-9.390873
 20
38.701318
  0
VERTEX
  8
praia
 10
-9.390880
 20
38.701322
  0
VERTEX
  8
praia
 10
-9.390883
 20
38.701324
  0
VERTEX
  8
praia
 10
-9.390897
 20
38.701330
  0
VERTEX
  8
praia
 10
-9.390905
 20
38.701334
  0
VERTEX
  8
praia
 10
-9.390913
 20
38.701337
  0
VERTEX
  8
praia
 10
-9.390929
 20
38.701343
  0
VERTEX
  8
praia
 10
-9.390941
 20
38.701347
  0
VERTEX
  8
praia
 10
-9.390959
 20
38.701354
  0
VERTEX
  8
praia
 10
-9.390977
 20
38.701360
  0
VERTEX
  8
praia
 10
-9.390987
 20
38.701364
  0
VERTEX
  8
praia
 10
-9.390996
 20
38.701368
  0
VERTEX
  8
praia
 10
-9.391014
 20
38.701376
  0
VERTEX
  8
praia
 10
-9.391032
 20
38.701382
  0
VERTEX
  8
praia
 10
-9.391056
 20
38.701391
  0
VERTEX
  8
praia
 10
-9.391067
 20
38.701394
  0
VERTEX
  8
praia
 10
-9.391076
 20
38.701398
  0
VERTEX
  8
praia
 10
-9.391079
 20
38.701398
  0
VERTEX
  8
praia
 10
-9.391096
 20
38.701402
  0
VERTEX
  8
praia
 10
-9.391116
 20
38.701403
  0
VERTEX
  8
praia
 10
-9.391128
 20
38.701403
  0
VERTEX
  8
praia
 10
-9.391136
 20
38.701404
  0
VERTEX
  8
praia
 10
-9.391157
 20
38.701406
  0
VERTEX
  8
praia
 10
-9.391166
 20
38.701408
  0
VERTEX
  8
praia
 10
-9.391195
 20
38.701417
  0
VERTEX
  8
praia
 10
-9.391213
 20
38.701423
  0
VERTEX
  8
praia
 10
-9.391215
 20
38.701424
  0
VERTEX
  8
praia
 10
-9.391226
 20
38.701428
  0
VERTEX
  8
praia
 10
-9.391228
 20
38.701429
  0
VERTEX
  8
praia
 10
-9.391230
 20
38.701429
  0
VERTEX
  8
praia
 10
-9.391244
 20
38.701434
  0
VERTEX
  8
praia
 10
-9.391249
 20
38.701436
  0
VERTEX
  8
praia
 10
-9.391252
 20
38.701437
  0
VERTEX
  8
praia
 10
-9.391260
 20
38.701439
  0
VERTEX
  8
praia
 10
-9.391270
 20
38.701443
  0
VERTEX
  8
praia
 10
-9.391278
 20
38.701445
  0
VERTEX
  8
praia
 10
-9.391278
 20
38.701445
  0
VERTEX
  8
praia
 10
-9.391297
 20
38.701449
  0
VERTEX
  8
praia
 10
-9.391310
 20
38.701451
  0
VERTEX
  8
praia
 10
-9.391322
 20
38.701452
  0
VERTEX
  8
praia
 10
-9.391327
 20
38.701452
  0
VERTEX
  8
praia
 10
-9.391347
 20
38.701452
  0
VERTEX
  8
praia
 10
-9.391355
 20
38.701452
  0
VERTEX
  8
praia
 10
-9.391372
 20
38.701450
  0
VERTEX
  8
praia
 10
-9.391391
 20
38.701448
  0
VERTEX
  8
praia
 10
-9.391406
 20
38.701448
  0
VERTEX
  8
praia
 10
-9.391407
 20
38.701448
  0
VERTEX
  8
praia
 10
-9.391412
 20
38.701450
  0
VERTEX
  8
praia
 10
-9.391417
 20
38.701451
  0
VERTEX
  8
praia
 10
-9.391419
 20
38.701452
  0
VERTEX
  8
praia
 10
-9.391421
 20
38.701452
  0
VERTEX
  8
praia
 10
-9.391425
 20
38.701453
  0
VERTEX
  8
praia
 10
-9.391428
 20
38.701455
  0
VERTEX
  8
praia
 10
-9.391437
 20
38.701457
  0
VERTEX
  8
praia
 10
-9.391443
 20
38.701458
  0
VERTEX
  8
praia
 10
-9.391464
 20
38.701458
  0
VERTEX
  8
praia
 10
-9.391466
 20
38.701456
  0
VERTEX
  8
praia
 10
-9.391470
 20
38.701454
  0
VERTEX
  8
praia
 10
-9.391475
 20
38.701451
  0
VERTEX
  8
praia
 10
-9.391476
 20
38.701451
  0
VERTEX
  8
praia
 10
-9.391477
 20
38.701450
  0
VERTEX
  8
praia
 10
-9.391478
 20
38.701449
  0
VERTEX
  8
praia
 10
-9.391479
 20
38.701447
  0
VERTEX
  8
praia
 10
-9.391479
 20
38.701447
  0
VERTEX
  8
praia
 10
-9.391481
 20
38.701443
  0
VERTEX
  8
praia
 10
-9.391481
 20
38.701443
  0
VERTEX
  8
praia
 10
-9.391483
 20
38.701440
  0
VERTEX
  8
praia
 10
-9.391485
 20
38.701437
  0
VERTEX
  8
praia
 10
-9.391487
 20
38.701434
  0
VERTEX
  8
praia
 10
-9.391489
 20
38.701432
  0
VERTEX
  8
praia
 10
-9.391493
 20
38.701426
  0
VERTEX
  8
praia
 10
-9.391494
 20
38.701426
  0
VERTEX
  8
praia
 10
-9.391495
 20
38.701425
  0
VERTEX
  8
praia
 10
-9.391498
 20
38.701424
  0
VERTEX
  8
praia
 10
-9.391504
 20
38.701421
  0
VERTEX
  8
praia
 10
-9.391505
 20
38.701420
  0
VERTEX
  8
praia
 10
-9.391514
 20
38.701420
  0
VERTEX
  8
praia
 10
-9.391524
 20
38.701421
  0
VERTEX
  8
praia
 10
-9.391540
 20
38.701425
  0
VERTEX
  8
praia
 10
-9.391542
 20
38.701425
  0
VERTEX
  8
praia
 10
-9.391544
 20
38.701426
  0
VERTEX
  8
praia
 10
-9.391558
 20
38.701431
  0
VERTEX
  8
praia
 10
-9.391562
 20
38.701432
  0
VERTEX
  8
praia
 10
-9.391564
 20
38.701433
  0
VERTEX
  8
praia
 10
-9.391569
 20
38.701436
  0
VERTEX
  8
praia
 10
-9.391575
 20
38.701439
  0
VERTEX
  8
praia
 10
-9.391580
 20
38.701442
  0
VERTEX
  8
praia
 10
-9.391585
 20
38.701446
  0
VERTEX
  8
praia
 10
-9.391585
 20
38.701446
  0
VERTEX
  8
praia
 10
-9.391585
 20
38.701446
  0
VERTEX
  8
praia
 10
-9.391587
 20
38.701448
  0
VERTEX
  8
praia
 10
-9.391588
 20
38.701449
  0
VERTEX
  8
praia
 10
-9.391589
 20
38.701450
  0
VERTEX
  8
praia
 10
-9.391589
 20
38.701450
  0
VERTEX
  8
praia
 10
-9.391590
 20
38.701450
  0
VERTEX
  8
praia
 10
-9.391593
 20
38.701453
  0
VERTEX
  8
praia
 10
-9.391595
 20
38.701455
  0
VERTEX
  8
praia
 10
-9.391597
 20
38.701456
  0
VERTEX
  8
praia
 10
-9.391597
 20
38.701457
  0
VERTEX
  8
praia
 10
-9.391609
 20
38.701469
  0
VERTEX
  8
praia
 10
-9.391621
 20
38.701484
  0
VERTEX
  8
praia
 10
-9.391627
 20
38.701492
  0
VERTEX
  8
praia
 10
-9.391632
 20
38.701498
  0
VERTEX
  8
praia
 10
-9.391644
 20
38.701512
  0
VERTEX
  8
praia
 10
-9.391655
 20
38.701525
  0
VERTEX
  8
praia
 10
-9.391665
 20
38.701535
  0
VERTEX
  8
praia
 10
-9.391669
 20
38.701539
  0
VERTEX
  8
praia
 10
-9.391684
 20
38.701555
  0
VERTEX
  8
praia
 10
-9.391688
 20
38.701558
  0
VERTEX
  8
praia
 10
-9.391699
 20
38.701571
  0
VERTEX
  8
praia
 10
-9.391715
 20
38.701585
  0
VERTEX
  8
praia
 10
-9.391727
 20
38.701595
  0
VERTEX
  8
praia
 10
-9.391734
 20
38.701601
  0
VERTEX
  8
praia
 10
-9.391744
 20
38.701608
  0
VERTEX
  8
praia
 10
-9.391755
 20
38.701615
  0
VERTEX
  8
praia
 10
-9.391760
 20
38.701619
  0
VERTEX
  8
praia
 10
-9.391779
 20
38.701630
  0
VERTEX
  8
praia
 10
-9.391801
 20
38.701642
  0
VERTEX
  8
praia
 10
-9.391821
 20
38.701651
  0
VERTEX
  8
praia
 10
-9.391826
 20
38.701654
  0
VERTEX
  8
praia
 10
-9.391851
 20
38.701664
  0
VERTEX
  8
praia
 10
-9.391862
 20
38.701669
  0
VERTEX
  8
praia
 10
-9.391871
 20
38.701673
  0
VERTEX
  8
praia
 10
-9.391890
 20
38.701680
  0
VERTEX
  8
praia
 10
-9.391893
 20
38.701681
  0
VERTEX
  8
praia
 10
-9.391895
 20
38.701682
  0
VERTEX
  8
praia
 10
-9.391901
 20
38.701684
  0
VERTEX
  8
praia
 10
-9.391908
 20
38.701687
  0
VERTEX
  8
praia
 10
-9.391913
 20
38.701689
  0
VERTEX
  8
praia
 10
-9.391926
 20
38.701694
  0
VERTEX
  8
praia
 10
-9.391929
 20
38.701695
  0
VERTEX
  8
praia
 10
-9.391930
 20
38.701696
  0
VERTEX
  8
praia
 10
-9.391940
 20
38.701700
  0
VERTEX
  8
praia
 10
-9.391952
 20
38.701704
  0
VERTEX
  8
praia
 10
-9.391953
 20
38.701705
  0
VERTEX
  8
praia
 10
-9.391953
 20
38.701705
  0
VERTEX
  8
praia
 10
-9.391960
 20
38.701707
  0
VERTEX
  8
praia
 10
-9.391967
 20
38.701710
  0
VERTEX
  8
praia
 10
-9.391975
 20
38.701714
  0
VERTEX
  8
praia
 10
-9.391978
 20
38.701715
  0
VERTEX
  8
praia
 10
-9.391986
 20
38.701718
  0
VERTEX
  8
praia
 10
-9.391992
 20
38.701720
  0
VERTEX
  8
praia
 10
-9.391993
 20
38.701721
  0
VERTEX
  8
praia
 10
-9.391994
 20
38.701721
  0
VERTEX
  8
praia
 10
-9.391994
 20
38.701721
  0
VERTEX
  8
praia
 10
-9.391998
 20
38.701723
  0
VERTEX
  8
praia
 10
-9.391999
 20
38.701723
  0
VERTEX
  8
praia
 10
-9.392007
 20
38.701726
  0
VERTEX
  8
praia
 10
-9.392016
 20
38.701729
  0
VERTEX
  8
praia
 10
-9.392022
 20
38.701731
  0
VERTEX
  8
praia
 10
-9.392036
 20
38.701736
  0
VERTEX
  8
praia
 10
-9.392039
 20
38.701738
  0
VERTEX
  8
praia
 10
-9.392042
 20
38.701738
  0
VERTEX
  8
praia
 10
-9.392052
 20
38.701742
  0
VERTEX
  8
praia
 10
-9.392059
 20
38.701745
  0
VERTEX
  8
praia
 10
-9.392061
 20
38.701745
  0
VERTEX
  8
praia
 10
-9.392062
 20
38.701745
  0
VERTEX
  8
praia
 10
-9.392063
 20
38.701746
  0
VERTEX
  8
praia
 10
-9.392064
 20
38.701746
  0
VERTEX
  8
praia
 10
-9.392065
 20
38.701747
  0
VERTEX
  8
praia
 10
-9.392072
 20
38.701749
  0
VERTEX
  8
praia
 10
-9.392082
 20
38.701752
  0
VERTEX
  8
praia
 10
-9.392084
 20
38.701753
  0
VERTEX
  8
praia
 10
-9.392097
 20
38.701757
  0
VERTEX
  8
praia
 10
-9.392099
 20
38.701758
  0
VERTEX
  8
praia
 10
-9.392117
 20
38.701764
  0
VERTEX
  8
praia
 10
-9.392129
 20
38.701768
  0
VERTEX
  8
praia
 10
-9.392130
 20
38.701768
  0
VERTEX
  8
praia
 10
-9.392133
 20
38.701769
  0
VERTEX
  8
praia
 10
-9.392141
 20
38.701772
  0
VERTEX
  8
praia
 10
-9.392141
 20
38.701772
  0
VERTEX
  8
praia
 10
-9.392153
 20
38.701776
  0
VERTEX
  8
praia
 10
-9.392164
 20
38.701780
  0
VERTEX
  8
praia
 10
-9.392169
 20
38.701782
  0
VERTEX
  8
praia
 10
-9.392169
 20
38.701782
  0
VERTEX
  8
praia
 10
-9.392174
 20
38.701783
  0
VERTEX
  8
praia
 10
-9.392202
 20
38.701793
  0
VERTEX
  8
praia
 10
-9.392206
 20
38.701794
  0
VERTEX
  8
praia
 10
-9.392215
 20
38.701797
  0
VERTEX
  8
praia
 10
-9.392219
 20
38.701798
  0
VERTEX
  8
praia
 10
-9.392236
 20
38.701803
  0
VERTEX
  8
praia
 10
-9.392246
 20
38.701806
  0
VERTEX
  8
praia
 10
-9.392247
 20
38.701807
  0
VERTEX
  8
praia
 10
-9.392258
 20
38.701809
  0
VERTEX
  8
praia
 10
-9.392264
 20
38.701811
  0
VERTEX
  8
praia
 10
-9.392268
 20
38.701812
  0
VERTEX
  8
praia
 10
-9.392283
 20
38.701816
  0
VERTEX
  8
praia
 10
-9.392287
 20
38.701817
  0
VERTEX
  8
praia
 10
-9.392287
 20
38.701817
  0
VERTEX
  8
praia
 10
-9.392290
 20
38.701817
  0
VERTEX
  8
praia
 10
-9.392303
 20
38.701820
  0
VERTEX
  8
praia
 10
-9.392319
 20
38.701821
  0
VERTEX
  8
praia
 10
-9.392332
 20
38.701823
  0
VERTEX
  8
praia
 10
-9.392338
 20
38.701824
  0
VERTEX
  8
praia
 10
-9.392343
 20
38.701824
  0
VERTEX
  8
praia
 10
-9.392359
 20
38.701826
  0
VERTEX
  8
praia
 10
-9.392370
 20
38.701827
  0
VERTEX
  8
praia
 10
-9.392380
 20
38.701828
  0
VERTEX
  8
praia
 10
-9.392390
 20
38.701828
  0
VERTEX
  8
praia
 10
-9.392396
 20
38.701829
  0
VERTEX
  8
praia
 10
-9.392416
 20
38.701828
  0
VERTEX
  8
praia
 10
-9.392431
 20
38.701828
  0
VERTEX
  8
praia
 10
-9.392437
 20
38.701827
  0
VERTEX
  8
praia
 10
-9.392444
 20
38.701827
  0
VERTEX
  8
praia
 10
-9.392458
 20
38.701825
  0
VERTEX
  8
praia
 10
-9.392471
 20
38.701823
  0
VERTEX
  8
praia
 10
-9.392475
 20
38.701822
  0
VERTEX
  8
praia
 10
-9.392481
 20
38.701821
  0
VERTEX
  8
praia
 10
-9.392487
 20
38.701819
  0
VERTEX
  8
praia
 10
-9.392491
 20
38.701818
  0
VERTEX
  8
praia
 10
-9.392500
 20
38.701814
  0
VERTEX
  8
praia
 10
-9.392507
 20
38.701808
  0
VERTEX
  8
praia
 10
-9.392508
 20
38.701807
  0
VERTEX
  8
praia
 10
-9.392512
 20
38.701804
  0
VERTEX
  8
praia
 10
-9.392514
 20
38.701800
  0
VERTEX
  8
praia
 10
-9.392518
 20
38.701795
  0
VERTEX
  8
praia
 10
-9.392518
 20
38.701793
  0
VERTEX
  8
praia
 10
-9.392520
 20
38.701790
  0
VERTEX
  8
praia
 10
-9.392521
 20
38.701789
  0
VERTEX
  8
praia
 10
-9.392531
 20
38.701779
  0
VERTEX
  8
praia
 10
-9.392535
 20
38.701778
  0
VERTEX
  8
praia
 10
-9.392550
 20
38.701772
  0
VERTEX
  8
praia
 10
-9.392572
 20
38.701768
  0
VERTEX
  8
praia
 10
-9.392573
 20
38.701767
  0
VERTEX
  8
praia
 10
-9.392596
 20
38.701764
  0
VERTEX
  8
praia
 10
-9.392603
 20
38.701763
  0
VERTEX
  8
praia
 10
-9.392622
 20
38.701759
  0
VERTEX
  8
praia
 10
-9.392644
 20
38.701752
  0
VERTEX
  8
praia
 10
-9.392648
 20
38.701751
  0
VERTEX
  8
praia
 10
-9.392666
 20
38.701747
  0
VERTEX
  8
praia
 10
-9.392670
 20
38.701746
  0
VERTEX
  8
praia
 10
-9.392686
 20
38.701742
  0
VERTEX
  8
praia
 10
-9.392702
 20
38.701740
  0
VERTEX
  8
praia
 10
-9.392705
 20
38.701739
  0
VERTEX
  8
praia
 10
-9.392707
 20
38.701739
  0
VERTEX
  8
praia
 10
-9.392713
 20
38.701738
  0
VERTEX
  8
praia
 10
-9.392717
 20
38.701738
  0
VERTEX
  8
praia
 10
-9.392729
 20
38.701737
  0
VERTEX
  8
praia
 10
-9.392751
 20
38.701738
  0
VERTEX
  8
praia
 10
-9.392757
 20
38.701738
  0
VERTEX
  8
praia
 10
-9.392766
 20
38.701738
  0
VERTEX
  8
praia
 10
-9.392785
 20
38.701738
  0
VERTEX
  8
praia
 10
-9.392799
 20
38.701737
  0
VERTEX
  8
praia
 10
-9.392803
 20
38.701737
  0
VERTEX
  8
praia
 10
-9.392819
 20
38.701734
  0
VERTEX
  8
praia
 10
-9.392836
 20
38.701730
  0
VERTEX
  8
praia
 10
-9.392840
 20
38.701729
  0
VERTEX
  8
praia
 10
-9.392847
 20
38.701728
  0
VERTEX
  8
praia
 10
-9.392873
 20
38.701722
  0
VERTEX
  8
praia
 10
-9.392880
 20
38.701721
  0
VERTEX
  8
praia
 10
-9.392884
 20
38.701720
  0
VERTEX
  8
praia
 10
-9.392904
 20
38.701716
  0
VERTEX
  8
praia
 10
-9.392923
 20
38.701713
  0
VERTEX
  8
praia
 10
-9.392926
 20
38.701713
  0
VERTEX
  8
praia
 10
-9.392943
 20
38.701711
  0
VERTEX
  8
praia
 10
-9.392945
 20
38.701711
  0
VERTEX
  8
praia
 10
-9.392971
 20
38.701710
  0
VERTEX
  8
praia
 10
-9.392994
 20
38.701710
  0
VERTEX
  8
praia
 10
-9.393038
 20
38.701706
  0
VERTEX
  8
praia
 10
-9.393060
 20
38.701703
  0
VERTEX
  8
praia
 10
-9.393064
 20
38.701702
  0
VERTEX
  8
praia
 10
-9.393083
 20
38.701698
  0
VERTEX
  8
praia
 10
-9.393094
 20
38.701695
  0
VERTEX
  8
praia
 10
-9.393104
 20
38.701692
  0
VERTEX
  8
praia
 10
-9.393104
 20
38.701692
  0
VERTEX
  8
praia
 10
-9.393105
 20
38.701692
  0
VERTEX
  8
praia
 10
-9.393114
 20
38.701689
  0
VERTEX
  8
praia
 10
-9.393123
 20
38.701687
  0
VERTEX
  8
praia
 10
-9.393131
 20
38.701684
  0
VERTEX
  8
praia
 10
-9.393136
 20
38.701683
  0
VERTEX
  8
praia
 10
-9.393137
 20
38.701682
  0
VERTEX
  8
praia
 10
-9.393141
 20
38.701681
  0
VERTEX
  8
praia
 10
-9.393158
 20
38.701675
  0
VERTEX
  8
praia
 10
-9.393161
 20
38.701674
  0
VERTEX
  8
praia
 10
-9.393166
 20
38.701673
  0
VERTEX
  8
praia
 10
-9.393175
 20
38.701670
  0
VERTEX
  8
praia
 10
-9.393187
 20
38.701668
  0
VERTEX
  8
praia
 10
-9.393193
 20
38.701667
  0
VERTEX
  8
praia
 10
-9.393209
 20
38.701668
  0
VERTEX
  8
praia
 10
-9.393215
 20
38.701670
  0
VERTEX
  8
praia
 10
-9.393223
 20
38.701673
  0
VERTEX
  8
praia
 10
-9.393226
 20
38.701675
  0
VERTEX
  8
praia
 10
-9.393233
 20
38.701680
  0
VERTEX
  8
praia
 10
-9.393235
 20
38.701681
  0
VERTEX
  8
praia
 10
-9.393235
 20
38.701682
  0
VERTEX
  8
praia
 10
-9.393239
 20
38.701686
  0
VERTEX
  8
praia
 10
-9.393244
 20
38.701691
  0
VERTEX
  8
praia
 10
-9.393244
 20
38.701691
  0
VERTEX
  8
praia
 10
-9.393247
 20
38.701694
  0
VERTEX
  8
praia
 10
-9.393250
 20
38.701697
  0
VERTEX
  8
praia
 10
-9.393253
 20
38.701700
  0
VERTEX
  8
praia
 10
-9.393257
 20
38.701704
  0
VERTEX
  8
praia
 10
-9.393259
 20
38.701707
  0
VERTEX
  8
praia
 10
-9.393259
 20
38.701707
  0
VERTEX
  8
praia
 10
-9.393260
 20
38.701707
  0
VERTEX
  8
praia
 10
-9.393260
 20
38.701708
  0
VERTEX
  8
praia
 10
-9.393261
 20
38.701709
  0
VERTEX
  8
praia
 10
-9.393261
 20
38.701709
  0
VERTEX
  8
praia
 10
-9.393264
 20
38.701713
  0
VERTEX
  8
praia
 10
-9.393267
 20
38.701716
  0
VERTEX
  8
praia
 10
-9.393268
 20
38.701718
  0
VERTEX
  8
praia
 10
-9.393273
 20
38.701723
  0
VERTEX
  8
praia
 10
-9.393274
 20
38.701724
  0
VERTEX
  8
praia
 10
-9.393274
 20
38.701725
  0
VERTEX
  8
praia
 10
-9.393278
 20
38.701729
  0
VERTEX
  8
praia
 10
-9.393280
 20
38.701732
  0
VERTEX
  8
praia
 10
-9.393280
 20
38.701732
  0
VERTEX
  8
praia
 10
-9.393281
 20
38.701733
  0
VERTEX
  8
praia
 10
-9.393281
 20
38.701733
  0
VERTEX
  8
praia
 10
-9.393281
 20
38.701733
  0
VERTEX
  8
praia
 10
-9.393283
 20
38.701736
  0
VERTEX
  8
praia
 10
-9.393286
 20
38.701739
  0
VERTEX
  8
praia
 10
-9.393292
 20
38.701745
  0
VERTEX
  8
praia
 10
-9.393297
 20
38.701751
  0
VERTEX
  8
praia
 10
-9.393301
 20
38.701756
  0
VERTEX
  8
praia
 10
-9.393306
 20
38.701760
  0
VERTEX
  8
praia
 10
-9.393310
 20
38.701764
  0
VERTEX
  8
praia
 10
-9.393316
 20
38.701769
  0
VERTEX
  8
praia
 10
-9.393319
 20
38.701771
  0
VERTEX
  8
praia
 10
-9.393336
 20
38.701781
  0
VERTEX
  8
praia
 10
-9.393343
 20
38.701784
  0
VERTEX
  8
praia
 10
-9.393346
 20
38.701786
  0
VERTEX
  8
praia
 10
-9.393363
 20
38.701791
  0
VERTEX
  8
praia
 10
-9.393372
 20
38.701794
  0
VERTEX
  8
praia
 10
-9.393382
 20
38.701797
  0
VERTEX
  8
praia
 10
-9.393387
 20
38.701799
  0
VERTEX
  8
praia
 10
-9.393390
 20
38.701800
  0
VERTEX
  8
praia
 10
-9.393403
 20
38.701805
  0
VERTEX
  8
praia
 10
-9.393403
 20
38.701805
  0
VERTEX
  8
praia
 10
-9.393414
 20
38.701808
  0
VERTEX
  8
praia
 10
-9.393418
 20
38.701809
  0
VERTEX
  8
praia
 10
-9.393424
 20
38.701811
  0
VERTEX
  8
praia
 10
-9.393427
 20
38.701812
  0
VERTEX
  8
praia
 10
-9.393429
 20
38.701813
  0
VERTEX
  8
praia
 10
-9.393437
 20
38.701814
  0
VERTEX
  8
praia
 10
-9.393443
 20
38.701816
  0
VERTEX
  8
praia
 10
-9.393446
 20
38.701816
  0
VERTEX
  8
praia
 10
-9.393450
 20
38.701817
  0
VERTEX
  8
praia
 10
-9.393454
 20
38.701818
  0
VERTEX
  8
praia
 10
-9.393482
 20
38.701820
  0
VERTEX
  8
praia
 10
-9.393489
 20
38.701820
  0
VERTEX
  8
praia
 10
-9.393507
 20
38.701821
  0
VERTEX
  8
praia
 10
-9.393534
 20
38.701821
  0
VERTEX
  8
praia
 10
-9.393539
 20
38.701821
  0
VERTEX
  8
praia
 10
-9.393554
 20
38.701821
  0
VERTEX
  8
praia
 10
-9.393557
 20
38.701821
  0
VERTEX
  8
praia
 10
-9.393561
 20
38.701822
  0
VERTEX
  8
praia
 10
-9.393569
 20
38.701822
  0
VERTEX
  8
praia
 10
-9.393580
 20
38.701823
  0
VERTEX
  8
praia
 10
-9.393617
 20
38.701822
  0
VERTEX
  8
praia
 10
-9.393628
 20
38.701821
  0
VERTEX
  8
praia
 10
-9.393636
 20
38.701821
  0
VERTEX
  8
praia
 10
-9.393641
 20
38.701820
  0
VERTEX
  8
praia
 10
-9.393647
 20
38.701820
  0
VERTEX
  8
praia
 10
-9.393654
 20
38.701820
  0
VERTEX
  8
praia
 10
-9.393657
 20
38.701820
  0
VERTEX
  8
praia
 10
-9.393678
 20
38.701820
  0
VERTEX
  8
praia
 10
-9.393684
 20
38.701820
  0
VERTEX
  8
praia
 10
-9.393692
 20
38.701820
  0
VERTEX
  8
praia
 10
-9.393702
 20
38.701821
  0
VERTEX
  8
praia
 10
-9.393711
 20
38.701821
  0
VERTEX
  8
praia
 10
-9.393723
 20
38.701822
  0
VERTEX
  8
praia
 10
-9.393727
 20
38.701822
  0
VERTEX
  8
praia
 10
-9.393764
 20
38.701825
  0
VERTEX
  8
praia
 10
-9.393778
 20
38.701827
  0
VERTEX
  8
praia
 10
-9.393784
 20
38.701828
  0
VERTEX
  8
praia
 10
-9.393823
 20
38.701836
  0
VERTEX
  8
praia
 10
-9.393875
 20
38.701844
  0
VERTEX
  8
praia
 10
-9.393884
 20
38.701846
  0
VERTEX
  8
praia
 10
-9.393925
 20
38.701852
  0
VERTEX
  8
praia
 10
-9.393947
 20
38.701855
  0
VERTEX
  8
praia
 10
-9.393968
 20
38.701857
  0
VERTEX
  8
praia
 10
-9.393967
 20
38.701867
  0
VERTEX
  8
praia
 10
-9.393967
 20
38.701867
  0
VERTEX
  8
praia
 10
-9.393966
 20
38.701876
  0
VERTEX
  8
praia
 10
-9.393966
 20
38.701876
  0
VERTEX
  8
praia
 10
-9.393966
 20
38.701880
  0
VERTEX
  8
praia
 10
-9.393966
 20
38.701888
  0
VERTEX
  8
praia
 10
-9.393965
 20
38.701901
  0
VERTEX
  8
praia
 10
-9.393964
 20
38.701908
  0
VERTEX
  8
praia
 10
-9.393963
 20
38.701928
  0
VERTEX
  8
praia
 10
-9.393962
 20
38.701946
  0
VERTEX
  8
praia
 10
-9.393961
 20
38.701961
  0
VERTEX
  8
praia
 10
-9.393961
 20
38.701964
  0
VERTEX
  8
praia
 10
-9.393958
 20
38.702008
  0
VERTEX
  8
praia
 10
-9.393956
 20
38.702029
  0
VERTEX
  8
praia
 10
-9.393955
 20
38.702051
  0
VERTEX
  8
praia
 10
-9.393955
 20
38.702052
  0
VERTEX
  8
praia
 10
-9.393955
 20
38.702056
  0
VERTEX
  8
praia
 10
-9.393954
 20
38.702060
  0
VERTEX
  8
praia
 10
-9.393954
 20
38.702061
  0
VERTEX
  8
praia
 10
-9.393954
 20
38.702064
  0
VERTEX
  8
praia
 10
-9.393954
 20
38.702067
  0
VERTEX
  8
praia
 10
-9.393953
 20
38.702072
  0
VERTEX
  8
praia
 10
-9.393953
 20
38.702074
  0
VERTEX
  8
praia
 10
-9.393952
 20
38.702094
  0
VERTEX
  8
praia
 10
-9.393952
 20
38.702098
  0
VERTEX
  8
praia
 10
-9.393952
 20
38.702100
  0
VERTEX
  8
praia
 10
-9.393952
 20
38.702103
  0
VERTEX
  8
praia
 10
-9.393951
 20
38.702107
  0
VERTEX
  8
praia
 10
-9.393951
 20
38.702115
  0
VERTEX
  8
praia
 10
-9.393950
 20
38.702127
  0
VERTEX
  8
praia
 10
-9.393939
 20
38.702121
  0
VERTEX
  8
praia
 10
-9.393848
 20
38.702099
  0
VERTEX
  8
praia
 10
-9.393721
 20
38.702066
  0
VERTEX
  8
praia
 10
-9.393633
 20
38.702043
  0
VERTEX
  8
praia
 10
-9.393409
 20
38.701979
  0
VERTEX
  8
praia
 10
-9.393377
 20
38.701970
  0
VERTEX
  8
praia
 10
-9.393316
 20
38.701965
  0
VERTEX
  8
praia
 10
-9.393217
 20
38.701955
  0
VERTEX
  8
praia
 10
-9.393203
 20
38.701958
  0
VERTEX
  8
praia
 10
-9.393102
 20
38.701981
  0
VERTEX
  8
praia
 10
-9.393058
 20
38.701990
  0
VERTEX
  8
praia
 10
-9.392693
 20
38.702100
  0
VERTEX
  8
praia
 10
-9.392456
 20
38.702172
  0
VERTEX
  8
praia
 10
-9.392342
 20
38.702186
  0
VERTEX
  8
praia
 10
-9.392307
 20
38.702190
  0
VERTEX
  8
praia
 10
-9.392098
 20
38.702164
  0
VERTEX
  8
praia
 10
-9.391934
 20
38.702144
  0
VERTEX
  8
praia
 10
-9.391739
 20
38.702037
  0
VERTEX
  8
praia
 10
-9.391516
 20
38.701915
  0
VERTEX
  8
praia
 10
-9.391258
 20
38.701768
  0
VERTEX
  8
praia
 10
-9.391172
 20
38.701719
  0
VERTEX
  8
praia
 10
-9.390953
 20
38.701627
  0
SEQEND
  0
POINT
  8
praia
  6
BYLAYER
 10
-9.392164
 20
38.701795
 50
0.617605
  0
POLYLINE
  8
praia
  6
BYLAYER
 66
1
 70
1
 40
0.000000
 41
0.000000
  0
VERTEX
  8
praia
 10
-9.354852
 20
38.685536
  0
VERTEX
  8
praia
 10
-9.354858
 20
38.685543
  0
VERTEX
  8
praia
 10
-9.354878
 20
38.685565
  0
VERTEX
  8
praia
 10
-9.354900
 20
38.685587
  0
VERTEX
  8
praia
 10
-9.354916
 20
38.685603
  0
VERTEX
  8
praia
 10
-9.354939
 20
38.685622
  0
VERTEX
  8
praia
 10
-9.354962
 20
38.685640
  0
VERTEX
  8
praia
 10
-9.354996
 20
38.685660
  0
VERTEX
  8
praia
 10
-9.355008
 20
38.685673
  0
VERTEX
  8
praia
 10
-9.355031
 20
38.685688
  0
VERTEX
  8
praia
 10
-9.355077
 20
38.685716
  0
VERTEX
  8
praia
 10
-9.355094
 20
38.685731
  0
VERTEX
  8
praia
 10
-9.355112
 20
38.685749
  0
VERTEX
  8
praia
 10
-9.355141
 20
38.685776
  0
VERTEX
  8
praia
 10
-9.355167
 20
38.685790
  0
VERTEX
  8
praia
 10
-9.355172
 20
38.685798
  0
VERTEX
  8
praia
 10
-9.355176
 20
38.685800
  0
VERTEX
  8
praia
 10
-9.355185
 20
38.685805
  0
VERTEX
  8
praia
 10
-9.355234
 20
38.685822
  0
VERTEX
  8
praia
 10
-9.355261
 20
38.685828
  0
VERTEX
  8
praia
 10
-9.355301
 20
38.685836
  0
VERTEX
  8
praia
 10
-9.355327
 20
38.685841
  0
VERTEX
  8
praia
 10
-9.355351
 20
38.685847
  0
VERTEX
  8
praia
 10
-9.355364
 20
38.685852
  0
VERTEX
  8
praia
 10
-9.355394
 20
38.685854
  0
VERTEX
  8
praia
 10
-9.355413
 20
38.685847
  0
VERTEX
  8
praia
 10
-9.355431
 20
38.685840
  0
VERTEX
  8
praia
 10
-9.355460
 20
38.685837
  0
VERTEX
  8
praia
 10
-9.355480
 20
38.685839
  0
VERTEX
  8
praia
 10
-9.355496
 20
38.685836
  0
VERTEX
  8
praia
 10
-9.355510
 20
38.685825
  0
VERTEX
  8
praia
 10
-9.355524
 20
38.685808
  0
VERTEX
  8
praia
 10
-9.355536
 20
38.685789
  0
VERTEX
  8
praia
 10
-9.355561
 20
38.685747
  0
VERTEX
  8
praia
 10
-9.355573
 20
38.685726
  0
VERTEX
  8
praia
 10
-9.355600
 20
38.685679
  0
VERTEX
  8
praia
 10
-9.355610
 20
38.685659
  0
VERTEX
  8
praia
 10
-9.355620
 20
38.685640
  0
VERTEX
  8
praia
 10
-9.355646
 20
38.685596
  0
VERTEX
  8
praia
 10
-9.355670
 20
38.685549
  0
VERTEX
  8
praia
 10
-9.355683
 20
38.685525
  0
VERTEX
  8
praia
 10
-9.355698
 20
38.685498
  0
VERTEX
  8
praia
 10
-9.355713
 20
38.685476
  0
VERTEX
  8
praia
 10
-9.355742
 20
38.685443
  0
VERTEX
  8
praia
 10
-9.355757
 20
38.685424
  0
VERTEX
  8
praia
 10
-9.355773
 20
38.685402
  0
VERTEX
  8
praia
 10
-9.355788
 20
38.685383
  0
VERTEX
  8
praia
 10
-9.355800
 20
38.685364
  0
VERTEX
  8
praia
 10
-9.355811
 20
38.685340
  0
VERTEX
  8
praia
 10
-9.355829
 20
38.685326
  0
VERTEX
  8
praia
 10
-9.355831
 20
38.685323
  0
VERTEX
  8
praia
 10
-9.355849
 20
38.685307
  0
VERTEX
  8
praia
 10
-9.355879
 20
38.685288
  0
VERTEX
  8
praia
 10
-9.355899
 20
38.685283
  0
VERTEX
  8
praia
 10
-9.355901
 20
38.685283
  0
VERTEX
  8
praia
 10
-9.355918
 20
38.685286
  0
VERTEX
  8
praia
 10
-9.355938
 20
38.685295
  0
VERTEX
  8
praia
 10
-9.355982
 20
38.685319
  0
VERTEX
  8
praia
 10
-9.356024
 20
38.685348
  0
VERTEX
  8
praia
 10
-9.356043
 20
38.685363
  0
VERTEX
  8
praia
 10
-9.356086
 20
38.685393
  0
VERTEX
  8
praia
 10
-9.356116
 20
38.685417
  0
VERTEX
  8
praia
 10
-9.356135
 20
38.685430
  0
VERTEX
  8
praia
 10
-9.356154
 20
38.685443
  0
VERTEX
  8
praia
 10
-9.356189
 20
38.685466
  0
VERTEX
  8
praia
 10
-9.356211
 20
38.685483
  0
VERTEX
  8
praia
 10
-9.356231
 20
38.685500
  0
VERTEX
  8
praia
 10
-9.356279
 20
38.685526
  0
VERTEX
  8
praia
 10
-9.356303
 20
38.685539
  0
VERTEX
  8
praia
 10
-9.356372
 20
38.685577
  0
VERTEX
  8
praia
 10
-9.356397
 20
38.685590
  0
VERTEX
  8
praia
 10
-9.356442
 20
38.685618
  0
VERTEX
  8
praia
 10
-9.356462
 20
38.685630
  0
VERTEX
  8
praia
 10
-9.356488
 20
38.685638
  0
VERTEX
  8
praia
 10
-9.356534
 20
38.685655
  0
VERTEX
  8
praia
 10
-9.356582
 20
38.685666
  0
VERTEX
  8
praia
 10
-9.356584
 20
38.685667
  0
VERTEX
  8
praia
 10
-9.356632
 20
38.685679
  0
VERTEX
  8
praia
 10
-9.356652
 20
38.685688
  0
VERTEX
  8
praia
 10
-9.356672
 20
38.685697
  0
VERTEX
  8
praia
 10
-9.356693
 20
38.685709
  0
VERTEX
  8
praia
 10
-9.356739
 20
38.685740
  0
VERTEX
  8
praia
 10
-9.356790
 20
38.685761
  0
VERTEX
  8
praia
 10
-9.356812
 20
38.685768
  0
VERTEX
  8
praia
 10
-9.356833
 20
38.685773
  0
VERTEX
  8
praia
 10
-9.356838
 20
38.685774
  0
VERTEX
  8
praia
 10
-9.356853
 20
38.685776
  0
VERTEX
  8
praia
 10
-9.356891
 20
38.685788
  0
VERTEX
  8
praia
 10
-9.356902
 20
38.685794
  0
VERTEX
  8
praia
 10
-9.356913
 20
38.685807
  0
VERTEX
  8
praia
 10
-9.356926
 20
38.685822
  0
VERTEX
  8
praia
 10
-9.356954
 20
38.685835
  0
VERTEX
  8
praia
 10
-9.356966
 20
38.685845
  0
VERTEX
  8
praia
 10
-9.356976
 20
38.685856
  0
VERTEX
  8
praia
 10
-9.356987
 20
38.685888
  0
VERTEX
  8
praia
 10
-9.356991
 20
38.685902
  0
VERTEX
  8
praia
 10
-9.356992
 20
38.685917
  0
VERTEX
  8
praia
 10
-9.356991
 20
38.685942
  0
VERTEX
  8
praia
 10
-9.356991
 20
38.685951
  0
VERTEX
  8
praia
 10
-9.356991
 20
38.685951
  0
VERTEX
  8
praia
 10
-9.356991
 20
38.685952
  0
VERTEX
  8
praia
 10
-9.356990
 20
38.685958
  0
VERTEX
  8
praia
 10
-9.356990
 20
38.685961
  0
VERTEX
  8
praia
 10
-9.356989
 20
38.685973
  0
VERTEX
  8
praia
 10
-9.356988
 20
38.685986
  0
VERTEX
  8
praia
 10
-9.356988
 20
38.685991
  0
VERTEX
  8
praia
 10
-9.356987
 20
38.686000
  0
VERTEX
  8
praia
 10
-9.356987
 20
38.686003
  0
VERTEX
  8
praia
 10
-9.356986
 20
38.686018
  0
VERTEX
  8
praia
 10
-9.356986
 20
38.686024
  0
VERTEX
  8
praia
 10
-9.356985
 20
38.686028
  0
VERTEX
  8
praia
 10
-9.356985
 20
38.686030
  0
VERTEX
  8
praia
 10
-9.356985
 20
38.686032
  0
VERTEX
  8
praia
 10
-9.356985
 20
38.686040
  0
VERTEX
  8
praia
 10
-9.356984
 20
38.686048
  0
VERTEX
  8
praia
 10
-9.356983
 20
38.686062
  0
VERTEX
  8
praia
 10
-9.356983
 20
38.686064
  0
VERTEX
  8
praia
 10
-9.356982
 20
38.686078
  0
VERTEX
  8
praia
 10
-9.356982
 20
38.686080
  0
VERTEX
  8
praia
 10
-9.356982
 20
38.686081
  0
VERTEX
  8
praia
 10
-9.356982
 20
38.686081
  0
VERTEX
  8
praia
 10
-9.356982
 20
38.686083
  0
VERTEX
  8
praia
 10
-9.356982
 20
38.686084
  0
VERTEX
  8
praia
 10
-9.356981
 20
38.686086
  0
VERTEX
  8
praia
 10
-9.356981
 20
38.686087
  0
VERTEX
  8
praia
 10
-9.356981
 20
38.686089
  0
VERTEX
  8
praia
 10
-9.356981
 20
38.686090
  0
VERTEX
  8
praia
 10
-9.356981
 20
38.686095
  0
VERTEX
  8
praia
 10
-9.356981
 20
38.686095
  0
VERTEX
  8
praia
 10
-9.356981
 20
38.686095
  0
VERTEX
  8
praia
 10
-9.356981
 20
38.686096
  0
VERTEX
  8
praia
 10
-9.356981
 20
38.686096
  0
VERTEX
  8
praia
 10
-9.356981
 20
38.686097
  0
VERTEX
  8
praia
 10
-9.356981
 20
38.686099
  0
VERTEX
  8
praia
 10
-9.356981
 20
38.686100
  0
VERTEX
  8
praia
 10
-9.356980
 20
38.686102
  0
VERTEX
  8
praia
 10
-9.356980
 20
38.686103
  0
VERTEX
  8
praia
 10
-9.356979
 20
38.686107
  0
VERTEX
  8
praia
 10
-9.356977
 20
38.686116
  0
VERTEX
  8
praia
 10
-9.356977
 20
38.686116
  0
VERTEX
  8
praia
 10
-9.356976
 20
38.686119
  0
VERTEX
  8
praia
 10
-9.356975
 20
38.686121
  0
VERTEX
  8
praia
 10
-9.356975
 20
38.686122
  0
VERTEX
  8
praia
 10
-9.356974
 20
38.686124
  0
VERTEX
  8
praia
 10
-9.356973
 20
38.686131
  0
VERTEX
  8
praia
 10
-9.356972
 20
38.686133
  0
VERTEX
  8
praia
 10
-9.356972
 20
38.686134
  0
VERTEX
  8
praia
 10
-9.356969
 20
38.686146
  0
VERTEX
  8
praia
 10
-9.356965
 20
38.686161
  0
VERTEX
  8
praia
 10
-9.356964
 20
38.686164
  0
VERTEX
  8
praia
 10
-9.356879
 20
38.686179
  0
VERTEX
  8
praia
 10
-9.356820
 20
38.686209
  0
VERTEX
  8
praia
 10
-9.356662
 20
38.686033
  0
VERTEX
  8
praia
 10
-9.356433
 20
38.685710
  0
VERTEX
  8
praia
 10
-9.356357
 20
38.685619
  0
VERTEX
  8
praia
 10
-9.356176
 20
38.685621
  0
VERTEX
  8
praia
 10
-9.356158
 20
38.685780
  0
VERTEX
  8
praia
 10
-9.356191
 20
38.685862
  0
VERTEX
  8
praia
 10
-9.356012
 20
38.685939
  0
VERTEX
  8
praia
 10
-9.355704
 20
38.686001
  0
VERTEX
  8
praia
 10
-9.355376
 20
38.686029
  0
VERTEX
  8
praia
 10
-9.354982
 20
38.686042
  0
VERTEX
  8
praia
 10
-9.354781
 20
38.686077
  0
VERTEX
  8
praia
 10
-9.354707
 20
38.686095
  0
VERTEX
  8
praia
 10
-9.354376
 20
38.685998
  0
VERTEX
  8
praia
 10
-9.354046
 20
38.685968
  0
VERTEX
  8
praia
 10
-9.353597
 20
38.685856
  0
VERTEX
  8
praia
 10
-9.353299
 20
38.685793
  0
VERTEX
  8
praia
 10
-9.353246
 20
38.685802
  0
VERTEX
  8
praia
 10
-9.353052
 20
38.685679
  0
VERTEX
  8
praia
 10
-9.352986
 20
38.685496
  0
VERTEX
  8
praia
 10
-9.352951
 20
38.685355
  0
VERTEX
  8
praia
 10
-9.352777
 20
38.685140
  0
VERTEX
  8
praia
 10
-9.352692
 20
38.685091
  0
VERTEX
  8
praia
 10
-9.352552
 20
38.685001
  0
VERTEX
  8
praia
 10
-9.352497
 20
38.684901
  0
VERTEX
  8
praia
 10
-9.352198
 20
38.684796
  0
VERTEX
  8
praia
 10
-9.351963
 20
38.684715
  0
VERTEX
  8
praia
 10
-9.351803
 20
38.684692
  0
VERTEX
  8
praia
 10
-9.351823
 20
38.684617
  0
VERTEX
  8
praia
 10
-9.351704
 20
38.684518
  0
VERTEX
  8
praia
 10
-9.351534
 20
38.684537
  0
VERTEX
  8
praia
 10
-9.351319
 20
38.684569
  0
VERTEX
  8
praia
 10
-9.351334
 20
38.684544
  0
VERTEX
  8
praia
 10
-9.351353
 20
38.684512
  0
VERTEX
  8
praia
 10
-9.351378
 20
38.684470
  0
VERTEX
  8
praia
 10
-9.351383
 20
38.684462
  0
VERTEX
  8
praia
 10
-9.351387
 20
38.684459
  0
VERTEX
  8
praia
 10
-9.351388
 20
38.684458
  0
VERTEX
  8
praia
 10
-9.351393
 20
38.684453
  0
VERTEX
  8
praia
 10
-9.351395
 20
38.684452
  0
VERTEX
  8
praia
 10
-9.351402
 20
38.684446
  0
VERTEX
  8
praia
 10
-9.351405
 20
38.684443
  0
VERTEX
  8
praia
 10
-9.351411
 20
38.684437
  0
VERTEX
  8
praia
 10
-9.351417
 20
38.684432
  0
VERTEX
  8
praia
 10
-9.351419
 20
38.684430
  0
VERTEX
  8
praia
 10
-9.351425
 20
38.684426
  0
VERTEX
  8
praia
 10
-9.351426
 20
38.684424
  0
VERTEX
  8
praia
 10
-9.351427
 20
38.684424
  0
VERTEX
  8
praia
 10
-9.351430
 20
38.684421
  0
VERTEX
  8
praia
 10
-9.351441
 20
38.684418
  0
VERTEX
  8
praia
 10
-9.351449
 20
38.684416
  0
VERTEX
  8
praia
 10
-9.351457
 20
38.684413
  0
VERTEX
  8
praia
 10
-9.351467
 20
38.684414
  0
VERTEX
  8
praia
 10
-9.351464
 20
38.684408
  0
VERTEX
  8
praia
 10
-9.351481
 20
38.684416
  0
VERTEX
  8
praia
 10
-9.351492
 20
38.684417
  0
VERTEX
  8
praia
 10
-9.351531
 20
38.684437
  0
VERTEX
  8
praia
 10
-9.351541
 20
38.684442
  0
VERTEX
  8
praia
 10
-9.351572
 20
38.684452
  0
VERTEX
  8
praia
 10
-9.351606
 20
38.684458
  0
VERTEX
  8
praia
 10
-9.351639
 20
38.684459
  0
VERTEX
  8
praia
 10
-9.351689
 20
38.684454
  0
VERTEX
  8
praia
 10
-9.351723
 20
38.684449
  0
VERTEX
  8
praia
 10
-9.351755
 20
38.684448
  0
VERTEX
  8
praia
 10
-9.351782
 20
38.684453
  0
VERTEX
  8
praia
 10
-9.351785
 20
38.684453
  0
VERTEX
  8
praia
 10
-9.351815
 20
38.684463
  0
VERTEX
  8
praia
 10
-9.351839
 20
38.684476
  0
VERTEX
  8
praia
 10
-9.351864
 20
38.684493
  0
VERTEX
  8
praia
 10
-9.351888
 20
38.684507
  0
VERTEX
  8
praia
 10
-9.351911
 20
38.684518
  0
VERTEX
  8
praia
 10
-9.351935
 20
38.684524
  0
VERTEX
  8
praia
 10
-9.351959
 20
38.684515
  0
VERTEX
  8
praia
 10
-9.351976
 20
38.684500
  0
VERTEX
  8
praia
 10
-9.351991
 20
38.684484
  0
VERTEX
  8
praia
 10
-9.352009
 20
38.684469
  0
VERTEX
  8
praia
 10
-9.352030
 20
38.684458
  0
VERTEX
  8
praia
 10
-9.352057
 20
38.684457
  0
VERTEX
  8
praia
 10
-9.352084
 20
38.684466
  0
VERTEX
  8
praia
 10
-9.352108
 20
38.684479
  0
VERTEX
  8
praia
 10
-9.352129
 20
38.684496
  0
VERTEX
  8
praia
 10
-9.352178
 20
38.684530
  0
VERTEX
  8
praia
 10
-9.352201
 20
38.684546
  0
VERTEX
  8
praia
 10
-9.352264
 20
38.684588
  0
VERTEX
  8
praia
 10
-9.352301
 20
38.684617
  0
VERTEX
  8
praia
 10
-9.352323
 20
38.684637
  0
VERTEX
  8
praia
 10
-9.352348
 20
38.684659
  0
VERTEX
  8
praia
 10
-9.352374
 20
38.684679
  0
VERTEX
  8
praia
 10
-9.352410
 20
38.684708
  0
VERTEX
  8
praia
 10
-9.352468
 20
38.684743
  0
VERTEX
  8
praia
 10
-9.352508
 20
38.684767
  0
VERTEX
  8
praia
 10
-9.352548
 20
38.684786
  0
VERTEX
  8
praia
 10
-9.352577
 20
38.684798
  0
VERTEX
  8
praia
 10
-9.352642
 20
38.684835
  0
VERTEX
  8
praia
 10
-9.352681
 20
38.684861
  0
VERTEX
  8
praia
 10
-9.352710
 20
38.684886
  0
VERTEX
  8
praia
 10
-9.352729
 20
38.684906
  0
VERTEX
  8
praia
 10
-9.352759
 20
38.684934
  0
VERTEX
  8
praia
 10
-9.352789
 20
38.684962
  0
VERTEX
  8
praia
 10
-9.352865
 20
38.685041
  0
VERTEX
  8
praia
 10
-9.352908
 20
38.685087
  0
VERTEX
  8
praia
 10
-9.352973
 20
38.685146
  0
VERTEX
  8
praia
 10
-9.353015
 20
38.685186
  0
VERTEX
  8
praia
 10
-9.353064
 20
38.685226
  0
VERTEX
  8
praia
 10
-9.353112
 20
38.685264
  0
VERTEX
  8
praia
 10
-9.353143
 20
38.685283
  0
VERTEX
  8
praia
 10
-9.353201
 20
38.685316
  0
VERTEX
  8
praia
 10
-9.353231
 20
38.685330
  0
VERTEX
  8
praia
 10
-9.353313
 20
38.685360
  0
VERTEX
  8
praia
 10
-9.353345
 20
38.685371
  0
VERTEX
  8
praia
 10
-9.353411
 20
38.685394
  0
VERTEX
  8
praia
 10
-9.353488
 20
38.685421
  0
VERTEX
  8
praia
 10
-9.353522
 20
38.685433
  0
VERTEX
  8
praia
 10
-9.353574
 20
38.685459
  0
VERTEX
  8
praia
 10
-9.353625
 20
38.685486
  0
VERTEX
  8
praia
 10
-9.353667
 20
38.685509
  0
VERTEX
  8
praia
 10
-9.353709
 20
38.685530
  0
VERTEX
  8
praia
 10
-9.353748
 20
38.685556
  0
VERTEX
  8
praia
 10
-9.353807
 20
38.685596
  0
VERTEX
  8
praia
 10
-9.353833
 20
38.685612
  0
VERTEX
  8
praia
 10
-9.353860
 20
38.685626
  0
VERTEX
  8
praia
 10
-9.353889
 20
38.685638
  0
VERTEX
  8
praia
 10
-9.353920
 20
38.685648
  0
VERTEX
  8
praia
 10
-9.353951
 20
38.685652
  0
VERTEX
  8
praia
 10
-9.353981
 20
38.685652
  0
VERTEX
  8
praia
 10
-9.354009
 20
38.685647
  0
VERTEX
  8
praia
 10
-9.354036
 20
38.685637
  0
VERTEX
  8
praia
 10
-9.354064
 20
38.685623
  0
VERTEX
  8
praia
 10
-9.354087
 20
38.685605
  0
VERTEX
  8
praia
 10
-9.354101
 20
38.685586
  0
VERTEX
  8
praia
 10
-9.354119
 20
38.685566
  0
VERTEX
  8
praia
 10
-9.354140
 20
38.685563
  0
VERTEX
  8
praia
 10
-9.354158
 20
38.685570
  0
VERTEX
  8
praia
 10
-9.354175
 20
38.685592
  0
VERTEX
  8
praia
 10
-9.354195
 20
38.685601
  0
VERTEX
  8
praia
 10
-9.354220
 20
38.685602
  0
VERTEX
  8
praia
 10
-9.354247
 20
38.685606
  0
VERTEX
  8
praia
 10
-9.354272
 20
38.685618
  0
VERTEX
  8
praia
 10
-9.354292
 20
38.685636
  0
VERTEX
  8
praia
 10
-9.354314
 20
38.685655
  0
VERTEX
  8
praia
 10
-9.354362
 20
38.685699
  0
VERTEX
  8
praia
 10
-9.354380
 20
38.685724
  0
VERTEX
  8
praia
 10
-9.354405
 20
38.685759
  0
VERTEX
  8
praia
 10
-9.354429
 20
38.685779
  0
VERTEX
  8
praia
 10
-9.354453
 20
38.685791
  0
VERTEX
  8
praia
 10
-9.354476
 20
38.685791
  0
VERTEX
  8
praia
 10
-9.354501
 20
38.685780
  0
VERTEX
  8
praia
 10
-9.354538
 20
38.685752
  0
VERTEX
  8
praia
 10
-9.354558
 20
38.685730
  0
VERTEX
  8
praia
 10
-9.354577
 20
38.685708
  0
VERTEX
  8
praia
 10
-9.354613
 20
38.685656
  0
VERTEX
  8
praia
 10
-9.354627
 20
38.685633
  0
VERTEX
  8
praia
 10
-9.354642
 20
38.685608
  0
VERTEX
  8
praia
 10
-9.354664
 20
38.685565
  0
VERTEX
  8
praia
 10
-9.354669
 20
38.685548
  0
VERTEX
  8
praia
 10
-9.354676
 20
38.685531
  0
VERTEX
  8
praia
 10
-9.354693
 20
38.685500
  0
VERTEX
  8
praia
 10
-9.354702
 20
38.685482
  0
VERTEX
  8
praia
 10
-9.354711
 20
38.685462
  0
VERTEX
  8
praia
 10
-9.354717
 20
38.685443
  0
VERTEX
  8
praia
 10
-9.354726
 20
38.685430
  0
VERTEX
  8
praia
 10
-9.354740
 20
38.685426
  0
VERTEX
  8
praia
 10
-9.354754
 20
38.685431
  0
VERTEX
  8
praia
 10
-9.354787
 20
38.685461
  0
VERTEX
  8
praia
 10
-9.354812
 20
38.685488
  0
VERTEX
  8
praia
 10
-9.354829
 20
38.685508
  0
VERTEX
  8
praia
 10
-9.354852
 20
38.685536
  0
SEQEND
  0
POINT
  8
praia
  6
BYLAYER
 10
-9.354450
 20
38.685578
 50
0.599045
  0
POLYLINE
  8
praia
  6
BYLAYER
 66
1
 70
1
 40
0.000000
 41
0.000000
  0
VERTEX
  8
praia
 10
-9.475296
 20
38.729871
  0
VERTEX
  8
praia
 10
-9.475185
 20
38.729936
  0
VERTEX
  8
praia
 10
-9.475063
 20
38.730122
  0
VERTEX
  8
praia
 10
-9.474661
 20
38.730618
  0
VERTEX
  8
praia
 10
-9.474661
 20
38.730618
  0
VERTEX
  8
praia
 10
-9.474495
 20
38.730824
  0
VERTEX
  8
praia
 10
-9.473951
 20
38.731569
  0
VERTEX
  8
praia
 10
-9.473655
 20
38.732132
  0
VERTEX
  8
praia
 10
-9.473308
 20
38.733033
  0
VERTEX
  8
praia
 10
-9.473253
 20
38.733342
  0
VERTEX
  8
praia
 10
-9.473222
 20
38.733391
  0
VERTEX
  8
praia
 10
-9.473254
 20
38.733415
  0
VERTEX
  8
praia
 10
-9.473242
 20
38.733449
  0
VERTEX
  8
praia
 10
-9.473310
 20
38.733659
  0
VERTEX
  8
praia
 10
-9.473236
 20
38.733768
  0
VERTEX
  8
praia
 10
-9.473154
 20
38.734015
  0
VERTEX
  8
praia
 10
-9.473088
 20
38.734122
  0
VERTEX
  8
praia
 10
-9.473085
 20
38.734301
  0
VERTEX
  8
praia
 10
-9.473034
 20
38.734504
  0
VERTEX
  8
praia
 10
-9.472884
 20
38.734733
  0
VERTEX
  8
praia
 10
-9.472825
 20
38.734883
  0
VERTEX
  8
praia
 10
-9.472676
 20
38.735189
  0
VERTEX
  8
praia
 10
-9.472690
 20
38.735266
  0
VERTEX
  8
praia
 10
-9.472576
 20
38.735422
  0
VERTEX
  8
praia
 10
-9.472214
 20
38.736179
  0
VERTEX
  8
praia
 10
-9.472265
 20
38.736266
  0
VERTEX
  8
praia
 10
-9.472230
 20
38.736701
  0
VERTEX
  8
praia
 10
-9.472250
 20
38.736768
  0
VERTEX
  8
praia
 10
-9.472255
 20
38.736783
  0
VERTEX
  8
praia
 10
-9.471360
 20
38.736154
  0
VERTEX
  8
praia
 10
-9.471184
 20
38.735975
  0
VERTEX
  8
praia
 10
-9.471161
 20
38.735913
  0
VERTEX
  8
praia
 10
-9.471165
 20
38.735859
  0
VERTEX
  8
praia
 10
-9.471193
 20
38.735831
  0
VERTEX
  8
praia
 10
-9.471316
 20
38.735837
  0
VERTEX
  8
praia
 10
-9.471343
 20
38.735838
  0
VERTEX
  8
praia
 10
-9.471367
 20
38.735844
  0
VERTEX
  8
praia
 10
-9.471504
 20
38.735873
  0
VERTEX
  8
praia
 10
-9.471584
 20
38.735872
  0
VERTEX
  8
praia
 10
-9.471661
 20
38.735618
  0
VERTEX
  8
praia
 10
-9.471695
 20
38.734443
  0
VERTEX
  8
praia
 10
-9.471589
 20
38.734271
  0
VERTEX
  8
praia
 10
-9.471538
 20
38.734188
  0
VERTEX
  8
praia
 10
-9.471419
 20
38.733914
  0
VERTEX
  8
praia
 10
-9.471302
 20
38.733619
  0
VERTEX
  8
praia
 10
-9.471263
 20
38.733266
  0
VERTEX
  8
praia
 10
-9.471013
 20
38.732737
  0
VERTEX
  8
praia
 10
-9.470844
 20
38.732431
  0
VERTEX
  8
praia
 10
-9.470624
 20
38.732124
  0
VERTEX
  8
praia
 10
-9.471357
 20
38.731083
  0
VERTEX
  8
praia
 10
-9.473496
 20
38.730225
  0
VERTEX
  8
praia
 10
-9.473966
 20
38.730040
  0
VERTEX
  8
praia
 10
-9.474221
 20
38.729728
  0
VERTEX
  8
praia
 10
-9.475126
 20
38.729855
  0
VERTEX
  8
praia
 10
-9.475127
 20
38.729856
  0
VERTEX
  8
praia
 10
-9.475130
 20
38.729855
  0
VERTEX
  8
praia
 10
-9.475134
 20
38.729855
  0
VERTEX
  8
praia
 10
-9.475289
 20
38.729843
  0
VERTEX
  8
praia
 10
-9.475302
 20
38.729839
  0
VERTEX
  8
praia
 10
-9.475318
 20
38.729846
  0
VERTEX
  8
praia
 10
-9.475296
 20
38.729871
  0
SEQEND
  0
POINT
  8
praia
  6
BYLAYER
 10
-9.472556
 20
38.732634
 50
0.657164
  0
POLYLINE
  8
praia
  6
BYLAYER
 66
1
 70
1
 40
0.000000
 41
0.000000
  0
VERTEX
  8
praia
 10
-9.337877
 20
38.679958
  0
VERTEX
  8
praia
 10
-9.337969
 20
38.679993
  0
VERTEX
  8
praia
 10
-9.338045
 20
38.680022
  0
VERTEX
  8
praia
 10
-9.338132
 20
38.680057
  0
VERTEX
  8
praia
 10
-9.338231
 20
38.680095
  0
VERTEX
  8
praia
 10
-9.338315
 20
38.680128
  0
VERTEX
  8
praia
 10
-9.338401
 20
38.680165
  0
VERTEX
  8
praia
 10
-9.338480
 20
38.680204
  0
VERTEX
  8
praia
 10
-9.338551
 20
38.680245
  0
VERTEX
  8
praia
 10
-9.338595
 20
38.680268
  0
VERTEX
  8
praia
 10
-9.338671
 20
38.680303
  0
VERTEX
  8
praia
 10
-9.338760
 20
38.680340
  0
VERTEX
  8
praia
 10
-9.338805
 20
38.680358
  0
VERTEX
  8
praia
 10
-9.338894
 20
38.680392
  0
VERTEX
  8
praia
 10
-9.338945
 20
38.680412
  0
VERTEX
  8
praia
 10
-9.339025
 20
38.680444
  0
VERTEX
  8
praia
 10
-9.339069
 20
38.680461
  0
VERTEX
  8
praia
 10
-9.339103
 20
38.680470
  0
VERTEX
  8
praia
 10
-9.339166
 20
38.680474
  0
VERTEX
  8
praia
 10
-9.339198
 20
38.680481
  0
VERTEX
  8
praia
 10
-9.339257
 20
38.680503
  0
VERTEX
  8
praia
 10
-9.339339
 20
38.680538
  0
VERTEX
  8
praia
 10
-9.339416
 20
38.680578
  0
VERTEX
  8
praia
 10
-9.339457
 20
38.680594
  0
VERTEX
  8
praia
 10
-9.339495
 20
38.680613
  0
VERTEX
  8
praia
 10
-9.339590
 20
38.680666
  0
VERTEX
  8
praia
 10
-9.339668
 20
38.680712
  0
VERTEX
  8
praia
 10
-9.339760
 20
38.680769
  0
VERTEX
  8
praia
 10
-9.339792
 20
38.680792
  0
VERTEX
  8
praia
 10
-9.339828
 20
38.680812
  0
VERTEX
  8
praia
 10
-9.339903
 20
38.680853
  0
VERTEX
  8
praia
 10
-9.339966
 20
38.680885
  0
VERTEX
  8
praia
 10
-9.340047
 20
38.680920
  0
VERTEX
  8
praia
 10
-9.340180
 20
38.680961
  0
VERTEX
  8
praia
 10
-9.340207
 20
38.680970
  0
VERTEX
  8
praia
 10
-9.340266
 20
38.680989
  0
VERTEX
  8
praia
 10
-9.340351
 20
38.681025
  0
VERTEX
  8
praia
 10
-9.340386
 20
38.681035
  0
VERTEX
  8
praia
 10
-9.340453
 20
38.681046
  0
VERTEX
  8
praia
 10
-9.340468
 20
38.681051
  0
VERTEX
  8
praia
 10
-9.340486
 20
38.681052
  0
VERTEX
  8
praia
 10
-9.340559
 20
38.681046
  0
VERTEX
  8
praia
 10
-9.340594
 20
38.681044
  0
VERTEX
  8
praia
 10
-9.340629
 20
38.681048
  0
VERTEX
  8
praia
 10
-9.340662
 20
38.681060
  0
VERTEX
  8
praia
 10
-9.340739
 20
38.681099
  0
VERTEX
  8
praia
 10
-9.340771
 20
38.681120
  0
VERTEX
  8
praia
 10
-9.340809
 20
38.681145
  0
VERTEX
  8
praia
 10
-9.340843
 20
38.681171
  0
VERTEX
  8
praia
 10
-9.340876
 20
38.681194
  0
VERTEX
  8
praia
 10
-9.340916
 20
38.681218
  0
VERTEX
  8
praia
 10
-9.340959
 20
38.681238
  0
VERTEX
  8
praia
 10
-9.340999
 20
38.681254
  0
VERTEX
  8
praia
 10
-9.341068
 20
38.681276
  0
VERTEX
  8
praia
 10
-9.341112
 20
38.681285
  0
VERTEX
  8
praia
 10
-9.341161
 20
38.681295
  0
VERTEX
  8
praia
 10
-9.341204
 20
38.681307
  0
VERTEX
  8
praia
 10
-9.341240
 20
38.681321
  0
VERTEX
  8
praia
 10
-9.341282
 20
38.681337
  0
VERTEX
  8
praia
 10
-9.341323
 20
38.681355
  0
VERTEX
  8
praia
 10
-9.341357
 20
38.681373
  0
VERTEX
  8
praia
 10
-9.341400
 20
38.681393
  0
VERTEX
  8
praia
 10
-9.341460
 20
38.681417
  0
VERTEX
  8
praia
 10
-9.341533
 20
38.681449
  0
VERTEX
  8
praia
 10
-9.341560
 20
38.681460
  0
VERTEX
  8
praia
 10
-9.341613
 20
38.681480
  0
VERTEX
  8
praia
 10
-9.341692
 20
38.681504
  0
VERTEX
  8
praia
 10
-9.341735
 20
38.681518
  0
VERTEX
  8
praia
 10
-9.341757
 20
38.681524
  0
VERTEX
  8
praia
 10
-9.341796
 20
38.681540
  0
VERTEX
  8
praia
 10
-9.341835
 20
38.681551
  0
VERTEX
  8
praia
 10
-9.341881
 20
38.681564
  0
VERTEX
  8
praia
 10
-9.341920
 20
38.681574
  0
VERTEX
  8
praia
 10
-9.342006
 20
38.681592
  0
VERTEX
  8
praia
 10
-9.342049
 20
38.681599
  0
VERTEX
  8
praia
 10
-9.342092
 20
38.681603
  0
VERTEX
  8
praia
 10
-9.342142
 20
38.681609
  0
VERTEX
  8
praia
 10
-9.342212
 20
38.681610
  0
VERTEX
  8
praia
 10
-9.342254
 20
38.681609
  0
VERTEX
  8
praia
 10
-9.342302
 20
38.681611
  0
VERTEX
  8
praia
 10
-9.342343
 20
38.681611
  0
VERTEX
  8
praia
 10
-9.342382
 20
38.681609
  0
VERTEX
  8
praia
 10
-9.342429
 20
38.681606
  0
VERTEX
  8
praia
 10
-9.342446
 20
38.681603
  0
VERTEX
  8
praia
 10
-9.342477
 20
38.681598
  0
VERTEX
  8
praia
 10
-9.342522
 20
38.681583
  0
VERTEX
  8
praia
 10
-9.342567
 20
38.681573
  0
VERTEX
  8
praia
 10
-9.342616
 20
38.681567
  0
VERTEX
  8
praia
 10
-9.342638
 20
38.681570
  0
VERTEX
  8
praia
 10
-9.342643
 20
38.681571
  0
VERTEX
  8
praia
 10
-9.342687
 20
38.681572
  0
VERTEX
  8
praia
 10
-9.342733
 20
38.681578
  0
VERTEX
  8
praia
 10
-9.342761
 20
38.681584
  0
VERTEX
  8
praia
 10
-9.342780
 20
38.681587
  0
VERTEX
  8
praia
 10
-9.342862
 20
38.681606
  0
VERTEX
  8
praia
 10
-9.342910
 20
38.681615
  0
VERTEX
  8
praia
 10
-9.342920
 20
38.681616
  0
VERTEX
  8
praia
 10
-9.342953
 20
38.681621
  0
VERTEX
  8
praia
 10
-9.342964
 20
38.681620
  0
VERTEX
  8
praia
 10
-9.343000
 20
38.681619
  0
VERTEX
  8
praia
 10
-9.343012
 20
38.681621
  0
VERTEX
  8
praia
 10
-9.343047
 20
38.681619
  0
VERTEX
  8
praia
 10
-9.343089
 20
38.681611
  0
VERTEX
  8
praia
 10
-9.343097
 20
38.681632
  0
VERTEX
  8
praia
 10
-9.343104
 20
38.681648
  0
VERTEX
  8
praia
 10
-9.343108
 20
38.681660
  0
VERTEX
  8
praia
 10
-9.343110
 20
38.681664
  0
VERTEX
  8
praia
 10
-9.343110
 20
38.681665
  0
VERTEX
  8
praia
 10
-9.343110
 20
38.681665
  0
VERTEX
  8
praia
 10
-9.343117
 20
38.681682
  0
VERTEX
  8
praia
 10
-9.343119
 20
38.681689
  0
VERTEX
  8
praia
 10
-9.343119
 20
38.681690
  0
VERTEX
  8
praia
 10
-9.342919
 20
38.681737
  0
VERTEX
  8
praia
 10
-9.342476
 20
38.681840
  0
VERTEX
  8
praia
 10
-9.342334
 20
38.681831
  0
VERTEX
  8
praia
 10
-9.341933
 20
38.681804
  0
VERTEX
  8
praia
 10
-9.341539
 20
38.681733
  0
VERTEX
  8
praia
 10
-9.340909
 20
38.681598
  0
VERTEX
  8
praia
 10
-9.340333
 20
38.681462
  0
VERTEX
  8
praia
 10
-9.339500
 20
38.681196
  0
VERTEX
  8
praia
 10
-9.339446
 20
38.681163
  0
VERTEX
  8
praia
 10
-9.339009
 20
38.681093
  0
VERTEX
  8
praia
 10
-9.338647
 20
38.681055
  0
VERTEX
  8
praia
 10
-9.338285
 20
38.681025
  0
VERTEX
  8
praia
 10
-9.337976
 20
38.680953
  0
VERTEX
  8
praia
 10
-9.337655
 20
38.680840
  0
VERTEX
  8
praia
 10
-9.337419
 20
38.680718
  0
VERTEX
  8
praia
 10
-9.337142
 20
38.680670
  0
VERTEX
  8
praia
 10
-9.336909
 20
38.680681
  0
VERTEX
  8
praia
 10
-9.336643
 20
38.680692
  0
VERTEX
  8
praia
 10
-9.336045
 20
38.680532
  0
VERTEX
  8
praia
 10
-9.335307
 20
38.680231
  0
VERTEX
  8
praia
 10
-9.335273
 20
38.680140
  0
VERTEX
  8
praia
 10
-9.335208
 20
38.680066
  0
VERTEX
  8
praia
 10
-9.335165
 20
38.680041
  0
VERTEX
  8
praia
 10
-9.335070
 20
38.680042
  0
VERTEX
  8
praia
 10
-9.334996
 20
38.680068
  0
VERTEX
  8
praia
 10
-9.334729
 20
38.679970
  0
VERTEX
  8
praia
 10
-9.334663
 20
38.679846
  0
VERTEX
  8
praia
 10
-9.334383
 20
38.679624
  0
VERTEX
  8
praia
 10
-9.334982
 20
38.678625
  0
VERTEX
  8
praia
 10
-9.335028
 20
38.678641
  0
VERTEX
  8
praia
 10
-9.335068
 20
38.678657
  0
VERTEX
  8
praia
 10
-9.335107
 20
38.678673
  0
VERTEX
  8
praia
 10
-9.335151
 20
38.678691
  0
VERTEX
  8
praia
 10
-9.335194
 20
38.678708
  0
VERTEX
  8
praia
 10
-9.335231
 20
38.678720
  0
VERTEX
  8
praia
 10
-9.335275
 20
38.678734
  0
VERTEX
  8
praia
 10
-9.335322
 20
38.678749
  0
VERTEX
  8
praia
 10
-9.335380
 20
38.678773
  0
VERTEX
  8
praia
 10
-9.335444
 20
38.678806
  0
VERTEX
  8
praia
 10
-9.335475
 20
38.678828
  0
VERTEX
  8
praia
 10
-9.335506
 20
38.678853
  0
VERTEX
  8
praia
 10
-9.335543
 20
38.678880
  0
VERTEX
  8
praia
 10
-9.335574
 20
38.678907
  0
VERTEX
  8
praia
 10
-9.335603
 20
38.678932
  0
VERTEX
  8
praia
 10
-9.335673
 20
38.678989
  0
VERTEX
  8
praia
 10
-9.335700
 20
38.679014
  0
VERTEX
  8
praia
 10
-9.335734
 20
38.679043
  0
VERTEX
  8
praia
 10
-9.335767
 20
38.679066
  0
VERTEX
  8
praia
 10
-9.335804
 20
38.679091
  0
VERTEX
  8
praia
 10
-9.335825
 20
38.679102
  0
VERTEX
  8
praia
 10
-9.335897
 20
38.679133
  0
VERTEX
  8
praia
 10
-9.335952
 20
38.679149
  0
VERTEX
  8
praia
 10
-9.335998
 20
38.679157
  0
VERTEX
  8
praia
 10
-9.336048
 20
38.679167
  0
VERTEX
  8
praia
 10
-9.336086
 20
38.679179
  0
VERTEX
  8
praia
 10
-9.336126
 20
38.679193
  0
VERTEX
  8
praia
 10
-9.336173
 20
38.679208
  0
VERTEX
  8
praia
 10
-9.336213
 20
38.679222
  0
VERTEX
  8
praia
 10
-9.336255
 20
38.679236
  0
VERTEX
  8
praia
 10
-9.336302
 20
38.679254
  0
VERTEX
  8
praia
 10
-9.336340
 20
38.679273
  0
VERTEX
  8
praia
 10
-9.336378
 20
38.679293
  0
VERTEX
  8
praia
 10
-9.336423
 20
38.679309
  0
VERTEX
  8
praia
 10
-9.336463
 20
38.679323
  0
VERTEX
  8
praia
 10
-9.336500
 20
38.679339
  0
VERTEX
  8
praia
 10
-9.336563
 20
38.679372
  0
VERTEX
  8
praia
 10
-9.336598
 20
38.679394
  0
VERTEX
  8
praia
 10
-9.336634
 20
38.679416
  0
VERTEX
  8
praia
 10
-9.336676
 20
38.679441
  0
VERTEX
  8
praia
 10
-9.336744
 20
38.679485
  0
VERTEX
  8
praia
 10
-9.336781
 20
38.679512
  0
VERTEX
  8
praia
 10
-9.336838
 20
38.679559
  0
VERTEX
  8
praia
 10
-9.336894
 20
38.679596
  0
VERTEX
  8
praia
 10
-9.336933
 20
38.679618
  0
VERTEX
  8
praia
 10
-9.336971
 20
38.679635
  0
VERTEX
  8
praia
 10
-9.337019
 20
38.679655
  0
VERTEX
  8
praia
 10
-9.337113
 20
38.679687
  0
VERTEX
  8
praia
 10
-9.337210
 20
38.679717
  0
VERTEX
  8
praia
 10
-9.337273
 20
38.679734
  0
VERTEX
  8
praia
 10
-9.337320
 20
38.679749
  0
VERTEX
  8
praia
 10
-9.337358
 20
38.679759
  0
VERTEX
  8
praia
 10
-9.337470
 20
38.679789
  0
VERTEX
  8
praia
 10
-9.337597
 20
38.679834
  0
VERTEX
  8
praia
 10
-9.337725
 20
38.679885
  0
VERTEX
  8
praia
 10
-9.337774
 20
38.679905
  0
VERTEX
  8
praia
 10
-9.337877
 20
38.679958
  0
SEQEND
  0
POINT
  8
praia
  6
BYLAYER
 10
-9.337509
 20
38.680284
 50
0.590719
  0
POLYLINE
  8
praia
  6
BYLAYER
 66
1
 70
1
 40
0.000000
 41
0.000000
  0
VERTEX
  8
praia
 10
-9.334982
 20
38.678625
  0
VERTEX
  8
praia
 10
-9.334383
 20
38.679624
  0
VERTEX
  8
praia
 10
-9.334018
 20
38.679453
  0
VERTEX
  8
praia
 10
-9.333666
 20
38.679348
  0
VERTEX
  8
praia
 10
-9.333250
 20
38.679278
  0
VERTEX
  8
praia
 10
-9.332760
 20
38.679191
  0
VERTEX
  8
praia
 10
-9.332396
 20
38.679011
  0
VERTEX
  8
praia
 10
-9.332181
 20
38.678872
  0
VERTEX
  8
praia
 10
-9.332094
 20
38.678748
  0
VERTEX
  8
praia
 10
-9.331815
 20
38.678626
  0
VERTEX
  8
praia
 10
-9.331260
 20
38.678440
  0
VERTEX
  8
praia
 10
-9.331065
 20
38.678267
  0
VERTEX
  8
praia
 10
-9.330733
 20
38.678079
  0
VERTEX
  8
praia
 10
-9.330444
 20
38.677973
  0
VERTEX
  8
praia
 10
-9.330369
 20
38.677908
  0
VERTEX
  8
praia
 10
-9.330346
 20
38.677849
  0
VERTEX
  8
praia
 10
-9.330367
 20
38.677791
  0
VERTEX
  8
praia
 10
-9.330292
 20
38.677775
  0
VERTEX
  8
praia
 10
-9.330216
 20
38.677693
  0
VERTEX
  8
praia
 10
-9.330161
 20
38.677585
  0
VERTEX
  8
praia
 10
-9.330085
 20
38.677477
  0
VERTEX
  8
praia
 10
-9.329966
 20
38.677354
  0
VERTEX
  8
praia
 10
-9.329838
 20
38.677330
  0
VERTEX
  8
praia
 10
-9.329591
 20
38.677149
  0
VERTEX
  8
praia
 10
-9.329421
 20
38.677176
  0
VERTEX
  8
praia
 10
-9.329337
 20
38.677252
  0
VERTEX
  8
praia
 10
-9.329103
 20
38.677212
  0
VERTEX
  8
praia
 10
-9.328942
 20
38.677123
  0
VERTEX
  8
praia
 10
-9.328643
 20
38.677042
  0
VERTEX
  8
praia
 10
-9.328641
 20
38.676892
  0
VERTEX
  8
praia
 10
-9.328298
 20
38.676762
  0
VERTEX
  8
praia
 10
-9.328275
 20
38.676654
  0
VERTEX
  8
praia
 10
-9.328114
 20
38.676556
  0
VERTEX
  8
praia
 10
-9.328063
 20
38.676479
  0
VERTEX
  8
praia
 10
-9.328038
 20
38.676440
  0
VERTEX
  8
praia
 10
-9.327920
 20
38.676375
  0
VERTEX
  8
praia
 10
-9.327729
 20
38.676385
  0
VERTEX
  8
praia
 10
-9.327604
 20
38.676553
  0
VERTEX
  8
praia
 10
-9.327350
 20
38.676622
  0
VERTEX
  8
praia
 10
-9.327233
 20
38.676623
  0
VERTEX
  8
praia
 10
-9.327108
 20
38.676562
  0
VERTEX
  8
praia
 10
-9.326933
 20
38.676477
  0
VERTEX
  8
praia
 10
-9.326889
 20
38.676394
  0
VERTEX
  8
praia
 10
-9.326889
 20
38.676393
  0
VERTEX
  8
praia
 10
-9.326898
 20
38.675981
  0
VERTEX
  8
praia
 10
-9.326898
 20
38.675956
  0
VERTEX
  8
praia
 10
-9.326913
 20
38.675955
  0
VERTEX
  8
praia
 10
-9.326929
 20
38.675950
  0
VERTEX
  8
praia
 10
-9.326954
 20
38.675944
  0
VERTEX
  8
praia
 10
-9.326978
 20
38.675936
  0
VERTEX
  8
praia
 10
-9.327011
 20
38.675926
  0
VERTEX
  8
praia
 10
-9.327027
 20
38.675916
  0
VERTEX
  8
praia
 10
-9.327050
 20
38.675896
  0
VERTEX
  8
praia
 10
-9.327071
 20
38.675872
  0
VERTEX
  8
praia
 10
-9.327097
 20
38.675845
  0
VERTEX
  8
praia
 10
-9.327131
 20
38.675817
  0
VERTEX
  8
praia
 10
-9.327176
 20
38.675787
  0
VERTEX
  8
praia
 10
-9.327234
 20
38.675745
  0
VERTEX
  8
praia
 10
-9.327265
 20
38.675718
  0
VERTEX
  8
praia
 10
-9.327298
 20
38.675685
  0
VERTEX
  8
praia
 10
-9.327334
 20
38.675655
  0
VERTEX
  8
praia
 10
-9.327390
 20
38.675633
  0
VERTEX
  8
praia
 10
-9.327429
 20
38.675650
  0
VERTEX
  8
praia
 10
-9.327460
 20
38.675676
  0
VERTEX
  8
praia
 10
-9.327482
 20
38.675706
  0
VERTEX
  8
praia
 10
-9.327481
 20
38.675735
  0
VERTEX
  8
praia
 10
-9.327466
 20
38.675757
  0
VERTEX
  8
praia
 10
-9.327446
 20
38.675779
  0
VERTEX
  8
praia
 10
-9.327425
 20
38.675796
  0
VERTEX
  8
praia
 10
-9.327406
 20
38.675810
  0
VERTEX
  8
praia
 10
-9.327385
 20
38.675830
  0
VERTEX
  8
praia
 10
-9.327366
 20
38.675850
  0
VERTEX
  8
praia
 10
-9.327355
 20
38.675874
  0
VERTEX
  8
praia
 10
-9.327365
 20
38.675894
  0
VERTEX
  8
praia
 10
-9.327371
 20
38.675896
  0
VERTEX
  8
praia
 10
-9.327395
 20
38.675903
  0
VERTEX
  8
praia
 10
-9.327425
 20
38.675904
  0
VERTEX
  8
praia
 10
-9.327447
 20
38.675907
  0
VERTEX
  8
praia
 10
-9.327454
 20
38.675907
  0
VERTEX
  8
praia
 10
-9.327472
 20
38.675922
  0
VERTEX
  8
praia
 10
-9.327476
 20
38.675949
  0
VERTEX
  8
praia
 10
-9.327473
 20
38.675972
  0
VERTEX
  8
praia
 10
-9.327474
 20
38.675984
  0
VERTEX
  8
praia
 10
-9.327482
 20
38.675991
  0
VERTEX
  8
praia
 10
-9.327511
 20
38.676000
  0
VERTEX
  8
praia
 10
-9.327547
 20
38.676011
  0
VERTEX
  8
praia
 10
-9.327587
 20
38.676022
  0
VERTEX
  8
praia
 10
-9.327627
 20
38.676032
  0
VERTEX
  8
praia
 10
-9.327665
 20
38.676040
  0
VERTEX
  8
praia
 10
-9.327704
 20
38.676047
  0
VERTEX
  8
praia
 10
-9.327739
 20
38.676050
  0
VERTEX
  8
praia
 10
-9.327768
 20
38.676046
  0
VERTEX
  8
praia
 10
-9.327776
 20
38.676044
  0
VERTEX
  8
praia
 10
-9.327791
 20
38.676043
  0
VERTEX
  8
praia
 10
-9.327803
 20
38.676033
  0
VERTEX
  8
praia
 10
-9.327812
 20
38.676019
  0
VERTEX
  8
praia
 10
-9.327822
 20
38.676012
  0
VERTEX
  8
praia
 10
-9.327828
 20
38.676009
  0
VERTEX
  8
praia
 10
-9.327843
 20
38.675997
  0
VERTEX
  8
praia
 10
-9.327860
 20
38.675983
  0
VERTEX
  8
praia
 10
-9.327866
 20
38.675976
  0
VERTEX
  8
praia
 10
-9.327873
 20
38.675952
  0
VERTEX
  8
praia
 10
-9.327883
 20
38.675925
  0
VERTEX
  8
praia
 10
-9.327895
 20
38.675901
  0
VERTEX
  8
praia
 10
-9.327909
 20
38.675881
  0
VERTEX
  8
praia
 10
-9.327928
 20
38.675865
  0
VERTEX
  8
praia
 10
-9.327945
 20
38.675853
  0
VERTEX
  8
praia
 10
-9.327962
 20
38.675835
  0
VERTEX
  8
praia
 10
-9.327975
 20
38.675821
  0
VERTEX
  8
praia
 10
-9.327991
 20
38.675812
  0
VERTEX
  8
praia
 10
-9.328018
 20
38.675810
  0
VERTEX
  8
praia
 10
-9.328044
 20
38.675814
  0
VERTEX
  8
praia
 10
-9.328064
 20
38.675823
  0
VERTEX
  8
praia
 10
-9.328074
 20
38.675832
  0
VERTEX
  8
praia
 10
-9.328080
 20
38.675851
  0
VERTEX
  8
praia
 10
-9.328087
 20
38.675867
  0
VERTEX
  8
praia
 10
-9.328090
 20
38.675874
  0
VERTEX
  8
praia
 10
-9.328093
 20
38.675898
  0
VERTEX
  8
praia
 10
-9.328094
 20
38.675912
  0
VERTEX
  8
praia
 10
-9.328095
 20
38.675916
  0
VERTEX
  8
praia
 10
-9.328105
 20
38.675929
  0
VERTEX
  8
praia
 10
-9.328118
 20
38.675948
  0
VERTEX
  8
praia
 10
-9.328131
 20
38.675969
  0
VERTEX
  8
praia
 10
-9.328146
 20
38.675991
  0
VERTEX
  8
praia
 10
-9.328158
 20
38.676015
  0
VERTEX
  8
praia
 10
-9.328168
 20
38.676042
  0
VERTEX
  8
praia
 10
-9.328179
 20
38.676074
  0
VERTEX
  8
praia
 10
-9.328188
 20
38.676106
  0
VERTEX
  8
praia
 10
-9.328198
 20
38.676135
  0
VERTEX
  8
praia
 10
-9.328208
 20
38.676161
  0
VERTEX
  8
praia
 10
-9.328220
 20
38.676184
  0
VERTEX
  8
praia
 10
-9.328232
 20
38.676208
  0
VERTEX
  8
praia
 10
-9.328257
 20
38.676245
  0
VERTEX
  8
praia
 10
-9.328279
 20
38.676259
  0
VERTEX
  8
praia
 10
-9.328287
 20
38.676262
  0
VERTEX
  8
praia
 10
-9.328300
 20
38.676266
  0
VERTEX
  8
praia
 10
-9.328318
 20
38.676263
  0
VERTEX
  8
praia
 10
-9.328335
 20
38.676257
  0
VERTEX
  8
praia
 10
-9.328351
 20
38.676254
  0
VERTEX
  8
praia
 10
-9.328362
 20
38.676250
  0
VERTEX
  8
praia
 10
-9.328383
 20
38.676239
  0
VERTEX
  8
praia
 10
-9.328399
 20
38.676231
  0
VERTEX
  8
praia
 10
-9.328418
 20
38.676223
  0
VERTEX
  8
praia
 10
-9.328438
 20
38.676217
  0
VERTEX
  8
praia
 10
-9.328473
 20
38.676201
  0
VERTEX
  8
praia
 10
-9.328494
 20
38.676189
  0
VERTEX
  8
praia
 10
-9.328506
 20
38.676180
  0
VERTEX
  8
praia
 10
-9.328514
 20
38.676171
  0
VERTEX
  8
praia
 10
-9.328532
 20
38.676158
  0
VERTEX
  8
praia
 10
-9.328557
 20
38.676147
  0
VERTEX
  8
praia
 10
-9.328583
 20
38.676138
  0
VERTEX
  8
praia
 10
-9.328615
 20
38.676133
  0
VERTEX
  8
praia
 10
-9.328649
 20
38.676136
  0
VERTEX
  8
praia
 10
-9.328678
 20
38.676148
  0
VERTEX
  8
praia
 10
-9.328703
 20
38.676169
  0
VERTEX
  8
praia
 10
-9.328723
 20
38.676194
  0
VERTEX
  8
praia
 10
-9.328739
 20
38.676218
  0
VERTEX
  8
praia
 10
-9.328753
 20
38.676240
  0
VERTEX
  8
praia
 10
-9.328764
 20
38.676261
  0
VERTEX
  8
praia
 10
-9.328778
 20
38.676280
  0
VERTEX
  8
praia
 10
-9.328785
 20
38.676294
  0
VERTEX
  8
praia
 10
-9.328800
 20
38.676303
  0
VERTEX
  8
praia
 10
-9.328827
 20
38.676329
  0
VERTEX
  8
praia
 10
-9.328852
 20
38.676352
  0
VERTEX
  8
praia
 10
-9.328884
 20
38.676368
  0
VERTEX
  8
praia
 10
-9.328923
 20
38.676400
  0
VERTEX
  8
praia
 10
-9.328944
 20
38.676421
  0
VERTEX
  8
praia
 10
-9.328948
 20
38.676435
  0
VERTEX
  8
praia
 10
-9.328949
 20
38.676437
  0
VERTEX
  8
praia
 10
-9.328953
 20
38.676448
  0
VERTEX
  8
praia
 10
-9.328955
 20
38.676453
  0
VERTEX
  8
praia
 10
-9.328960
 20
38.676469
  0
VERTEX
  8
praia
 10
-9.328975
 20
38.676493
  0
VERTEX
  8
praia
 10
-9.328976
 20
38.676507
  0
VERTEX
  8
praia
 10
-9.328981
 20
38.676514
  0
VERTEX
  8
praia
 10
-9.328999
 20
38.676517
  0
VERTEX
  8
praia
 10
-9.329014
 20
38.676516
  0
VERTEX
  8
praia
 10
-9.329039
 20
38.676501
  0
VERTEX
  8
praia
 10
-9.329054
 20
38.676488
  0
VERTEX
  8
praia
 10
-9.329077
 20
38.676473
  0
VERTEX
  8
praia
 10
-9.329103
 20
38.676455
  0
VERTEX
  8
praia
 10
-9.329141
 20
38.676425
  0
VERTEX
  8
praia
 10
-9.329184
 20
38.676394
  0
VERTEX
  8
praia
 10
-9.329214
 20
38.676380
  0
VERTEX
  8
praia
 10
-9.329237
 20
38.676384
  0
VERTEX
  8
praia
 10
-9.329249
 20
38.676394
  0
VERTEX
  8
praia
 10
-9.329251
 20
38.676415
  0
VERTEX
  8
praia
 10
-9.329243
 20
38.676445
  0
VERTEX
  8
praia
 10
-9.329234
 20
38.676467
  0
VERTEX
  8
praia
 10
-9.329222
 20
38.676488
  0
VERTEX
  8
praia
 10
-9.329201
 20
38.676524
  0
VERTEX
  8
praia
 10
-9.329193
 20
38.676538
  0
VERTEX
  8
praia
 10
-9.329186
 20
38.676562
  0
VERTEX
  8
praia
 10
-9.329181
 20
38.676592
  0
VERTEX
  8
praia
 10
-9.329182
 20
38.676624
  0
VERTEX
  8
praia
 10
-9.329182
 20
38.676655
  0
VERTEX
  8
praia
 10
-9.329183
 20
38.676678
  0
VERTEX
  8
praia
 10
-9.329194
 20
38.676690
  0
VERTEX
  8
praia
 10
-9.329225
 20
38.676708
  0
VERTEX
  8
praia
 10
-9.329266
 20
38.676727
  0
VERTEX
  8
praia
 10
-9.329305
 20
38.676744
  0
VERTEX
  8
praia
 10
-9.329307
 20
38.676745
  0
VERTEX
  8
praia
 10
-9.329345
 20
38.676758
  0
VERTEX
  8
praia
 10
-9.329363
 20
38.676765
  0
VERTEX
  8
praia
 10
-9.329389
 20
38.676764
  0
VERTEX
  8
praia
 10
-9.329397
 20
38.676761
  0
VERTEX
  8
praia
 10
-9.329406
 20
38.676747
  0
VERTEX
  8
praia
 10
-9.329414
 20
38.676716
  0
VERTEX
  8
praia
 10
-9.329417
 20
38.676684
  0
VERTEX
  8
praia
 10
-9.329420
 20
38.676649
  0
VERTEX
  8
praia
 10
-9.329429
 20
38.676629
  0
VERTEX
  8
praia
 10
-9.329448
 20
38.676606
  0
VERTEX
  8
praia
 10
-9.329476
 20
38.676599
  0
VERTEX
  8
praia
 10
-9.329484
 20
38.676599
  0
VERTEX
  8
praia
 10
-9.329487
 20
38.676598
  0
VERTEX
  8
praia
 10
-9.329529
 20
38.676596
  0
VERTEX
  8
praia
 10
-9.329539
 20
38.676599
  0
VERTEX
  8
praia
 10
-9.329545
 20
38.676600
  0
VERTEX
  8
praia
 10
-9.329562
 20
38.676605
  0
VERTEX
  8
praia
 10
-9.329586
 20
38.676626
  0
VERTEX
  8
praia
 10
-9.329602
 20
38.676655
  0
VERTEX
  8
praia
 10
-9.329610
 20
38.676687
  0
VERTEX
  8
praia
 10
-9.329611
 20
38.676720
  0
VERTEX
  8
praia
 10
-9.329603
 20
38.676747
  0
VERTEX
  8
praia
 10
-9.329590
 20
38.676761
  0
VERTEX
  8
praia
 10
-9.329560
 20
38.676785
  0
VERTEX
  8
praia
 10
-9.329507
 20
38.676816
  0
VERTEX
  8
praia
 10
-9.329506
 20
38.676831
  0
VERTEX
  8
praia
 10
-9.329518
 20
38.676841
  0
VERTEX
  8
praia
 10
-9.329534
 20
38.676849
  0
VERTEX
  8
praia
 10
-9.329594
 20
38.676874
  0
VERTEX
  8
praia
 10
-9.329623
 20
38.676884
  0
VERTEX
  8
praia
 10
-9.329625
 20
38.676887
  0
VERTEX
  8
praia
 10
-9.329626
 20
38.676887
  0
VERTEX
  8
praia
 10
-9.329660
 20
38.676903
  0
VERTEX
  8
praia
 10
-9.329688
 20
38.676921
  0
VERTEX
  8
praia
 10
-9.329716
 20
38.676944
  0
VERTEX
  8
praia
 10
-9.329731
 20
38.676959
  0
VERTEX
  8
praia
 10
-9.329741
 20
38.676969
  0
VERTEX
  8
praia
 10
-9.329762
 20
38.676990
  0
VERTEX
  8
praia
 10
-9.329805
 20
38.677026
  0
VERTEX
  8
praia
 10
-9.329855
 20
38.677066
  0
VERTEX
  8
praia
 10
-9.329883
 20
38.677089
  0
VERTEX
  8
praia
 10
-9.329913
 20
38.677114
  0
VERTEX
  8
praia
 10
-9.329943
 20
38.677137
  0
VERTEX
  8
praia
 10
-9.329969
 20
38.677153
  0
VERTEX
  8
praia
 10
-9.329994
 20
38.677165
  0
VERTEX
  8
praia
 10
-9.330027
 20
38.677179
  0
VERTEX
  8
praia
 10
-9.330037
 20
38.677180
  0
VERTEX
  8
praia
 10
-9.330042
 20
38.677184
  0
VERTEX
  8
praia
 10
-9.330069
 20
38.677195
  0
VERTEX
  8
praia
 10
-9.330112
 20
38.677209
  0
VERTEX
  8
praia
 10
-9.330155
 20
38.677221
  0
VERTEX
  8
praia
 10
-9.330199
 20
38.677231
  0
VERTEX
  8
praia
 10
-9.330245
 20
38.677243
  0
VERTEX
  8
praia
 10
-9.330290
 20
38.677258
  0
VERTEX
  8
praia
 10
-9.330373
 20
38.677288
  0
VERTEX
  8
praia
 10
-9.330415
 20
38.677301
  0
VERTEX
  8
praia
 10
-9.330457
 20
38.677313
  0
VERTEX
  8
praia
 10
-9.330500
 20
38.677326
  0
VERTEX
  8
praia
 10
-9.330541
 20
38.677339
  0
VERTEX
  8
praia
 10
-9.330580
 20
38.677353
  0
VERTEX
  8
praia
 10
-9.330622
 20
38.677366
  0
VERTEX
  8
praia
 10
-9.330666
 20
38.677375
  0
VERTEX
  8
praia
 10
-9.330708
 20
38.677381
  0
VERTEX
  8
praia
 10
-9.330745
 20
38.677388
  0
VERTEX
  8
praia
 10
-9.330781
 20
38.677392
  0
VERTEX
  8
praia
 10
-9.330811
 20
38.677392
  0
VERTEX
  8
praia
 10
-9.330833
 20
38.677392
  0
VERTEX
  8
praia
 10
-9.330847
 20
38.677390
  0
VERTEX
  8
praia
 10
-9.330867
 20
38.677390
  0
VERTEX
  8
praia
 10
-9.330902
 20
38.677397
  0
VERTEX
  8
praia
 10
-9.330942
 20
38.677406
  0
VERTEX
  8
praia
 10
-9.330978
 20
38.677416
  0
VERTEX
  8
praia
 10
-9.331017
 20
38.677425
  0
VERTEX
  8
praia
 10
-9.331056
 20
38.677436
  0
VERTEX
  8
praia
 10
-9.331135
 20
38.677461
  0
VERTEX
  8
praia
 10
-9.331175
 20
38.677471
  0
VERTEX
  8
praia
 10
-9.331213
 20
38.677483
  0
VERTEX
  8
praia
 10
-9.331253
 20
38.677495
  0
VERTEX
  8
praia
 10
-9.331335
 20
38.677506
  0
VERTEX
  8
praia
 10
-9.331415
 20
38.677511
  0
VERTEX
  8
praia
 10
-9.331483
 20
38.677520
  0
VERTEX
  8
praia
 10
-9.331518
 20
38.677517
  0
VERTEX
  8
praia
 10
-9.331563
 20
38.677515
  0
VERTEX
  8
praia
 10
-9.331616
 20
38.677505
  0
VERTEX
  8
praia
 10
-9.331641
 20
38.677509
  0
VERTEX
  8
praia
 10
-9.331714
 20
38.677518
  0
VERTEX
  8
praia
 10
-9.331753
 20
38.677524
  0
VERTEX
  8
praia
 10
-9.331827
 20
38.677536
  0
VERTEX
  8
praia
 10
-9.331896
 20
38.677544
  0
VERTEX
  8
praia
 10
-9.332001
 20
38.677564
  0
VERTEX
  8
praia
 10
-9.332098
 20
38.677586
  0
VERTEX
  8
praia
 10
-9.332218
 20
38.677620
  0
VERTEX
  8
praia
 10
-9.332358
 20
38.677656
  0
VERTEX
  8
praia
 10
-9.332437
 20
38.677688
  0
VERTEX
  8
praia
 10
-9.332521
 20
38.677716
  0
VERTEX
  8
praia
 10
-9.332647
 20
38.677759
  0
VERTEX
  8
praia
 10
-9.332726
 20
38.677787
  0
VERTEX
  8
praia
 10
-9.332775
 20
38.677804
  0
VERTEX
  8
praia
 10
-9.332854
 20
38.677827
  0
VERTEX
  8
praia
 10
-9.332946
 20
38.677854
  0
VERTEX
  8
praia
 10
-9.332986
 20
38.677867
  0
VERTEX
  8
praia
 10
-9.333055
 20
38.677896
  0
VERTEX
  8
praia
 10
-9.333089
 20
38.677919
  0
VERTEX
  8
praia
 10
-9.333125
 20
38.677940
  0
VERTEX
  8
praia
 10
-9.333168
 20
38.677964
  0
VERTEX
  8
praia
 10
-9.333224
 20
38.677993
  0
VERTEX
  8
praia
 10
-9.333272
 20
38.678010
  0
VERTEX
  8
praia
 10
-9.333336
 20
38.678043
  0
VERTEX
  8
praia
 10
-9.333409
 20
38.678082
  0
VERTEX
  8
praia
 10
-9.333446
 20
38.678101
  0
VERTEX
  8
praia
 10
-9.333478
 20
38.678122
  0
VERTEX
  8
praia
 10
-9.333560
 20
38.678162
  0
VERTEX
  8
praia
 10
-9.333594
 20
38.678181
  0
VERTEX
  8
praia
 10
-9.333652
 20
38.678221
  0
VERTEX
  8
praia
 10
-9.333689
 20
38.678245
  0
VERTEX
  8
praia
 10
-9.333722
 20
38.678263
  0
VERTEX
  8
praia
 10
-9.333764
 20
38.678279
  0
VERTEX
  8
praia
 10
-9.333849
 20
38.678305
  0
VERTEX
  8
praia
 10
-9.333891
 20
38.678315
  0
VERTEX
  8
praia
 10
-9.333974
 20
38.678342
  0
VERTEX
  8
praia
 10
-9.334012
 20
38.678358
  0
VERTEX
  8
praia
 10
-9.334117
 20
38.678397
  0
VERTEX
  8
praia
 10
-9.334201
 20
38.678432
  0
VERTEX
  8
praia
 10
-9.334272
 20
38.678465
  0
VERTEX
  8
praia
 10
-9.334338
 20
38.678490
  0
VERTEX
  8
praia
 10
-9.334377
 20
38.678504
  0
VERTEX
  8
praia
 10
-9.334417
 20
38.678519
  0
VERTEX
  8
praia
 10
-9.334465
 20
38.678532
  0
VERTEX
  8
praia
 10
-9.334509
 20
38.678539
  0
VERTEX
  8
praia
 10
-9.334552
 20
38.678546
  0
VERTEX
  8
praia
 10
-9.334604
 20
38.678555
  0
VERTEX
  8
praia
 10
-9.334650
 20
38.678561
  0
VERTEX
  8
praia
 10
-9.334720
 20
38.678570
  0
VERTEX
  8
praia
 10
-9.334769
 20
38.678579
  0
VERTEX
  8
praia
 10
-9.334851
 20
38.678594
  0
VERTEX
  8
praia
 10
-9.334900
 20
38.678604
  0
VERTEX
  8
praia
 10
-9.334941
 20
38.678614
  0
VERTEX
  8
praia
 10
-9.334982
 20
38.678625
  0
SEQEND
  0
POINT
  8
praia
  6
BYLAYER
 10
-9.331443
 20
38.677880
 50
0.587735
  0
ENDSEC
  0
EOF
