  0
SECTION
  2
HEADER
  9
$LTSCALE
 40
1.000000
  9
$LUNITS
 70
2
  9
$LUPREC
 70
4
  9
$AUNITS
 70
1
  9
$AUPREC
 70
4
  9
$FILLMODE
 70
1
  0
ENDSEC
  0
SECTION
  2
TABLES
  0
TABLE
  2
VPORT
 70
0
  0
ENDTAB
  0
TABLE
  2
LTYPE
 70
1
  0
LTYPE
  2
CONTINUOUS
 70
64
  3
Solid line
 72
65
 73
0
 40
0.000000
  0
ENDTAB
  0
TABLE
  2
LAYER
 70
1
  0
LAYER
  2
0
 62
1
  6
CONTINUOUS
 70
64
  0
ENDTAB
  0
TABLE
  2
STYLE
 70
1
  0
STYLE
  2
STANDARD
 70
64
 40
0.000000
 41
1.000000
 50
0.000000
 71
0
 42
2.000000
  3
txt
  4

  0
ENDTAB
  0
TABLE
  2
VIEW
 70
0
  0
ENDTAB
  0
TABLE
  2
UCS
 70
0
  0
ENDTAB
  0
TABLE
  2
APPID
 70
0
  0
ENDTAB
  0
TABLE
  2
DIMSTYLE
 70
1
  0
DIMSTYLE
  2
STANDARD
 70
0
  3

  4

  5

  6

  7

 40
1.000000
 41
3.000000
 42
2.500000
 43
10.000000
 44
2.500000
 45
0.000000
 46
1.250000
 47
0.000000
 48
0.000000
140
3.000000
141
-3.000000
142
0.000000
143
0.039000
144
1.000000
145
1.500000
146
0.750000
147
1.500000
 71
0
 72
0
 73
0
 74
0
 75
0
 76
0
 77
0
 78
0
170
0
171
0
172
0
173
0
174
0
175
0
176
0
177
0
178
0
  0
ENDTAB
  0
ENDSEC
  0
SECTION
  2
ENTITIES
  0
POLYLINE
  8
equipamento_cultural
  6
BYLAYER
 66
1
 70
1
 40
0.000000
 41
0.000000
  0
VERTEX
  8
equipamento_cultural
 10
-9.386508
 20
38.737067
  0
VERTEX
  8
equipamento_cultural
 10
-9.386077
 20
38.737089
  0
VERTEX
  8
equipamento_cultural
 10
-9.386060
 20
38.736877
  0
VERTEX
  8
equipamento_cultural
 10
-9.386490
 20
38.736855
  0
VERTEX
  8
equipamento_cultural
 10
-9.386508
 20
38.737067
  0
SEQEND
  0
POINT
  8
equipamento_cultural
  6
BYLAYER
 10
-9.386284
 20
38.736972
 50
0.000000
  0
POLYLINE
  8
equipamento_cultural
  6
BYLAYER
 66
1
 70
1
 40
0.000000
 41
0.000000
  0
VERTEX
  8
equipamento_cultural
 10
-9.394730
 20
38.704116
  0
VERTEX
  8
equipamento_cultural
 10
-9.394725
 20
38.704261
  0
VERTEX
  8
equipamento_cultural
 10
-9.394710
 20
38.704439
  0
VERTEX
  8
equipamento_cultural
 10
-9.394707
 20
38.704496
  0
VERTEX
  8
equipamento_cultural
 10
-9.394652
 20
38.704498
  0
VERTEX
  8
equipamento_cultural
 10
-9.394622
 20
38.704471
  0
VERTEX
  8
equipamento_cultural
 10
-9.394541
 20
38.704517
  0
VERTEX
  8
equipamento_cultural
 10
-9.394526
 20
38.704499
  0
VERTEX
  8
equipamento_cultural
 10
-9.394475
 20
38.704523
  0
VERTEX
  8
equipamento_cultural
 10
-9.394439
 20
38.704487
  0
VERTEX
  8
equipamento_cultural
 10
-9.394361
 20
38.704482
  0
VERTEX
  8
equipamento_cultural
 10
-9.394356
 20
38.704472
  0
VERTEX
  8
equipamento_cultural
 10
-9.394313
 20
38.704470
  0
VERTEX
  8
equipamento_cultural
 10
-9.394306
 20
38.704467
  0
VERTEX
  8
equipamento_cultural
 10
-9.394312
 20
38.704381
  0
VERTEX
  8
equipamento_cultural
 10
-9.394329
 20
38.704125
  0
VERTEX
  8
equipamento_cultural
 10
-9.394340
 20
38.704128
  0
VERTEX
  8
equipamento_cultural
 10
-9.394730
 20
38.704116
  0
SEQEND
  0
POINT
  8
equipamento_cultural
  6
BYLAYER
 10
-9.394521
 20
38.704307
 50
0.000000
  0
POLYLINE
  8
equipamento_cultural
  6
BYLAYER
 66
1
 70
1
 40
0.000000
 41
0.000000
  0
VERTEX
  8
equipamento_cultural
 10
-9.384879
 20
38.707613
  0
VERTEX
  8
equipamento_cultural
 10
-9.384783
 20
38.707822
  0
VERTEX
  8
equipamento_cultural
 10
-9.384754
 20
38.707892
  0
VERTEX
  8
equipamento_cultural
 10
-9.384543
 20
38.707818
  0
VERTEX
  8
equipamento_cultural
 10
-9.384684
 20
38.707550
  0
VERTEX
  8
equipamento_cultural
 10
-9.384817
 20
38.707591
  0
VERTEX
  8
equipamento_cultural
 10
-9.384879
 20
38.707613
  0
SEQEND
  0
POINT
  8
equipamento_cultural
  6
BYLAYER
 10
-9.384714
 20
38.707720
 50
0.000000
  0
POLYLINE
  8
equipamento_cultural
  6
BYLAYER
 66
1
 70
1
 40
0.000000
 41
0.000000
  0
VERTEX
  8
equipamento_cultural
 10
-9.327965
 20
38.700009
  0
VERTEX
  8
equipamento_cultural
 10
-9.327902
 20
38.700005
  0
VERTEX
  8
equipamento_cultural
 10
-9.327737
 20
38.699991
  0
VERTEX
  8
equipamento_cultural
 10
-9.327725
 20
38.699953
  0
VERTEX
  8
equipamento_cultural
 10
-9.327750
 20
38.699693
  0
VERTEX
  8
equipamento_cultural
 10
-9.327978
 20
38.699712
  0
VERTEX
  8
equipamento_cultural
 10
-9.327973
 20
38.699766
  0
VERTEX
  8
equipamento_cultural
 10
-9.327946
 20
38.699944
  0
VERTEX
  8
equipamento_cultural
 10
-9.327970
 20
38.699965
  0
VERTEX
  8
equipamento_cultural
 10
-9.327965
 20
38.700009
  0
SEQEND
  0
POINT
  8
equipamento_cultural
  6
BYLAYER
 10
-9.327850
 20
38.699851
 50
0.000000
  0
POLYLINE
  8
equipamento_cultural
  6
BYLAYER
 66
1
 70
1
 40
0.000000
 41
0.000000
  0
VERTEX
  8
equipamento_cultural
 10
-9.409117
 20
38.707320
  0
VERTEX
  8
equipamento_cultural
 10
-9.409156
 20
38.707303
  0
VERTEX
  8
equipamento_cultural
 10
-9.409195
 20
38.707307
  0
VERTEX
  8
equipamento_cultural
 10
-9.409309
 20
38.707360
  0
VERTEX
  8
equipamento_cultural
 10
-9.409355
 20
38.707404
  0
VERTEX
  8
equipamento_cultural
 10
-9.409409
 20
38.707595
  0
VERTEX
  8
equipamento_cultural
 10
-9.409138
 20
38.707631
  0
VERTEX
  8
equipamento_cultural
 10
-9.409117
 20
38.707458
  0
VERTEX
  8
equipamento_cultural
 10
-9.409117
 20
38.707320
  0
SEQEND
  0
POINT
  8
equipamento_cultural
  6
BYLAYER
 10
-9.409241
 20
38.707477
 50
0.000000
  0
POLYLINE
  8
equipamento_cultural
  6
BYLAYER
 66
1
 70
1
 40
0.000000
 41
0.000000
  0
VERTEX
  8
equipamento_cultural
 10
-9.413041
 20
38.703046
  0
VERTEX
  8
equipamento_cultural
 10
-9.413039
 20
38.703052
  0
VERTEX
  8
equipamento_cultural
 10
-9.412981
 20
38.703220
  0
VERTEX
  8
equipamento_cultural
 10
-9.412790
 20
38.703180
  0
VERTEX
  8
equipamento_cultural
 10
-9.412809
 20
38.703124
  0
VERTEX
  8
equipamento_cultural
 10
-9.412849
 20
38.703006
  0
VERTEX
  8
equipamento_cultural
 10
-9.412859
 20
38.703008
  0
VERTEX
  8
equipamento_cultural
 10
-9.413040
 20
38.703046
  0
VERTEX
  8
equipamento_cultural
 10
-9.413041
 20
38.703046
  0
SEQEND
  0
POINT
  8
equipamento_cultural
  6
BYLAYER
 10
-9.412915
 20
38.703113
 50
0.000000
  0
POLYLINE
  8
equipamento_cultural
  6
BYLAYER
 66
1
 70
1
 40
0.000000
 41
0.000000
  0
VERTEX
  8
equipamento_cultural
 10
-9.386231
 20
38.710509
  0
VERTEX
  8
equipamento_cultural
 10
-9.386220
 20
38.710439
  0
VERTEX
  8
equipamento_cultural
 10
-9.386237
 20
38.710244
  0
VERTEX
  8
equipamento_cultural
 10
-9.386301
 20
38.709954
  0
VERTEX
  8
equipamento_cultural
 10
-9.386372
 20
38.709738
  0
VERTEX
  8
equipamento_cultural
 10
-9.386440
 20
38.709613
  0
VERTEX
  8
equipamento_cultural
 10
-9.386503
 20
38.709526
  0
VERTEX
  8
equipamento_cultural
 10
-9.386602
 20
38.709466
  0
VERTEX
  8
equipamento_cultural
 10
-9.386716
 20
38.709446
  0
VERTEX
  8
equipamento_cultural
 10
-9.386801
 20
38.709460
  0
VERTEX
  8
equipamento_cultural
 10
-9.386911
 20
38.709475
  0
VERTEX
  8
equipamento_cultural
 10
-9.387016
 20
38.709466
  0
VERTEX
  8
equipamento_cultural
 10
-9.387145
 20
38.709425
  0
VERTEX
  8
equipamento_cultural
 10
-9.387140
 20
38.709464
  0
VERTEX
  8
equipamento_cultural
 10
-9.388153
 20
38.709762
  0
VERTEX
  8
equipamento_cultural
 10
-9.387833
 20
38.710547
  0
VERTEX
  8
equipamento_cultural
 10
-9.386231
 20
38.710509
  0
SEQEND
  0
POINT
  8
equipamento_cultural
  6
BYLAYER
 10
-9.387129
 20
38.710032
 50
0.000000
  0
POLYLINE
  8
equipamento_cultural
  6
BYLAYER
 66
1
 70
1
 40
0.000000
 41
0.000000
  0
VERTEX
  8
equipamento_cultural
 10
-9.421858
 20
38.693047
  0
VERTEX
  8
equipamento_cultural
 10
-9.421856
 20
38.693043
  0
VERTEX
  8
equipamento_cultural
 10
-9.421837
 20
38.692996
  0
VERTEX
  8
equipamento_cultural
 10
-9.421836
 20
38.692994
  0
VERTEX
  8
equipamento_cultural
 10
-9.421848
 20
38.692991
  0
VERTEX
  8
equipamento_cultural
 10
-9.421862
 20
38.692987
  0
VERTEX
  8
equipamento_cultural
 10
-9.422094
 20
38.692926
  0
VERTEX
  8
equipamento_cultural
 10
-9.422118
 20
38.692985
  0
VERTEX
  8
equipamento_cultural
 10
-9.421859
 20
38.693051
  0
VERTEX
  8
equipamento_cultural
 10
-9.421858
 20
38.693047
  0
SEQEND
  0
POINT
  8
equipamento_cultural
  6
BYLAYER
 10
-9.421978
 20
38.692989
 50
0.000000
  0
POLYLINE
  8
equipamento_cultural
  6
BYLAYER
 66
1
 70
1
 40
0.000000
 41
0.000000
  0
VERTEX
  8
equipamento_cultural
 10
-9.421124
 20
38.701410
  0
VERTEX
  8
equipamento_cultural
 10
-9.421117
 20
38.701420
  0
VERTEX
  8
equipamento_cultural
 10
-9.421063
 20
38.701495
  0
VERTEX
  8
equipamento_cultural
 10
-9.421057
 20
38.701497
  0
VERTEX
  8
equipamento_cultural
 10
-9.421031
 20
38.701504
  0
VERTEX
  8
equipamento_cultural
 10
-9.420988
 20
38.701515
  0
VERTEX
  8
equipamento_cultural
 10
-9.420771
 20
38.701575
  0
VERTEX
  8
equipamento_cultural
 10
-9.420759
 20
38.701552
  0
VERTEX
  8
equipamento_cultural
 10
-9.420736
 20
38.701512
  0
VERTEX
  8
equipamento_cultural
 10
-9.420647
 20
38.701354
  0
VERTEX
  8
equipamento_cultural
 10
-9.420632
 20
38.701357
  0
VERTEX
  8
equipamento_cultural
 10
-9.420556
 20
38.701293
  0
VERTEX
  8
equipamento_cultural
 10
-9.420674
 20
38.701197
  0
VERTEX
  8
equipamento_cultural
 10
-9.420703
 20
38.701175
  0
VERTEX
  8
equipamento_cultural
 10
-9.420740
 20
38.701136
  0
VERTEX
  8
equipamento_cultural
 10
-9.420800
 20
38.701212
  0
VERTEX
  8
equipamento_cultural
 10
-9.421032
 20
38.701360
  0
VERTEX
  8
equipamento_cultural
 10
-9.421068
 20
38.701387
  0
VERTEX
  8
equipamento_cultural
 10
-9.421124
 20
38.701410
  0
SEQEND
  0
POINT
  8
equipamento_cultural
  6
BYLAYER
 10
-9.420829
 20
38.701375
 50
0.000000
  0
POLYLINE
  8
equipamento_cultural
  6
BYLAYER
 66
1
 70
1
 40
0.000000
 41
0.000000
  0
VERTEX
  8
equipamento_cultural
 10
-9.343664
 20
38.719436
  0
VERTEX
  8
equipamento_cultural
 10
-9.343183
 20
38.719572
  0
VERTEX
  8
equipamento_cultural
 10
-9.342979
 20
38.719625
  0
VERTEX
  8
equipamento_cultural
 10
-9.342915
 20
38.719499
  0
VERTEX
  8
equipamento_cultural
 10
-9.342893
 20
38.719455
  0
VERTEX
  8
equipamento_cultural
 10
-9.342902
 20
38.719452
  0
VERTEX
  8
equipamento_cultural
 10
-9.342875
 20
38.719397
  0
VERTEX
  8
equipamento_cultural
 10
-9.342865
 20
38.719400
  0
VERTEX
  8
equipamento_cultural
 10
-9.342836
 20
38.719342
  0
VERTEX
  8
equipamento_cultural
 10
-9.342808
 20
38.719351
  0
VERTEX
  8
equipamento_cultural
 10
-9.342788
 20
38.719308
  0
VERTEX
  8
equipamento_cultural
 10
-9.342650
 20
38.719037
  0
VERTEX
  8
equipamento_cultural
 10
-9.342639
 20
38.719015
  0
VERTEX
  8
equipamento_cultural
 10
-9.342704
 20
38.719002
  0
VERTEX
  8
equipamento_cultural
 10
-9.342838
 20
38.718964
  0
VERTEX
  8
equipamento_cultural
 10
-9.342848
 20
38.718984
  0
VERTEX
  8
equipamento_cultural
 10
-9.342906
 20
38.718968
  0
VERTEX
  8
equipamento_cultural
 10
-9.342952
 20
38.718956
  0
VERTEX
  8
equipamento_cultural
 10
-9.342975
 20
38.718949
  0
VERTEX
  8
equipamento_cultural
 10
-9.343025
 20
38.718937
  0
VERTEX
  8
equipamento_cultural
 10
-9.343329
 20
38.718852
  0
VERTEX
  8
equipamento_cultural
 10
-9.343538
 20
38.718794
  0
VERTEX
  8
equipamento_cultural
 10
-9.343664
 20
38.719436
  0
SEQEND
  0
POINT
  8
equipamento_cultural
  6
BYLAYER
 10
-9.343199
 20
38.719208
 50
0.000000
  0
POLYLINE
  8
equipamento_cultural
  6
BYLAYER
 66
1
 70
1
 40
0.000000
 41
0.000000
  0
VERTEX
  8
equipamento_cultural
 10
-9.424413
 20
38.695244
  0
VERTEX
  8
equipamento_cultural
 10
-9.424353
 20
38.695255
  0
VERTEX
  8
equipamento_cultural
 10
-9.424406
 20
38.695421
  0
VERTEX
  8
equipamento_cultural
 10
-9.424454
 20
38.695443
  0
VERTEX
  8
equipamento_cultural
 10
-9.424423
 20
38.695487
  0
VERTEX
  8
equipamento_cultural
 10
-9.424371
 20
38.695460
  0
VERTEX
  8
equipamento_cultural
 10
-9.424314
 20
38.695474
  0
VERTEX
  8
equipamento_cultural
 10
-9.424302
 20
38.695430
  0
VERTEX
  8
equipamento_cultural
 10
-9.424057
 20
38.695483
  0
VERTEX
  8
equipamento_cultural
 10
-9.424059
 20
38.695488
  0
VERTEX
  8
equipamento_cultural
 10
-9.423975
 20
38.695508
  0
VERTEX
  8
equipamento_cultural
 10
-9.423925
 20
38.695350
  0
VERTEX
  8
equipamento_cultural
 10
-9.423896
 20
38.695355
  0
VERTEX
  8
equipamento_cultural
 10
-9.423833
 20
38.695157
  0
VERTEX
  8
equipamento_cultural
 10
-9.423797
 20
38.695042
  0
VERTEX
  8
equipamento_cultural
 10
-9.424122
 20
38.694979
  0
VERTEX
  8
equipamento_cultural
 10
-9.424126
 20
38.694973
  0
VERTEX
  8
equipamento_cultural
 10
-9.424151
 20
38.694941
  0
VERTEX
  8
equipamento_cultural
 10
-9.424199
 20
38.694964
  0
VERTEX
  8
equipamento_cultural
 10
-9.424317
 20
38.694933
  0
VERTEX
  8
equipamento_cultural
 10
-9.424349
 20
38.695036
  0
VERTEX
  8
equipamento_cultural
 10
-9.424320
 20
38.695042
  0
VERTEX
  8
equipamento_cultural
 10
-9.424324
 20
38.695055
  0
VERTEX
  8
equipamento_cultural
 10
-9.424348
 20
38.695050
  0
VERTEX
  8
equipamento_cultural
 10
-9.424376
 20
38.695140
  0
VERTEX
  8
equipamento_cultural
 10
-9.424413
 20
38.695244
  0
SEQEND
  0
POINT
  8
equipamento_cultural
  6
BYLAYER
 10
-9.424128
 20
38.695219
 50
0.000000
  0
POLYLINE
  8
equipamento_cultural
  6
BYLAYER
 66
1
 70
1
 40
0.000000
 41
0.000000
  0
VERTEX
  8
equipamento_cultural
 10
-9.421481
 20
38.691282
  0
VERTEX
  8
equipamento_cultural
 10
-9.421439
 20
38.691296
  0
VERTEX
  8
equipamento_cultural
 10
-9.421392
 20
38.691313
  0
VERTEX
  8
equipamento_cultural
 10
-9.421324
 20
38.691195
  0
VERTEX
  8
equipamento_cultural
 10
-9.421310
 20
38.691110
  0
VERTEX
  8
equipamento_cultural
 10
-9.421263
 20
38.691114
  0
VERTEX
  8
equipamento_cultural
 10
-9.421255
 20
38.691054
  0
VERTEX
  8
equipamento_cultural
 10
-9.421254
 20
38.691050
  0
VERTEX
  8
equipamento_cultural
 10
-9.421285
 20
38.691048
  0
VERTEX
  8
equipamento_cultural
 10
-9.421269
 20
38.690929
  0
VERTEX
  8
equipamento_cultural
 10
-9.421251
 20
38.690929
  0
VERTEX
  8
equipamento_cultural
 10
-9.421245
 20
38.690883
  0
VERTEX
  8
equipamento_cultural
 10
-9.421256
 20
38.690885
  0
VERTEX
  8
equipamento_cultural
 10
-9.421285
 20
38.690892
  0
VERTEX
  8
equipamento_cultural
 10
-9.421311
 20
38.690897
  0
VERTEX
  8
equipamento_cultural
 10
-9.421365
 20
38.690909
  0
VERTEX
  8
equipamento_cultural
 10
-9.421410
 20
38.691163
  0
VERTEX
  8
equipamento_cultural
 10
-9.421481
 20
38.691282
  0
SEQEND
  0
POINT
  8
equipamento_cultural
  6
BYLAYER
 10
-9.421351
 20
38.691095
 50
0.000000
  0
POLYLINE
  8
equipamento_cultural
  6
BYLAYER
 66
1
 70
1
 40
0.000000
 41
0.000000
  0
VERTEX
  8
equipamento_cultural
 10
-9.357250
 20
38.687704
  0
VERTEX
  8
equipamento_cultural
 10
-9.357249
 20
38.687825
  0
VERTEX
  8
equipamento_cultural
 10
-9.357245
 20
38.687938
  0
VERTEX
  8
equipamento_cultural
 10
-9.357225
 20
38.687954
  0
VERTEX
  8
equipamento_cultural
 10
-9.357189
 20
38.687966
  0
VERTEX
  8
equipamento_cultural
 10
-9.356848
 20
38.687937
  0
VERTEX
  8
equipamento_cultural
 10
-9.356806
 20
38.687921
  0
VERTEX
  8
equipamento_cultural
 10
-9.356790
 20
38.687891
  0
VERTEX
  8
equipamento_cultural
 10
-9.356793
 20
38.687680
  0
VERTEX
  8
equipamento_cultural
 10
-9.357020
 20
38.687692
  0
VERTEX
  8
equipamento_cultural
 10
-9.357250
 20
38.687704
  0
SEQEND
  0
POINT
  8
equipamento_cultural
  6
BYLAYER
 10
-9.357022
 20
38.687820
 50
0.000000
  0
POLYLINE
  8
equipamento_cultural
  6
BYLAYER
 66
1
 70
1
 40
0.000000
 41
0.000000
  0
VERTEX
  8
equipamento_cultural
 10
-9.398066
 20
38.706616
  0
VERTEX
  8
equipamento_cultural
 10
-9.398056
 20
38.706670
  0
VERTEX
  8
equipamento_cultural
 10
-9.398047
 20
38.706720
  0
VERTEX
  8
equipamento_cultural
 10
-9.398043
 20
38.706740
  0
VERTEX
  8
equipamento_cultural
 10
-9.398035
 20
38.706784
  0
VERTEX
  8
equipamento_cultural
 10
-9.398030
 20
38.706814
  0
VERTEX
  8
equipamento_cultural
 10
-9.398076
 20
38.706824
  0
VERTEX
  8
equipamento_cultural
 10
-9.398061
 20
38.706866
  0
VERTEX
  8
equipamento_cultural
 10
-9.398016
 20
38.706997
  0
VERTEX
  8
equipamento_cultural
 10
-9.397995
 20
38.707060
  0
VERTEX
  8
equipamento_cultural
 10
-9.398168
 20
38.707096
  0
VERTEX
  8
equipamento_cultural
 10
-9.398105
 20
38.707281
  0
VERTEX
  8
equipamento_cultural
 10
-9.398048
 20
38.707446
  0
VERTEX
  8
equipamento_cultural
 10
-9.397993
 20
38.707608
  0
VERTEX
  8
equipamento_cultural
 10
-9.397820
 20
38.707572
  0
VERTEX
  8
equipamento_cultural
 10
-9.397809
 20
38.707603
  0
VERTEX
  8
equipamento_cultural
 10
-9.397761
 20
38.707593
  0
VERTEX
  8
equipamento_cultural
 10
-9.397742
 20
38.707589
  0
VERTEX
  8
equipamento_cultural
 10
-9.397718
 20
38.707659
  0
VERTEX
  8
equipamento_cultural
 10
-9.397683
 20
38.707760
  0
VERTEX
  8
equipamento_cultural
 10
-9.397650
 20
38.707858
  0
VERTEX
  8
equipamento_cultural
 10
-9.397542
 20
38.707836
  0
VERTEX
  8
equipamento_cultural
 10
-9.397534
 20
38.707860
  0
VERTEX
  8
equipamento_cultural
 10
-9.397514
 20
38.707917
  0
VERTEX
  8
equipamento_cultural
 10
-9.397275
 20
38.707867
  0
VERTEX
  8
equipamento_cultural
 10
-9.397269
 20
38.707885
  0
VERTEX
  8
equipamento_cultural
 10
-9.397262
 20
38.707907
  0
VERTEX
  8
equipamento_cultural
 10
-9.397248
 20
38.707947
  0
VERTEX
  8
equipamento_cultural
 10
-9.396932
 20
38.707881
  0
VERTEX
  8
equipamento_cultural
 10
-9.396910
 20
38.707876
  0
VERTEX
  8
equipamento_cultural
 10
-9.396926
 20
38.707826
  0
VERTEX
  8
equipamento_cultural
 10
-9.396711
 20
38.707781
  0
VERTEX
  8
equipamento_cultural
 10
-9.396737
 20
38.707703
  0
VERTEX
  8
equipamento_cultural
 10
-9.396667
 20
38.707688
  0
VERTEX
  8
equipamento_cultural
 10
-9.396676
 20
38.707661
  0
VERTEX
  8
equipamento_cultural
 10
-9.396735
 20
38.707488
  0
VERTEX
  8
equipamento_cultural
 10
-9.396748
 20
38.707449
  0
VERTEX
  8
equipamento_cultural
 10
-9.396710
 20
38.707441
  0
VERTEX
  8
equipamento_cultural
 10
-9.396623
 20
38.707423
  0
VERTEX
  8
equipamento_cultural
 10
-9.396603
 20
38.707419
  0
VERTEX
  8
equipamento_cultural
 10
-9.396621
 20
38.707367
  0
VERTEX
  8
equipamento_cultural
 10
-9.396641
 20
38.707309
  0
VERTEX
  8
equipamento_cultural
 10
-9.396652
 20
38.707274
  0
VERTEX
  8
equipamento_cultural
 10
-9.396700
 20
38.707283
  0
VERTEX
  8
equipamento_cultural
 10
-9.396730
 20
38.707194
  0
VERTEX
  8
equipamento_cultural
 10
-9.396759
 20
38.707106
  0
VERTEX
  8
equipamento_cultural
 10
-9.396776
 20
38.707056
  0
VERTEX
  8
equipamento_cultural
 10
-9.396842
 20
38.706860
  0
VERTEX
  8
equipamento_cultural
 10
-9.396869
 20
38.706780
  0
VERTEX
  8
equipamento_cultural
 10
-9.396908
 20
38.706663
  0
VERTEX
  8
equipamento_cultural
 10
-9.396920
 20
38.706628
  0
VERTEX
  8
equipamento_cultural
 10
-9.396938
 20
38.706577
  0
VERTEX
  8
equipamento_cultural
 10
-9.396960
 20
38.706569
  0
VERTEX
  8
equipamento_cultural
 10
-9.397061
 20
38.706378
  0
VERTEX
  8
equipamento_cultural
 10
-9.397270
 20
38.706419
  0
VERTEX
  8
equipamento_cultural
 10
-9.397245
 20
38.706499
  0
VERTEX
  8
equipamento_cultural
 10
-9.397299
 20
38.706504
  0
VERTEX
  8
equipamento_cultural
 10
-9.397354
 20
38.706511
  0
VERTEX
  8
equipamento_cultural
 10
-9.397408
 20
38.706519
  0
VERTEX
  8
equipamento_cultural
 10
-9.397462
 20
38.706528
  0
VERTEX
  8
equipamento_cultural
 10
-9.397516
 20
38.706538
  0
VERTEX
  8
equipamento_cultural
 10
-9.397569
 20
38.706549
  0
VERTEX
  8
equipamento_cultural
 10
-9.397621
 20
38.706562
  0
VERTEX
  8
equipamento_cultural
 10
-9.397674
 20
38.706575
  0
VERTEX
  8
equipamento_cultural
 10
-9.397726
 20
38.706590
  0
VERTEX
  8
equipamento_cultural
 10
-9.397777
 20
38.706605
  0
VERTEX
  8
equipamento_cultural
 10
-9.397818
 20
38.706618
  0
VERTEX
  8
equipamento_cultural
 10
-9.397828
 20
38.706622
  0
VERTEX
  8
equipamento_cultural
 10
-9.397829
 20
38.706618
  0
VERTEX
  8
equipamento_cultural
 10
-9.397854
 20
38.706541
  0
VERTEX
  8
equipamento_cultural
 10
-9.398072
 20
38.706585
  0
VERTEX
  8
equipamento_cultural
 10
-9.398066
 20
38.706616
  0
SEQEND
  0
POINT
  8
equipamento_cultural
  6
BYLAYER
 10
-9.397375
 20
38.707187
 50
0.000000
  0
POLYLINE
  8
equipamento_cultural
  6
BYLAYER
 66
1
 70
1
 40
0.000000
 41
0.000000
  0
VERTEX
  8
equipamento_cultural
 10
-9.418295
 20
38.701306
  0
VERTEX
  8
equipamento_cultural
 10
-9.418295
 20
38.701306
  0
VERTEX
  8
equipamento_cultural
 10
-9.418248
 20
38.701510
  0
VERTEX
  8
equipamento_cultural
 10
-9.418094
 20
38.701476
  0
VERTEX
  8
equipamento_cultural
 10
-9.418075
 20
38.701469
  0
VERTEX
  8
equipamento_cultural
 10
-9.418058
 20
38.701459
  0
VERTEX
  8
equipamento_cultural
 10
-9.418044
 20
38.701447
  0
VERTEX
  8
equipamento_cultural
 10
-9.418035
 20
38.701432
  0
VERTEX
  8
equipamento_cultural
 10
-9.418030
 20
38.701416
  0
VERTEX
  8
equipamento_cultural
 10
-9.418029
 20
38.701400
  0
VERTEX
  8
equipamento_cultural
 10
-9.418033
 20
38.701384
  0
VERTEX
  8
equipamento_cultural
 10
-9.418042
 20
38.701369
  0
VERTEX
  8
equipamento_cultural
 10
-9.418054
 20
38.701356
  0
VERTEX
  8
equipamento_cultural
 10
-9.418070
 20
38.701345
  0
VERTEX
  8
equipamento_cultural
 10
-9.418089
 20
38.701338
  0
VERTEX
  8
equipamento_cultural
 10
-9.418109
 20
38.701334
  0
VERTEX
  8
equipamento_cultural
 10
-9.418124
 20
38.701332
  0
VERTEX
  8
equipamento_cultural
 10
-9.418295
 20
38.701306
  0
SEQEND
  0
POINT
  8
equipamento_cultural
  6
BYLAYER
 10
-9.418167
 20
38.701404
 50
0.000000
  0
POLYLINE
  8
equipamento_cultural
  6
BYLAYER
 66
1
 70
1
 40
0.000000
 41
0.000000
  0
VERTEX
  8
equipamento_cultural
 10
-9.421634
 20
38.693919
  0
VERTEX
  8
equipamento_cultural
 10
-9.421554
 20
38.693955
  0
VERTEX
  8
equipamento_cultural
 10
-9.421546
 20
38.693944
  0
VERTEX
  8
equipamento_cultural
 10
-9.421529
 20
38.693951
  0
VERTEX
  8
equipamento_cultural
 10
-9.421695
 20
38.694199
  0
VERTEX
  8
equipamento_cultural
 10
-9.421335
 20
38.694347
  0
VERTEX
  8
equipamento_cultural
 10
-9.421291
 20
38.694283
  0
VERTEX
  8
equipamento_cultural
 10
-9.421061
 20
38.693939
  0
VERTEX
  8
equipamento_cultural
 10
-9.421185
 20
38.693888
  0
VERTEX
  8
equipamento_cultural
 10
-9.421444
 20
38.693781
  0
VERTEX
  8
equipamento_cultural
 10
-9.421456
 20
38.693777
  0
VERTEX
  8
equipamento_cultural
 10
-9.421545
 20
38.693750
  0
VERTEX
  8
equipamento_cultural
 10
-9.421634
 20
38.693919
  0
SEQEND
  0
POINT
  8
equipamento_cultural
  6
BYLAYER
 10
-9.421395
 20
38.694045
 50
0.000000
  0
POLYLINE
  8
equipamento_cultural
  6
BYLAYER
 66
1
 70
1
 40
0.000000
 41
0.000000
  0
VERTEX
  8
equipamento_cultural
 10
-9.396505
 20
38.706847
  0
VERTEX
  8
equipamento_cultural
 10
-9.395716
 20
38.706685
  0
VERTEX
  8
equipamento_cultural
 10
-9.395960
 20
38.705922
  0
VERTEX
  8
equipamento_cultural
 10
-9.396758
 20
38.706086
  0
VERTEX
  8
equipamento_cultural
 10
-9.396505
 20
38.706847
  0
SEQEND
  0
POINT
  8
equipamento_cultural
  6
BYLAYER
 10
-9.396235
 20
38.706384
 50
0.000000
  0
POLYLINE
  8
equipamento_cultural
  6
BYLAYER
 66
1
 70
1
 40
0.000000
 41
0.000000
  0
VERTEX
  8
equipamento_cultural
 10
-9.400718
 20
38.733858
  0
VERTEX
  8
equipamento_cultural
 10
-9.400989
 20
38.733859
  0
VERTEX
  8
equipamento_cultural
 10
-9.401007
 20
38.734189
  0
VERTEX
  8
equipamento_cultural
 10
-9.400731
 20
38.734190
  0
VERTEX
  8
equipamento_cultural
 10
-9.400723
 20
38.734012
  0
VERTEX
  8
equipamento_cultural
 10
-9.400718
 20
38.733858
  0
SEQEND
  0
POINT
  8
equipamento_cultural
  6
BYLAYER
 10
-9.400861
 20
38.734024
 50
0.000000
  0
POLYLINE
  8
equipamento_cultural
  6
BYLAYER
 66
1
 70
1
 40
0.000000
 41
0.000000
  0
VERTEX
  8
equipamento_cultural
 10
-9.393139
 20
38.717689
  0
VERTEX
  8
equipamento_cultural
 10
-9.392731
 20
38.717675
  0
VERTEX
  8
equipamento_cultural
 10
-9.392721
 20
38.717290
  0
VERTEX
  8
equipamento_cultural
 10
-9.393029
 20
38.717287
  0
VERTEX
  8
equipamento_cultural
 10
-9.393031
 20
38.717360
  0
VERTEX
  8
equipamento_cultural
 10
-9.393165
 20
38.717360
  0
VERTEX
  8
equipamento_cultural
 10
-9.393139
 20
38.717689
  0
SEQEND
  0
POINT
  8
equipamento_cultural
  6
BYLAYER
 10
-9.392932
 20
38.717492
 50
0.000000
  0
POLYLINE
  8
equipamento_cultural
  6
BYLAYER
 66
1
 70
1
 40
0.000000
 41
0.000000
  0
VERTEX
  8
equipamento_cultural
 10
-9.336912
 20
38.688149
  0
VERTEX
  8
equipamento_cultural
 10
-9.336910
 20
38.688100
  0
VERTEX
  8
equipamento_cultural
 10
-9.337105
 20
38.688091
  0
VERTEX
  8
equipamento_cultural
 10
-9.337110
 20
38.688141
  0
VERTEX
  8
equipamento_cultural
 10
-9.337110
 20
38.688145
  0
VERTEX
  8
equipamento_cultural
 10
-9.337122
 20
38.688328
  0
VERTEX
  8
equipamento_cultural
 10
-9.337123
 20
38.688345
  0
VERTEX
  8
equipamento_cultural
 10
-9.336922
 20
38.688354
  0
VERTEX
  8
equipamento_cultural
 10
-9.336912
 20
38.688149
  0
SEQEND
  0
POINT
  8
equipamento_cultural
  6
BYLAYER
 10
-9.337015
 20
38.688223
 50
0.000000
  0
POLYLINE
  8
equipamento_cultural
  6
BYLAYER
 66
1
 70
1
 40
0.000000
 41
0.000000
  0
VERTEX
  8
equipamento_cultural
 10
-9.343333
 20
38.692385
  0
VERTEX
  8
equipamento_cultural
 10
-9.342729
 20
38.692380
  0
VERTEX
  8
equipamento_cultural
 10
-9.342747
 20
38.691964
  0
VERTEX
  8
equipamento_cultural
 10
-9.343344
 20
38.691972
  0
VERTEX
  8
equipamento_cultural
 10
-9.343333
 20
38.692385
  0
SEQEND
  0
POINT
  8
equipamento_cultural
  6
BYLAYER
 10
-9.343038
 20
38.692176
 50
0.000000
  0
POLYLINE
  8
equipamento_cultural
  6
BYLAYER
 66
1
 70
1
 40
0.000000
 41
0.000000
  0
VERTEX
  8
equipamento_cultural
 10
-9.404130
 20
38.705989
  0
VERTEX
  8
equipamento_cultural
 10
-9.404242
 20
38.705924
  0
VERTEX
  8
equipamento_cultural
 10
-9.404309
 20
38.705889
  0
VERTEX
  8
equipamento_cultural
 10
-9.404314
 20
38.705900
  0
VERTEX
  8
equipamento_cultural
 10
-9.404448
 20
38.706031
  0
VERTEX
  8
equipamento_cultural
 10
-9.404551
 20
38.706129
  0
VERTEX
  8
equipamento_cultural
 10
-9.404582
 20
38.706157
  0
VERTEX
  8
equipamento_cultural
 10
-9.404665
 20
38.706240
  0
VERTEX
  8
equipamento_cultural
 10
-9.404648
 20
38.706253
  0
VERTEX
  8
equipamento_cultural
 10
-9.404621
 20
38.706274
  0
VERTEX
  8
equipamento_cultural
 10
-9.404615
 20
38.706281
  0
VERTEX
  8
equipamento_cultural
 10
-9.404594
 20
38.706301
  0
VERTEX
  8
equipamento_cultural
 10
-9.404568
 20
38.706330
  0
VERTEX
  8
equipamento_cultural
 10
-9.404543
 20
38.706363
  0
VERTEX
  8
equipamento_cultural
 10
-9.404532
 20
38.706380
  0
VERTEX
  8
equipamento_cultural
 10
-9.404511
 20
38.706419
  0
VERTEX
  8
equipamento_cultural
 10
-9.404298
 20
38.706354
  0
VERTEX
  8
equipamento_cultural
 10
-9.404290
 20
38.706355
  0
VERTEX
  8
equipamento_cultural
 10
-9.404237
 20
38.706235
  0
VERTEX
  8
equipamento_cultural
 10
-9.404233
 20
38.706228
  0
VERTEX
  8
equipamento_cultural
 10
-9.404197
 20
38.706144
  0
VERTEX
  8
equipamento_cultural
 10
-9.404134
 20
38.705999
  0
VERTEX
  8
equipamento_cultural
 10
-9.404130
 20
38.705989
  0
SEQEND
  0
POINT
  8
equipamento_cultural
  6
BYLAYER
 10
-9.404381
 20
38.706166
 50
0.000000
  0
POLYLINE
  8
equipamento_cultural
  6
BYLAYER
 66
1
 70
1
 40
0.000000
 41
0.000000
  0
VERTEX
  8
equipamento_cultural
 10
-9.348928
 20
38.713857
  0
VERTEX
  8
equipamento_cultural
 10
-9.348688
 20
38.713868
  0
VERTEX
  8
equipamento_cultural
 10
-9.348662
 20
38.713870
  0
VERTEX
  8
equipamento_cultural
 10
-9.348635
 20
38.713871
  0
VERTEX
  8
equipamento_cultural
 10
-9.348553
 20
38.713875
  0
VERTEX
  8
equipamento_cultural
 10
-9.348398
 20
38.713882
  0
VERTEX
  8
equipamento_cultural
 10
-9.348327
 20
38.713886
  0
VERTEX
  8
equipamento_cultural
 10
-9.348256
 20
38.713889
  0
VERTEX
  8
equipamento_cultural
 10
-9.348249
 20
38.713861
  0
VERTEX
  8
equipamento_cultural
 10
-9.348242
 20
38.713798
  0
VERTEX
  8
equipamento_cultural
 10
-9.348239
 20
38.713690
  0
VERTEX
  8
equipamento_cultural
 10
-9.348232
 20
38.713474
  0
VERTEX
  8
equipamento_cultural
 10
-9.348604
 20
38.713480
  0
VERTEX
  8
equipamento_cultural
 10
-9.349049
 20
38.713490
  0
VERTEX
  8
equipamento_cultural
 10
-9.349115
 20
38.713490
  0
VERTEX
  8
equipamento_cultural
 10
-9.349044
 20
38.713645
  0
VERTEX
  8
equipamento_cultural
 10
-9.349013
 20
38.713710
  0
VERTEX
  8
equipamento_cultural
 10
-9.348928
 20
38.713857
  0
SEQEND
  0
POINT
  8
equipamento_cultural
  6
BYLAYER
 10
-9.348626
 20
38.713669
 50
0.000000
  0
POLYLINE
  8
equipamento_cultural
  6
BYLAYER
 66
1
 70
1
 40
0.000000
 41
0.000000
  0
VERTEX
  8
equipamento_cultural
 10
-9.374227
 20
38.709183
  0
VERTEX
  8
equipamento_cultural
 10
-9.374081
 20
38.709201
  0
VERTEX
  8
equipamento_cultural
 10
-9.373794
 20
38.709297
  0
VERTEX
  8
equipamento_cultural
 10
-9.373786
 20
38.709297
  0
VERTEX
  8
equipamento_cultural
 10
-9.373170
 20
38.709220
  0
VERTEX
  8
equipamento_cultural
 10
-9.373121
 20
38.709168
  0
VERTEX
  8
equipamento_cultural
 10
-9.373086
 20
38.709131
  0
VERTEX
  8
equipamento_cultural
 10
-9.373047
 20
38.709090
  0
VERTEX
  8
equipamento_cultural
 10
-9.372993
 20
38.709081
  0
VERTEX
  8
equipamento_cultural
 10
-9.373042
 20
38.708867
  0
VERTEX
  8
equipamento_cultural
 10
-9.373083
 20
38.708704
  0
VERTEX
  8
equipamento_cultural
 10
-9.373105
 20
38.708616
  0
VERTEX
  8
equipamento_cultural
 10
-9.373118
 20
38.708564
  0
VERTEX
  8
equipamento_cultural
 10
-9.373124
 20
38.708538
  0
VERTEX
  8
equipamento_cultural
 10
-9.373165
 20
38.708379
  0
VERTEX
  8
equipamento_cultural
 10
-9.373187
 20
38.708295
  0
VERTEX
  8
equipamento_cultural
 10
-9.373248
 20
38.708067
  0
VERTEX
  8
equipamento_cultural
 10
-9.373254
 20
38.708045
  0
VERTEX
  8
equipamento_cultural
 10
-9.373483
 20
38.707539
  0
VERTEX
  8
equipamento_cultural
 10
-9.373459
 20
38.707436
  0
VERTEX
  8
equipamento_cultural
 10
-9.374298
 20
38.707515
  0
VERTEX
  8
equipamento_cultural
 10
-9.374293
 20
38.707738
  0
VERTEX
  8
equipamento_cultural
 10
-9.374281
 20
38.707993
  0
VERTEX
  8
equipamento_cultural
 10
-9.374273
 20
38.708162
  0
VERTEX
  8
equipamento_cultural
 10
-9.374263
 20
38.708398
  0
VERTEX
  8
equipamento_cultural
 10
-9.374227
 20
38.709183
  0
SEQEND
  0
POINT
  8
equipamento_cultural
  6
BYLAYER
 10
-9.373720
 20
38.708415
 50
0.000000
  0
POLYLINE
  8
equipamento_cultural
  6
BYLAYER
 66
1
 70
1
 40
0.000000
 41
0.000000
  0
VERTEX
  8
equipamento_cultural
 10
-9.404741
 20
38.731245
  0
VERTEX
  8
equipamento_cultural
 10
-9.404690
 20
38.731340
  0
VERTEX
  8
equipamento_cultural
 10
-9.404607
 20
38.731495
  0
VERTEX
  8
equipamento_cultural
 10
-9.404585
 20
38.731544
  0
VERTEX
  8
equipamento_cultural
 10
-9.404497
 20
38.731710
  0
VERTEX
  8
equipamento_cultural
 10
-9.404454
 20
38.731792
  0
VERTEX
  8
equipamento_cultural
 10
-9.404410
 20
38.731874
  0
VERTEX
  8
equipamento_cultural
 10
-9.404311
 20
38.732061
  0
VERTEX
  8
equipamento_cultural
 10
-9.404248
 20
38.732179
  0
VERTEX
  8
equipamento_cultural
 10
-9.404185
 20
38.732300
  0
VERTEX
  8
equipamento_cultural
 10
-9.404146
 20
38.732372
  0
VERTEX
  8
equipamento_cultural
 10
-9.404134
 20
38.732396
  0
VERTEX
  8
equipamento_cultural
 10
-9.404096
 20
38.732468
  0
VERTEX
  8
equipamento_cultural
 10
-9.404057
 20
38.732539
  0
VERTEX
  8
equipamento_cultural
 10
-9.404049
 20
38.732554
  0
VERTEX
  8
equipamento_cultural
 10
-9.404006
 20
38.732636
  0
VERTEX
  8
equipamento_cultural
 10
-9.403968
 20
38.732706
  0
VERTEX
  8
equipamento_cultural
 10
-9.403805
 20
38.732643
  0
VERTEX
  8
equipamento_cultural
 10
-9.403653
 20
38.732584
  0
VERTEX
  8
equipamento_cultural
 10
-9.403504
 20
38.732526
  0
VERTEX
  8
equipamento_cultural
 10
-9.403364
 20
38.732472
  0
VERTEX
  8
equipamento_cultural
 10
-9.403195
 20
38.732405
  0
VERTEX
  8
equipamento_cultural
 10
-9.403004
 20
38.732331
  0
VERTEX
  8
equipamento_cultural
 10
-9.402812
 20
38.732255
  0
VERTEX
  8
equipamento_cultural
 10
-9.402721
 20
38.732220
  0
VERTEX
  8
equipamento_cultural
 10
-9.402648
 20
38.732191
  0
VERTEX
  8
equipamento_cultural
 10
-9.402542
 20
38.732152
  0
VERTEX
  8
equipamento_cultural
 10
-9.402718
 20
38.732037
  0
VERTEX
  8
equipamento_cultural
 10
-9.403411
 20
38.731587
  0
VERTEX
  8
equipamento_cultural
 10
-9.403460
 20
38.731555
  0
VERTEX
  8
equipamento_cultural
 10
-9.403198
 20
38.731461
  0
VERTEX
  8
equipamento_cultural
 10
-9.403130
 20
38.731434
  0
VERTEX
  8
equipamento_cultural
 10
-9.403075
 20
38.731417
  0
VERTEX
  8
equipamento_cultural
 10
-9.403164
 20
38.731374
  0
VERTEX
  8
equipamento_cultural
 10
-9.403254
 20
38.731408
  0
VERTEX
  8
equipamento_cultural
 10
-9.403281
 20
38.731421
  0
VERTEX
  8
equipamento_cultural
 10
-9.403397
 20
38.731340
  0
VERTEX
  8
equipamento_cultural
 10
-9.403524
 20
38.731256
  0
VERTEX
  8
equipamento_cultural
 10
-9.403483
 20
38.731218
  0
VERTEX
  8
equipamento_cultural
 10
-9.403616
 20
38.731127
  0
VERTEX
  8
equipamento_cultural
 10
-9.403630
 20
38.731117
  0
VERTEX
  8
equipamento_cultural
 10
-9.403649
 20
38.731104
  0
VERTEX
  8
equipamento_cultural
 10
-9.403657
 20
38.731098
  0
VERTEX
  8
equipamento_cultural
 10
-9.403666
 20
38.731092
  0
VERTEX
  8
equipamento_cultural
 10
-9.403707
 20
38.731064
  0
VERTEX
  8
equipamento_cultural
 10
-9.403935
 20
38.730911
  0
VERTEX
  8
equipamento_cultural
 10
-9.403985
 20
38.730883
  0
VERTEX
  8
equipamento_cultural
 10
-9.404012
 20
38.730871
  0
VERTEX
  8
equipamento_cultural
 10
-9.404039
 20
38.730861
  0
VERTEX
  8
equipamento_cultural
 10
-9.404045
 20
38.730859
  0
VERTEX
  8
equipamento_cultural
 10
-9.404051
 20
38.730857
  0
VERTEX
  8
equipamento_cultural
 10
-9.404057
 20
38.730855
  0
VERTEX
  8
equipamento_cultural
 10
-9.404063
 20
38.730854
  0
VERTEX
  8
equipamento_cultural
 10
-9.404069
 20
38.730854
  0
VERTEX
  8
equipamento_cultural
 10
-9.404076
 20
38.730854
  0
VERTEX
  8
equipamento_cultural
 10
-9.404082
 20
38.730854
  0
VERTEX
  8
equipamento_cultural
 10
-9.404085
 20
38.730854
  0
VERTEX
  8
equipamento_cultural
 10
-9.404148
 20
38.730856
  0
VERTEX
  8
equipamento_cultural
 10
-9.404149
 20
38.730848
  0
VERTEX
  8
equipamento_cultural
 10
-9.404152
 20
38.730824
  0
VERTEX
  8
equipamento_cultural
 10
-9.404154
 20
38.730811
  0
VERTEX
  8
equipamento_cultural
 10
-9.404299
 20
38.730816
  0
VERTEX
  8
equipamento_cultural
 10
-9.404330
 20
38.730819
  0
VERTEX
  8
equipamento_cultural
 10
-9.404361
 20
38.730824
  0
VERTEX
  8
equipamento_cultural
 10
-9.404391
 20
38.730830
  0
VERTEX
  8
equipamento_cultural
 10
-9.404395
 20
38.730832
  0
VERTEX
  8
equipamento_cultural
 10
-9.404449
 20
38.730847
  0
VERTEX
  8
equipamento_cultural
 10
-9.404504
 20
38.730864
  0
VERTEX
  8
equipamento_cultural
 10
-9.404528
 20
38.730873
  0
VERTEX
  8
equipamento_cultural
 10
-9.404550
 20
38.730883
  0
VERTEX
  8
equipamento_cultural
 10
-9.404571
 20
38.730896
  0
VERTEX
  8
equipamento_cultural
 10
-9.404588
 20
38.730907
  0
VERTEX
  8
equipamento_cultural
 10
-9.404623
 20
38.730935
  0
VERTEX
  8
equipamento_cultural
 10
-9.404656
 20
38.730966
  0
VERTEX
  8
equipamento_cultural
 10
-9.404673
 20
38.730985
  0
VERTEX
  8
equipamento_cultural
 10
-9.404708
 20
38.731028
  0
VERTEX
  8
equipamento_cultural
 10
-9.404753
 20
38.731086
  0
VERTEX
  8
equipamento_cultural
 10
-9.404773
 20
38.731115
  0
VERTEX
  8
equipamento_cultural
 10
-9.404776
 20
38.731122
  0
VERTEX
  8
equipamento_cultural
 10
-9.404779
 20
38.731130
  0
VERTEX
  8
equipamento_cultural
 10
-9.404781
 20
38.731138
  0
VERTEX
  8
equipamento_cultural
 10
-9.404782
 20
38.731146
  0
VERTEX
  8
equipamento_cultural
 10
-9.404782
 20
38.731154
  0
VERTEX
  8
equipamento_cultural
 10
-9.404782
 20
38.731162
  0
VERTEX
  8
equipamento_cultural
 10
-9.404780
 20
38.731170
  0
VERTEX
  8
equipamento_cultural
 10
-9.404778
 20
38.731178
  0
VERTEX
  8
equipamento_cultural
 10
-9.404774
 20
38.731185
  0
VERTEX
  8
equipamento_cultural
 10
-9.404773
 20
38.731187
  0
VERTEX
  8
equipamento_cultural
 10
-9.404741
 20
38.731245
  0
SEQEND
  0
POINT
  8
equipamento_cultural
  6
BYLAYER
 10
-9.403820
 20
38.731741
 50
0.000000
  0
POLYLINE
  8
equipamento_cultural
  6
BYLAYER
 66
1
 70
1
 40
0.000000
 41
0.000000
  0
VERTEX
  8
equipamento_cultural
 10
-9.426276
 20
38.718470
  0
VERTEX
  8
equipamento_cultural
 10
-9.425975
 20
38.718562
  0
VERTEX
  8
equipamento_cultural
 10
-9.424994
 20
38.718584
  0
VERTEX
  8
equipamento_cultural
 10
-9.424583
 20
38.718306
  0
VERTEX
  8
equipamento_cultural
 10
-9.424374
 20
38.718094
  0
VERTEX
  8
equipamento_cultural
 10
-9.424395
 20
38.717891
  0
VERTEX
  8
equipamento_cultural
 10
-9.424386
 20
38.717608
  0
VERTEX
  8
equipamento_cultural
 10
-9.424413
 20
38.717558
  0
VERTEX
  8
equipamento_cultural
 10
-9.424615
 20
38.717606
  0
VERTEX
  8
equipamento_cultural
 10
-9.425220
 20
38.717676
  0
VERTEX
  8
equipamento_cultural
 10
-9.425861
 20
38.717674
  0
VERTEX
  8
equipamento_cultural
 10
-9.426243
 20
38.717664
  0
VERTEX
  8
equipamento_cultural
 10
-9.426276
 20
38.718470
  0
SEQEND
  0
POINT
  8
equipamento_cultural
  6
BYLAYER
 10
-9.425356
 20
38.718084
 50
0.000000
  0
POLYLINE
  8
equipamento_cultural
  6
BYLAYER
 66
1
 70
1
 40
0.000000
 41
0.000000
  0
VERTEX
  8
equipamento_cultural
 10
-9.406174
 20
38.706226
  0
VERTEX
  8
equipamento_cultural
 10
-9.405990
 20
38.706014
  0
VERTEX
  8
equipamento_cultural
 10
-9.406003
 20
38.706008
  0
VERTEX
  8
equipamento_cultural
 10
-9.406019
 20
38.705998
  0
VERTEX
  8
equipamento_cultural
 10
-9.406045
 20
38.705981
  0
VERTEX
  8
equipamento_cultural
 10
-9.406070
 20
38.705962
  0
VERTEX
  8
equipamento_cultural
 10
-9.406093
 20
38.705941
  0
VERTEX
  8
equipamento_cultural
 10
-9.406114
 20
38.705920
  0
VERTEX
  8
equipamento_cultural
 10
-9.406134
 20
38.705898
  0
VERTEX
  8
equipamento_cultural
 10
-9.406320
 20
38.705704
  0
VERTEX
  8
equipamento_cultural
 10
-9.406342
 20
38.705718
  0
VERTEX
  8
equipamento_cultural
 10
-9.406371
 20
38.705739
  0
VERTEX
  8
equipamento_cultural
 10
-9.406452
 20
38.705797
  0
VERTEX
  8
equipamento_cultural
 10
-9.406554
 20
38.705868
  0
VERTEX
  8
equipamento_cultural
 10
-9.406630
 20
38.705918
  0
VERTEX
  8
equipamento_cultural
 10
-9.406350
 20
38.706160
  0
VERTEX
  8
equipamento_cultural
 10
-9.406174
 20
38.706226
  0
SEQEND
  0
POINT
  8
equipamento_cultural
  6
BYLAYER
 10
-9.406301
 20
38.705974
 50
0.000000
  0
POLYLINE
  8
equipamento_cultural
  6
BYLAYER
 66
1
 70
1
 40
0.000000
 41
0.000000
  0
VERTEX
  8
equipamento_cultural
 10
-9.349897
 20
38.694603
  0
VERTEX
  8
equipamento_cultural
 10
-9.349940
 20
38.694698
  0
VERTEX
  8
equipamento_cultural
 10
-9.349969
 20
38.694700
  0
VERTEX
  8
equipamento_cultural
 10
-9.349987
 20
38.694753
  0
VERTEX
  8
equipamento_cultural
 10
-9.349796
 20
38.694810
  0
VERTEX
  8
equipamento_cultural
 10
-9.349805
 20
38.694836
  0
VERTEX
  8
equipamento_cultural
 10
-9.349689
 20
38.694870
  0
VERTEX
  8
equipamento_cultural
 10
-9.349646
 20
38.694776
  0
VERTEX
  8
equipamento_cultural
 10
-9.349700
 20
38.694759
  0
VERTEX
  8
equipamento_cultural
 10
-9.349674
 20
38.694717
  0
VERTEX
  8
equipamento_cultural
 10
-9.349798
 20
38.694670
  0
VERTEX
  8
equipamento_cultural
 10
-9.349785
 20
38.694631
  0
VERTEX
  8
equipamento_cultural
 10
-9.349897
 20
38.694603
  0
SEQEND
  0
POINT
  8
equipamento_cultural
  6
BYLAYER
 10
-9.349811
 20
38.694738
 50
0.000000
  0
POLYLINE
  8
equipamento_cultural
  6
BYLAYER
 66
1
 70
1
 40
0.000000
 41
0.000000
  0
VERTEX
  8
equipamento_cultural
 10
-9.341016
 20
38.737699
  0
VERTEX
  8
equipamento_cultural
 10
-9.340897
 20
38.737517
  0
VERTEX
  8
equipamento_cultural
 10
-9.340878
 20
38.737488
  0
VERTEX
  8
equipamento_cultural
 10
-9.340769
 20
38.737436
  0
VERTEX
  8
equipamento_cultural
 10
-9.340700
 20
38.737305
  0
VERTEX
  8
equipamento_cultural
 10
-9.340700
 20
38.737289
  0
VERTEX
  8
equipamento_cultural
 10
-9.340698
 20
38.737056
  0
VERTEX
  8
equipamento_cultural
 10
-9.340805
 20
38.737001
  0
VERTEX
  8
equipamento_cultural
 10
-9.341139
 20
38.737004
  0
VERTEX
  8
equipamento_cultural
 10
-9.341149
 20
38.737004
  0
VERTEX
  8
equipamento_cultural
 10
-9.341161
 20
38.737004
  0
VERTEX
  8
equipamento_cultural
 10
-9.341202
 20
38.736999
  0
VERTEX
  8
equipamento_cultural
 10
-9.341255
 20
38.736999
  0
VERTEX
  8
equipamento_cultural
 10
-9.341265
 20
38.737540
  0
VERTEX
  8
equipamento_cultural
 10
-9.341210
 20
38.737539
  0
VERTEX
  8
equipamento_cultural
 10
-9.341222
 20
38.737925
  0
VERTEX
  8
equipamento_cultural
 10
-9.341168
 20
38.737955
  0
VERTEX
  8
equipamento_cultural
 10
-9.341135
 20
38.737942
  0
VERTEX
  8
equipamento_cultural
 10
-9.341108
 20
38.737912
  0
VERTEX
  8
equipamento_cultural
 10
-9.341019
 20
38.737704
  0
VERTEX
  8
equipamento_cultural
 10
-9.341016
 20
38.737699
  0
SEQEND
  0
POINT
  8
equipamento_cultural
  6
BYLAYER
 10
-9.341023
 20
38.737354
 50
0.000000
  0
POLYLINE
  8
equipamento_cultural
  6
BYLAYER
 66
1
 70
1
 40
0.000000
 41
0.000000
  0
VERTEX
  8
equipamento_cultural
 10
-9.425065
 20
38.699077
  0
VERTEX
  8
equipamento_cultural
 10
-9.424725
 20
38.698630
  0
VERTEX
  8
equipamento_cultural
 10
-9.424920
 20
38.698539
  0
VERTEX
  8
equipamento_cultural
 10
-9.425002
 20
38.698501
  0
VERTEX
  8
equipamento_cultural
 10
-9.425045
 20
38.698481
  0
VERTEX
  8
equipamento_cultural
 10
-9.425200
 20
38.698407
  0
VERTEX
  8
equipamento_cultural
 10
-9.425226
 20
38.698394
  0
VERTEX
  8
equipamento_cultural
 10
-9.425241
 20
38.698387
  0
VERTEX
  8
equipamento_cultural
 10
-9.425342
 20
38.698337
  0
VERTEX
  8
equipamento_cultural
 10
-9.425369
 20
38.698324
  0
VERTEX
  8
equipamento_cultural
 10
-9.425385
 20
38.698318
  0
VERTEX
  8
equipamento_cultural
 10
-9.425485
 20
38.698272
  0
VERTEX
  8
equipamento_cultural
 10
-9.425836
 20
38.698756
  0
VERTEX
  8
equipamento_cultural
 10
-9.425837
 20
38.698758
  0
VERTEX
  8
equipamento_cultural
 10
-9.425839
 20
38.698761
  0
VERTEX
  8
equipamento_cultural
 10
-9.425840
 20
38.698766
  0
VERTEX
  8
equipamento_cultural
 10
-9.425841
 20
38.698770
  0
VERTEX
  8
equipamento_cultural
 10
-9.425841
 20
38.698774
  0
VERTEX
  8
equipamento_cultural
 10
-9.425841
 20
38.698778
  0
VERTEX
  8
equipamento_cultural
 10
-9.425839
 20
38.698782
  0
VERTEX
  8
equipamento_cultural
 10
-9.425838
 20
38.698786
  0
VERTEX
  8
equipamento_cultural
 10
-9.425835
 20
38.698790
  0
VERTEX
  8
equipamento_cultural
 10
-9.425833
 20
38.698793
  0
VERTEX
  8
equipamento_cultural
 10
-9.425828
 20
38.698797
  0
VERTEX
  8
equipamento_cultural
 10
-9.425826
 20
38.698799
  0
VERTEX
  8
equipamento_cultural
 10
-9.425817
 20
38.698804
  0
VERTEX
  8
equipamento_cultural
 10
-9.425725
 20
38.698850
  0
VERTEX
  8
equipamento_cultural
 10
-9.425669
 20
38.698878
  0
VERTEX
  8
equipamento_cultural
 10
-9.425169
 20
38.699130
  0
VERTEX
  8
equipamento_cultural
 10
-9.425165
 20
38.699133
  0
VERTEX
  8
equipamento_cultural
 10
-9.425161
 20
38.699135
  0
VERTEX
  8
equipamento_cultural
 10
-9.425156
 20
38.699137
  0
VERTEX
  8
equipamento_cultural
 10
-9.425151
 20
38.699139
  0
VERTEX
  8
equipamento_cultural
 10
-9.425146
 20
38.699140
  0
VERTEX
  8
equipamento_cultural
 10
-9.425140
 20
38.699141
  0
VERTEX
  8
equipamento_cultural
 10
-9.425135
 20
38.699141
  0
VERTEX
  8
equipamento_cultural
 10
-9.425129
 20
38.699140
  0
VERTEX
  8
equipamento_cultural
 10
-9.425124
 20
38.699139
  0
VERTEX
  8
equipamento_cultural
 10
-9.425119
 20
38.699138
  0
VERTEX
  8
equipamento_cultural
 10
-9.425114
 20
38.699136
  0
VERTEX
  8
equipamento_cultural
 10
-9.425110
 20
38.699134
  0
VERTEX
  8
equipamento_cultural
 10
-9.425105
 20
38.699131
  0
VERTEX
  8
equipamento_cultural
 10
-9.425065
 20
38.699077
  0
SEQEND
  0
POINT
  8
equipamento_cultural
  6
BYLAYER
 10
-9.425295
 20
38.698710
 50
0.000000
  0
POLYLINE
  8
equipamento_cultural
  6
BYLAYER
 66
1
 70
1
 40
0.000000
 41
0.000000
  0
VERTEX
  8
equipamento_cultural
 10
-9.447652
 20
38.729862
  0
VERTEX
  8
equipamento_cultural
 10
-9.447576
 20
38.729885
  0
VERTEX
  8
equipamento_cultural
 10
-9.447488
 20
38.729913
  0
VERTEX
  8
equipamento_cultural
 10
-9.447384
 20
38.729945
  0
VERTEX
  8
equipamento_cultural
 10
-9.447296
 20
38.729972
  0
VERTEX
  8
equipamento_cultural
 10
-9.447217
 20
38.729995
  0
VERTEX
  8
equipamento_cultural
 10
-9.447147
 20
38.730018
  0
VERTEX
  8
equipamento_cultural
 10
-9.447130
 20
38.730025
  0
VERTEX
  8
equipamento_cultural
 10
-9.447124
 20
38.729991
  0
VERTEX
  8
equipamento_cultural
 10
-9.447120
 20
38.729968
  0
VERTEX
  8
equipamento_cultural
 10
-9.447112
 20
38.729923
  0
VERTEX
  8
equipamento_cultural
 10
-9.447090
 20
38.729771
  0
VERTEX
  8
equipamento_cultural
 10
-9.447074
 20
38.729666
  0
VERTEX
  8
equipamento_cultural
 10
-9.447063
 20
38.729591
  0
VERTEX
  8
equipamento_cultural
 10
-9.447059
 20
38.729563
  0
VERTEX
  8
equipamento_cultural
 10
-9.447058
 20
38.729553
  0
VERTEX
  8
equipamento_cultural
 10
-9.447181
 20
38.729544
  0
VERTEX
  8
equipamento_cultural
 10
-9.447331
 20
38.729534
  0
VERTEX
  8
equipamento_cultural
 10
-9.447476
 20
38.729524
  0
VERTEX
  8
equipamento_cultural
 10
-9.447528
 20
38.729521
  0
VERTEX
  8
equipamento_cultural
 10
-9.447563
 20
38.729517
  0
VERTEX
  8
equipamento_cultural
 10
-9.447581
 20
38.729587
  0
VERTEX
  8
equipamento_cultural
 10
-9.447601
 20
38.729663
  0
VERTEX
  8
equipamento_cultural
 10
-9.447637
 20
38.729808
  0
VERTEX
  8
equipamento_cultural
 10
-9.447652
 20
38.729862
  0
SEQEND
  0
POINT
  8
equipamento_cultural
  6
BYLAYER
 10
-9.447338
 20
38.729744
 50
0.000000
  0
POLYLINE
  8
equipamento_cultural
  6
BYLAYER
 66
1
 70
1
 40
0.000000
 41
0.000000
  0
VERTEX
  8
equipamento_cultural
 10
-9.338161
 20
38.702702
  0
VERTEX
  8
equipamento_cultural
 10
-9.337999
 20
38.702662
  0
VERTEX
  8
equipamento_cultural
 10
-9.337814
 20
38.702617
  0
VERTEX
  8
equipamento_cultural
 10
-9.337644
 20
38.702576
  0
VERTEX
  8
equipamento_cultural
 10
-9.337667
 20
38.702521
  0
VERTEX
  8
equipamento_cultural
 10
-9.337336
 20
38.702434
  0
VERTEX
  8
equipamento_cultural
 10
-9.337439
 20
38.702156
  0
VERTEX
  8
equipamento_cultural
 10
-9.337540
 20
38.702183
  0
VERTEX
  8
equipamento_cultural
 10
-9.337953
 20
38.702289
  0
VERTEX
  8
equipamento_cultural
 10
-9.338123
 20
38.702312
  0
VERTEX
  8
equipamento_cultural
 10
-9.338144
 20
38.702530
  0
VERTEX
  8
equipamento_cultural
 10
-9.338161
 20
38.702702
  0
SEQEND
  0
POINT
  8
equipamento_cultural
  6
BYLAYER
 10
-9.337781
 20
38.702420
 50
0.000000
  0
POLYLINE
  8
equipamento_cultural
  6
BYLAYER
 66
1
 70
1
 40
0.000000
 41
0.000000
  0
VERTEX
  8
equipamento_cultural
 10
-9.333404
 20
38.725341
  0
VERTEX
  8
equipamento_cultural
 10
-9.333050
 20
38.725553
  0
VERTEX
  8
equipamento_cultural
 10
-9.333037
 20
38.725546
  0
VERTEX
  8
equipamento_cultural
 10
-9.332753
 20
38.725605
  0
VERTEX
  8
equipamento_cultural
 10
-9.332745
 20
38.725535
  0
VERTEX
  8
equipamento_cultural
 10
-9.332776
 20
38.725524
  0
VERTEX
  8
equipamento_cultural
 10
-9.332786
 20
38.725466
  0
VERTEX
  8
equipamento_cultural
 10
-9.332833
 20
38.725346
  0
VERTEX
  8
equipamento_cultural
 10
-9.332939
 20
38.725216
  0
VERTEX
  8
equipamento_cultural
 10
-9.333057
 20
38.725117
  0
VERTEX
  8
equipamento_cultural
 10
-9.333080
 20
38.725122
  0
VERTEX
  8
equipamento_cultural
 10
-9.333199
 20
38.725224
  0
VERTEX
  8
equipamento_cultural
 10
-9.333240
 20
38.725192
  0
VERTEX
  8
equipamento_cultural
 10
-9.333404
 20
38.725341
  0
SEQEND
  0
POINT
  8
equipamento_cultural
  6
BYLAYER
 10
-9.333049
 20
38.725370
 50
0.000000
  0
POLYLINE
  8
equipamento_cultural
  6
BYLAYER
 66
1
 70
1
 40
0.000000
 41
0.000000
  0
VERTEX
  8
equipamento_cultural
 10
-9.416602
 20
38.712016
  0
VERTEX
  8
equipamento_cultural
 10
-9.416118
 20
38.712005
  0
VERTEX
  8
equipamento_cultural
 10
-9.416166
 20
38.711679
  0
VERTEX
  8
equipamento_cultural
 10
-9.416638
 20
38.711712
  0
VERTEX
  8
equipamento_cultural
 10
-9.416602
 20
38.712016
  0
SEQEND
  0
POINT
  8
equipamento_cultural
  6
BYLAYER
 10
-9.416378
 20
38.711854
 50
0.000000
  0
POLYLINE
  8
equipamento_cultural
  6
BYLAYER
 66
1
 70
1
 40
0.000000
 41
0.000000
  0
VERTEX
  8
equipamento_cultural
 10
-9.439611
 20
38.736992
  0
VERTEX
  8
equipamento_cultural
 10
-9.439590
 20
38.736988
  0
VERTEX
  8
equipamento_cultural
 10
-9.439459
 20
38.736969
  0
VERTEX
  8
equipamento_cultural
 10
-9.439391
 20
38.736957
  0
VERTEX
  8
equipamento_cultural
 10
-9.439354
 20
38.736950
  0
VERTEX
  8
equipamento_cultural
 10
-9.439316
 20
38.736945
  0
VERTEX
  8
equipamento_cultural
 10
-9.439278
 20
38.736942
  0
VERTEX
  8
equipamento_cultural
 10
-9.439241
 20
38.736942
  0
VERTEX
  8
equipamento_cultural
 10
-9.439203
 20
38.736945
  0
VERTEX
  8
equipamento_cultural
 10
-9.439190
 20
38.736946
  0
VERTEX
  8
equipamento_cultural
 10
-9.438858
 20
38.736983
  0
VERTEX
  8
equipamento_cultural
 10
-9.438848
 20
38.736934
  0
VERTEX
  8
equipamento_cultural
 10
-9.438844
 20
38.736911
  0
VERTEX
  8
equipamento_cultural
 10
-9.438835
 20
38.736867
  0
VERTEX
  8
equipamento_cultural
 10
-9.438813
 20
38.736731
  0
VERTEX
  8
equipamento_cultural
 10
-9.438794
 20
38.736623
  0
VERTEX
  8
equipamento_cultural
 10
-9.438790
 20
38.736585
  0
VERTEX
  8
equipamento_cultural
 10
-9.438791
 20
38.736548
  0
VERTEX
  8
equipamento_cultural
 10
-9.438796
 20
38.736510
  0
VERTEX
  8
equipamento_cultural
 10
-9.438805
 20
38.736473
  0
VERTEX
  8
equipamento_cultural
 10
-9.438817
 20
38.736439
  0
VERTEX
  8
equipamento_cultural
 10
-9.438830
 20
38.736413
  0
VERTEX
  8
equipamento_cultural
 10
-9.438845
 20
38.736388
  0
VERTEX
  8
equipamento_cultural
 10
-9.438863
 20
38.736364
  0
VERTEX
  8
equipamento_cultural
 10
-9.438883
 20
38.736342
  0
VERTEX
  8
equipamento_cultural
 10
-9.438914
 20
38.736315
  0
VERTEX
  8
equipamento_cultural
 10
-9.438973
 20
38.736262
  0
VERTEX
  8
equipamento_cultural
 10
-9.439107
 20
38.736164
  0
VERTEX
  8
equipamento_cultural
 10
-9.439160
 20
38.736126
  0
VERTEX
  8
equipamento_cultural
 10
-9.439192
 20
38.736148
  0
VERTEX
  8
equipamento_cultural
 10
-9.439214
 20
38.736164
  0
VERTEX
  8
equipamento_cultural
 10
-9.439234
 20
38.736178
  0
VERTEX
  8
equipamento_cultural
 10
-9.439328
 20
38.736246
  0
VERTEX
  8
equipamento_cultural
 10
-9.439554
 20
38.736404
  0
VERTEX
  8
equipamento_cultural
 10
-9.439597
 20
38.736439
  0
VERTEX
  8
equipamento_cultural
 10
-9.439692
 20
38.736516
  0
VERTEX
  8
equipamento_cultural
 10
-9.439715
 20
38.736770
  0
VERTEX
  8
equipamento_cultural
 10
-9.439611
 20
38.736992
  0
SEQEND
  0
POINT
  8
equipamento_cultural
  6
BYLAYER
 10
-9.439233
 20
38.736616
 50
0.000000
  0
POLYLINE
  8
equipamento_cultural
  6
BYLAYER
 66
1
 70
1
 40
0.000000
 41
0.000000
  0
VERTEX
  8
equipamento_cultural
 10
-9.378412
 20
38.699738
  0
VERTEX
  8
equipamento_cultural
 10
-9.378439
 20
38.699707
  0
VERTEX
  8
equipamento_cultural
 10
-9.378493
 20
38.699646
  0
VERTEX
  8
equipamento_cultural
 10
-9.378507
 20
38.699630
  0
VERTEX
  8
equipamento_cultural
 10
-9.378520
 20
38.699617
  0
VERTEX
  8
equipamento_cultural
 10
-9.378564
 20
38.699637
  0
VERTEX
  8
equipamento_cultural
 10
-9.378595
 20
38.699596
  0
VERTEX
  8
equipamento_cultural
 10
-9.378558
 20
38.699572
  0
VERTEX
  8
equipamento_cultural
 10
-9.378593
 20
38.699533
  0
VERTEX
  8
equipamento_cultural
 10
-9.378736
 20
38.699371
  0
VERTEX
  8
equipamento_cultural
 10
-9.378746
 20
38.699360
  0
VERTEX
  8
equipamento_cultural
 10
-9.378772
 20
38.699330
  0
VERTEX
  8
equipamento_cultural
 10
-9.378794
 20
38.699305
  0
VERTEX
  8
equipamento_cultural
 10
-9.379206
 20
38.699526
  0
VERTEX
  8
equipamento_cultural
 10
-9.379234
 20
38.699542
  0
VERTEX
  8
equipamento_cultural
 10
-9.379258
 20
38.699563
  0
VERTEX
  8
equipamento_cultural
 10
-9.379275
 20
38.699587
  0
VERTEX
  8
equipamento_cultural
 10
-9.379285
 20
38.699613
  0
VERTEX
  8
equipamento_cultural
 10
-9.379287
 20
38.699641
  0
VERTEX
  8
equipamento_cultural
 10
-9.379282
 20
38.699668
  0
VERTEX
  8
equipamento_cultural
 10
-9.379271
 20
38.699700
  0
VERTEX
  8
equipamento_cultural
 10
-9.379257
 20
38.699731
  0
VERTEX
  8
equipamento_cultural
 10
-9.379251
 20
38.699741
  0
VERTEX
  8
equipamento_cultural
 10
-9.379236
 20
38.699768
  0
VERTEX
  8
equipamento_cultural
 10
-9.379221
 20
38.699792
  0
VERTEX
  8
equipamento_cultural
 10
-9.379214
 20
38.699805
  0
VERTEX
  8
equipamento_cultural
 10
-9.379202
 20
38.699826
  0
VERTEX
  8
equipamento_cultural
 10
-9.379198
 20
38.699834
  0
VERTEX
  8
equipamento_cultural
 10
-9.379173
 20
38.699876
  0
VERTEX
  8
equipamento_cultural
 10
-9.379147
 20
38.699917
  0
VERTEX
  8
equipamento_cultural
 10
-9.379119
 20
38.699957
  0
VERTEX
  8
equipamento_cultural
 10
-9.379091
 20
38.699992
  0
VERTEX
  8
equipamento_cultural
 10
-9.379062
 20
38.700026
  0
VERTEX
  8
equipamento_cultural
 10
-9.379032
 20
38.700060
  0
VERTEX
  8
equipamento_cultural
 10
-9.379000
 20
38.700092
  0
VERTEX
  8
equipamento_cultural
 10
-9.378975
 20
38.700106
  0
VERTEX
  8
equipamento_cultural
 10
-9.378949
 20
38.700116
  0
VERTEX
  8
equipamento_cultural
 10
-9.378940
 20
38.700118
  0
VERTEX
  8
equipamento_cultural
 10
-9.378920
 20
38.700122
  0
VERTEX
  8
equipamento_cultural
 10
-9.378890
 20
38.700124
  0
VERTEX
  8
equipamento_cultural
 10
-9.378861
 20
38.700122
  0
VERTEX
  8
equipamento_cultural
 10
-9.378832
 20
38.700116
  0
VERTEX
  8
equipamento_cultural
 10
-9.378804
 20
38.700106
  0
VERTEX
  8
equipamento_cultural
 10
-9.378780
 20
38.700093
  0
VERTEX
  8
equipamento_cultural
 10
-9.378740
 20
38.700112
  0
VERTEX
  8
equipamento_cultural
 10
-9.378682
 20
38.700141
  0
VERTEX
  8
equipamento_cultural
 10
-9.378417
 20
38.699743
  0
VERTEX
  8
equipamento_cultural
 10
-9.378412
 20
38.699738
  0
SEQEND
  0
POINT
  8
equipamento_cultural
  6
BYLAYER
 10
-9.378860
 20
38.699740
 50
0.000000
  0
POLYLINE
  8
equipamento_cultural
  6
BYLAYER
 66
1
 70
1
 40
0.000000
 41
0.000000
  0
VERTEX
  8
equipamento_cultural
 10
-9.421670
 20
38.715888
  0
VERTEX
  8
equipamento_cultural
 10
-9.422118
 20
38.715508
  0
VERTEX
  8
equipamento_cultural
 10
-9.422457
 20
38.715770
  0
VERTEX
  8
equipamento_cultural
 10
-9.422432
 20
38.715914
  0
VERTEX
  8
equipamento_cultural
 10
-9.422441
 20
38.716117
  0
VERTEX
  8
equipamento_cultural
 10
-9.422415
 20
38.716117
  0
VERTEX
  8
equipamento_cultural
 10
-9.422306
 20
38.716124
  0
VERTEX
  8
equipamento_cultural
 10
-9.422242
 20
38.716128
  0
VERTEX
  8
equipamento_cultural
 10
-9.422112
 20
38.716136
  0
VERTEX
  8
equipamento_cultural
 10
-9.422045
 20
38.716140
  0
VERTEX
  8
equipamento_cultural
 10
-9.422011
 20
38.716142
  0
VERTEX
  8
equipamento_cultural
 10
-9.421670
 20
38.715888
  0
SEQEND
  0
POINT
  8
equipamento_cultural
  6
BYLAYER
 10
-9.422117
 20
38.715868
 50
0.000000
  0
POLYLINE
  8
equipamento_cultural
  6
BYLAYER
 66
1
 70
1
 40
0.000000
 41
0.000000
  0
VERTEX
  8
equipamento_cultural
 10
-9.385784
 20
38.707526
  0
VERTEX
  8
equipamento_cultural
 10
-9.384317
 20
38.707052
  0
VERTEX
  8
equipamento_cultural
 10
-9.384554
 20
38.706586
  0
VERTEX
  8
equipamento_cultural
 10
-9.386030
 20
38.707041
  0
VERTEX
  8
equipamento_cultural
 10
-9.385784
 20
38.707526
  0
SEQEND
  0
POINT
  8
equipamento_cultural
  6
BYLAYER
 10
-9.385176
 20
38.707053
 50
0.000000
  0
POLYLINE
  8
equipamento_cultural
  6
BYLAYER
 66
1
 70
1
 40
0.000000
 41
0.000000
  0
VERTEX
  8
equipamento_cultural
 10
-9.350609
 20
38.706740
  0
VERTEX
  8
equipamento_cultural
 10
-9.350282
 20
38.706064
  0
VERTEX
  8
equipamento_cultural
 10
-9.350128
 20
38.705742
  0
VERTEX
  8
equipamento_cultural
 10
-9.350203
 20
38.705711
  0
VERTEX
  8
equipamento_cultural
 10
-9.350384
 20
38.705623
  0
VERTEX
  8
equipamento_cultural
 10
-9.350927
 20
38.705377
  0
VERTEX
  8
equipamento_cultural
 10
-9.351085
 20
38.705305
  0
VERTEX
  8
equipamento_cultural
 10
-9.351527
 20
38.705104
  0
VERTEX
  8
equipamento_cultural
 10
-9.351705
 20
38.705319
  0
VERTEX
  8
equipamento_cultural
 10
-9.351951
 20
38.705547
  0
VERTEX
  8
equipamento_cultural
 10
-9.352148
 20
38.705697
  0
VERTEX
  8
equipamento_cultural
 10
-9.352484
 20
38.705911
  0
VERTEX
  8
equipamento_cultural
 10
-9.352427
 20
38.705984
  0
VERTEX
  8
equipamento_cultural
 10
-9.352362
 20
38.705971
  0
VERTEX
  8
equipamento_cultural
 10
-9.352318
 20
38.706021
  0
VERTEX
  8
equipamento_cultural
 10
-9.352230
 20
38.706048
  0
VERTEX
  8
equipamento_cultural
 10
-9.351831
 20
38.706390
  0
VERTEX
  8
equipamento_cultural
 10
-9.351777
 20
38.706400
  0
VERTEX
  8
equipamento_cultural
 10
-9.351701
 20
38.706426
  0
VERTEX
  8
equipamento_cultural
 10
-9.351320
 20
38.706535
  0
VERTEX
  8
equipamento_cultural
 10
-9.351362
 20
38.706620
  0
VERTEX
  8
equipamento_cultural
 10
-9.351046
 20
38.706714
  0
VERTEX
  8
equipamento_cultural
 10
-9.350948
 20
38.706586
  0
VERTEX
  8
equipamento_cultural
 10
-9.350930
 20
38.706713
  0
VERTEX
  8
equipamento_cultural
 10
-9.350827
 20
38.706702
  0
VERTEX
  8
equipamento_cultural
 10
-9.350782
 20
38.706760
  0
VERTEX
  8
equipamento_cultural
 10
-9.350609
 20
38.706740
  0
SEQEND
  0
POINT
  8
equipamento_cultural
  6
BYLAYER
 10
-9.351216
 20
38.705954
 50
0.000000
  0
POLYLINE
  8
equipamento_cultural
  6
BYLAYER
 66
1
 70
1
 40
0.000000
 41
0.000000
  0
VERTEX
  8
equipamento_cultural
 10
-9.436466
 20
38.704252
  0
VERTEX
  8
equipamento_cultural
 10
-9.436277
 20
38.704355
  0
VERTEX
  8
equipamento_cultural
 10
-9.435657
 20
38.704363
  0
VERTEX
  8
equipamento_cultural
 10
-9.435209
 20
38.704256
  0
VERTEX
  8
equipamento_cultural
 10
-9.435204
 20
38.704150
  0
VERTEX
  8
equipamento_cultural
 10
-9.435191
 20
38.703822
  0
VERTEX
  8
equipamento_cultural
 10
-9.435178
 20
38.703770
  0
VERTEX
  8
equipamento_cultural
 10
-9.435179
 20
38.703478
  0
VERTEX
  8
equipamento_cultural
 10
-9.435277
 20
38.703475
  0
VERTEX
  8
equipamento_cultural
 10
-9.435551
 20
38.703473
  0
VERTEX
  8
equipamento_cultural
 10
-9.435652
 20
38.703435
  0
VERTEX
  8
equipamento_cultural
 10
-9.435675
 20
38.703418
  0
VERTEX
  8
equipamento_cultural
 10
-9.435944
 20
38.703292
  0
VERTEX
  8
equipamento_cultural
 10
-9.435970
 20
38.703323
  0
VERTEX
  8
equipamento_cultural
 10
-9.435997
 20
38.703318
  0
VERTEX
  8
equipamento_cultural
 10
-9.436007
 20
38.703318
  0
VERTEX
  8
equipamento_cultural
 10
-9.436013
 20
38.703321
  0
VERTEX
  8
equipamento_cultural
 10
-9.436035
 20
38.703335
  0
VERTEX
  8
equipamento_cultural
 10
-9.436137
 20
38.703455
  0
VERTEX
  8
equipamento_cultural
 10
-9.436266
 20
38.703590
  0
VERTEX
  8
equipamento_cultural
 10
-9.436339
 20
38.703669
  0
VERTEX
  8
equipamento_cultural
 10
-9.436618
 20
38.703969
  0
VERTEX
  8
equipamento_cultural
 10
-9.436656
 20
38.704000
  0
VERTEX
  8
equipamento_cultural
 10
-9.436466
 20
38.704252
  0
SEQEND
  0
POINT
  8
equipamento_cultural
  6
BYLAYER
 10
-9.435838
 20
38.703896
 50
0.000000
  0
POLYLINE
  8
equipamento_cultural
  6
BYLAYER
 66
1
 70
1
 40
0.000000
 41
0.000000
  0
VERTEX
  8
equipamento_cultural
 10
-9.347348
 20
38.691509
  0
VERTEX
  8
equipamento_cultural
 10
-9.346365
 20
38.691836
  0
VERTEX
  8
equipamento_cultural
 10
-9.346018
 20
38.691942
  0
VERTEX
  8
equipamento_cultural
 10
-9.345935
 20
38.691824
  0
VERTEX
  8
equipamento_cultural
 10
-9.345803
 20
38.691561
  0
VERTEX
  8
equipamento_cultural
 10
-9.345732
 20
38.691466
  0
VERTEX
  8
equipamento_cultural
 10
-9.345545
 20
38.691258
  0
VERTEX
  8
equipamento_cultural
 10
-9.345329
 20
38.690865
  0
VERTEX
  8
equipamento_cultural
 10
-9.345313
 20
38.690838
  0
VERTEX
  8
equipamento_cultural
 10
-9.345273
 20
38.690762
  0
VERTEX
  8
equipamento_cultural
 10
-9.346165
 20
38.690466
  0
VERTEX
  8
equipamento_cultural
 10
-9.346174
 20
38.690463
  0
VERTEX
  8
equipamento_cultural
 10
-9.346196
 20
38.690462
  0
VERTEX
  8
equipamento_cultural
 10
-9.346218
 20
38.690465
  0
VERTEX
  8
equipamento_cultural
 10
-9.346233
 20
38.690470
  0
VERTEX
  8
equipamento_cultural
 10
-9.346261
 20
38.690486
  0
VERTEX
  8
equipamento_cultural
 10
-9.346281
 20
38.690494
  0
VERTEX
  8
equipamento_cultural
 10
-9.346331
 20
38.690505
  0
VERTEX
  8
equipamento_cultural
 10
-9.346368
 20
38.690510
  0
VERTEX
  8
equipamento_cultural
 10
-9.346421
 20
38.690508
  0
VERTEX
  8
equipamento_cultural
 10
-9.346456
 20
38.690504
  0
VERTEX
  8
equipamento_cultural
 10
-9.346524
 20
38.690486
  0
VERTEX
  8
equipamento_cultural
 10
-9.346721
 20
38.690420
  0
VERTEX
  8
equipamento_cultural
 10
-9.347276
 20
38.691391
  0
VERTEX
  8
equipamento_cultural
 10
-9.347348
 20
38.691509
  0
SEQEND
  0
POINT
  8
equipamento_cultural
  6
BYLAYER
 10
-9.346312
 20
38.691146
 50
0.000000
  0
POLYLINE
  8
equipamento_cultural
  6
BYLAYER
 66
1
 70
1
 40
0.000000
 41
0.000000
  0
VERTEX
  8
equipamento_cultural
 10
-9.410717
 20
38.721358
  0
VERTEX
  8
equipamento_cultural
 10
-9.410688
 20
38.721336
  0
VERTEX
  8
equipamento_cultural
 10
-9.410647
 20
38.721181
  0
VERTEX
  8
equipamento_cultural
 10
-9.410641
 20
38.721158
  0
VERTEX
  8
equipamento_cultural
 10
-9.410597
 20
38.720996
  0
VERTEX
  8
equipamento_cultural
 10
-9.410587
 20
38.720956
  0
VERTEX
  8
equipamento_cultural
 10
-9.410592
 20
38.720958
  0
VERTEX
  8
equipamento_cultural
 10
-9.410810
 20
38.720651
  0
VERTEX
  8
equipamento_cultural
 10
-9.410858
 20
38.720647
  0
VERTEX
  8
equipamento_cultural
 10
-9.411015
 20
38.720634
  0
VERTEX
  8
equipamento_cultural
 10
-9.411139
 20
38.720830
  0
VERTEX
  8
equipamento_cultural
 10
-9.411139
 20
38.720848
  0
VERTEX
  8
equipamento_cultural
 10
-9.411161
 20
38.721059
  0
VERTEX
  8
equipamento_cultural
 10
-9.411052
 20
38.721296
  0
VERTEX
  8
equipamento_cultural
 10
-9.410742
 20
38.721357
  0
VERTEX
  8
equipamento_cultural
 10
-9.410717
 20
38.721358
  0
SEQEND
  0
POINT
  8
equipamento_cultural
  6
BYLAYER
 10
-9.410885
 20
38.721002
 50
0.000000
  0
POLYLINE
  8
equipamento_cultural
  6
BYLAYER
 66
1
 70
1
 40
0.000000
 41
0.000000
  0
VERTEX
  8
equipamento_cultural
 10
-9.361225
 20
38.735067
  0
VERTEX
  8
equipamento_cultural
 10
-9.361229
 20
38.735081
  0
VERTEX
  8
equipamento_cultural
 10
-9.360975
 20
38.735125
  0
VERTEX
  8
equipamento_cultural
 10
-9.360939
 20
38.734960
  0
VERTEX
  8
equipamento_cultural
 10
-9.361181
 20
38.734919
  0
VERTEX
  8
equipamento_cultural
 10
-9.361190
 20
38.734952
  0
VERTEX
  8
equipamento_cultural
 10
-9.361225
 20
38.735067
  0
SEQEND
  0
POINT
  8
equipamento_cultural
  6
BYLAYER
 10
-9.361081
 20
38.735022
 50
0.000000
  0
POLYLINE
  8
equipamento_cultural
  6
BYLAYER
 66
1
 70
1
 40
0.000000
 41
0.000000
  0
VERTEX
  8
equipamento_cultural
 10
-9.401363
 20
38.705493
  0
VERTEX
  8
equipamento_cultural
 10
-9.401359
 20
38.705527
  0
VERTEX
  8
equipamento_cultural
 10
-9.401356
 20
38.705560
  0
VERTEX
  8
equipamento_cultural
 10
-9.401312
 20
38.705557
  0
VERTEX
  8
equipamento_cultural
 10
-9.401240
 20
38.705607
  0
VERTEX
  8
equipamento_cultural
 10
-9.401177
 20
38.705549
  0
VERTEX
  8
equipamento_cultural
 10
-9.401136
 20
38.705546
  0
VERTEX
  8
equipamento_cultural
 10
-9.401146
 20
38.705445
  0
VERTEX
  8
equipamento_cultural
 10
-9.401187
 20
38.705448
  0
VERTEX
  8
equipamento_cultural
 10
-9.401260
 20
38.705399
  0
VERTEX
  8
equipamento_cultural
 10
-9.401322
 20
38.705456
  0
VERTEX
  8
equipamento_cultural
 10
-9.401366
 20
38.705458
  0
VERTEX
  8
equipamento_cultural
 10
-9.401363
 20
38.705493
  0
SEQEND
  0
POINT
  8
equipamento_cultural
  6
BYLAYER
 10
-9.401251
 20
38.705502
 50
0.000000
  0
POLYLINE
  8
equipamento_cultural
  6
BYLAYER
 66
1
 70
1
 40
0.000000
 41
0.000000
  0
VERTEX
  8
equipamento_cultural
 10
-9.429603
 20
38.702183
  0
VERTEX
  8
equipamento_cultural
 10
-9.429355
 20
38.701771
  0
VERTEX
  8
equipamento_cultural
 10
-9.429582
 20
38.701685
  0
VERTEX
  8
equipamento_cultural
 10
-9.429832
 20
38.702098
  0
VERTEX
  8
equipamento_cultural
 10
-9.429603
 20
38.702183
  0
SEQEND
  0
POINT
  8
equipamento_cultural
  6
BYLAYER
 10
-9.429593
 20
38.701934
 50
0.000000
  0
POLYLINE
  8
equipamento_cultural
  6
BYLAYER
 66
1
 70
1
 40
0.000000
 41
0.000000
  0
VERTEX
  8
equipamento_cultural
 10
-9.434221
 20
38.695499
  0
VERTEX
  8
equipamento_cultural
 10
-9.434295
 20
38.695567
  0
VERTEX
  8
equipamento_cultural
 10
-9.434600
 20
38.695846
  0
VERTEX
  8
equipamento_cultural
 10
-9.434680
 20
38.695921
  0
VERTEX
  8
equipamento_cultural
 10
-9.434740
 20
38.695977
  0
VERTEX
  8
equipamento_cultural
 10
-9.434800
 20
38.696034
  0
VERTEX
  8
equipamento_cultural
 10
-9.434873
 20
38.696105
  0
VERTEX
  8
equipamento_cultural
 10
-9.434897
 20
38.696129
  0
VERTEX
  8
equipamento_cultural
 10
-9.434916
 20
38.696149
  0
VERTEX
  8
equipamento_cultural
 10
-9.434939
 20
38.696173
  0
VERTEX
  8
equipamento_cultural
 10
-9.434962
 20
38.696199
  0
VERTEX
  8
equipamento_cultural
 10
-9.434991
 20
38.696233
  0
VERTEX
  8
equipamento_cultural
 10
-9.435027
 20
38.696275
  0
VERTEX
  8
equipamento_cultural
 10
-9.435059
 20
38.696315
  0
VERTEX
  8
equipamento_cultural
 10
-9.435101
 20
38.696366
  0
VERTEX
  8
equipamento_cultural
 10
-9.435130
 20
38.696402
  0
VERTEX
  8
equipamento_cultural
 10
-9.435182
 20
38.696469
  0
VERTEX
  8
equipamento_cultural
 10
-9.435200
 20
38.696494
  0
VERTEX
  8
equipamento_cultural
 10
-9.435214
 20
38.696514
  0
VERTEX
  8
equipamento_cultural
 10
-9.435224
 20
38.696528
  0
VERTEX
  8
equipamento_cultural
 10
-9.435227
 20
38.696534
  0
VERTEX
  8
equipamento_cultural
 10
-9.435229
 20
38.696537
  0
VERTEX
  8
equipamento_cultural
 10
-9.435231
 20
38.696543
  0
VERTEX
  8
equipamento_cultural
 10
-9.435232
 20
38.696548
  0
VERTEX
  8
equipamento_cultural
 10
-9.435234
 20
38.696561
  0
VERTEX
  8
equipamento_cultural
 10
-9.435235
 20
38.696569
  0
VERTEX
  8
equipamento_cultural
 10
-9.435235
 20
38.696578
  0
VERTEX
  8
equipamento_cultural
 10
-9.435234
 20
38.696594
  0
VERTEX
  8
equipamento_cultural
 10
-9.435233
 20
38.696600
  0
VERTEX
  8
equipamento_cultural
 10
-9.435231
 20
38.696610
  0
VERTEX
  8
equipamento_cultural
 10
-9.435227
 20
38.696623
  0
VERTEX
  8
equipamento_cultural
 10
-9.435225
 20
38.696628
  0
VERTEX
  8
equipamento_cultural
 10
-9.435220
 20
38.696640
  0
VERTEX
  8
equipamento_cultural
 10
-9.435216
 20
38.696647
  0
VERTEX
  8
equipamento_cultural
 10
-9.435207
 20
38.696661
  0
VERTEX
  8
equipamento_cultural
 10
-9.435203
 20
38.696666
  0
VERTEX
  8
equipamento_cultural
 10
-9.435196
 20
38.696675
  0
VERTEX
  8
equipamento_cultural
 10
-9.435188
 20
38.696683
  0
VERTEX
  8
equipamento_cultural
 10
-9.435181
 20
38.696691
  0
VERTEX
  8
equipamento_cultural
 10
-9.435173
 20
38.696699
  0
VERTEX
  8
equipamento_cultural
 10
-9.435164
 20
38.696706
  0
VERTEX
  8
equipamento_cultural
 10
-9.435159
 20
38.696710
  0
VERTEX
  8
equipamento_cultural
 10
-9.435151
 20
38.696715
  0
VERTEX
  8
equipamento_cultural
 10
-9.435146
 20
38.696718
  0
VERTEX
  8
equipamento_cultural
 10
-9.435131
 20
38.696725
  0
VERTEX
  8
equipamento_cultural
 10
-9.435122
 20
38.696729
  0
VERTEX
  8
equipamento_cultural
 10
-9.435030
 20
38.696768
  0
VERTEX
  8
equipamento_cultural
 10
-9.434737
 20
38.696899
  0
VERTEX
  8
equipamento_cultural
 10
-9.434480
 20
38.697013
  0
VERTEX
  8
equipamento_cultural
 10
-9.434468
 20
38.697018
  0
VERTEX
  8
equipamento_cultural
 10
-9.434420
 20
38.697032
  0
VERTEX
  8
equipamento_cultural
 10
-9.434399
 20
38.697035
  0
VERTEX
  8
equipamento_cultural
 10
-9.434386
 20
38.697036
  0
VERTEX
  8
equipamento_cultural
 10
-9.434372
 20
38.697036
  0
VERTEX
  8
equipamento_cultural
 10
-9.434368
 20
38.697036
  0
VERTEX
  8
equipamento_cultural
 10
-9.434025
 20
38.697023
  0
VERTEX
  8
equipamento_cultural
 10
-9.433932
 20
38.697019
  0
VERTEX
  8
equipamento_cultural
 10
-9.433902
 20
38.697017
  0
VERTEX
  8
equipamento_cultural
 10
-9.433891
 20
38.697017
  0
VERTEX
  8
equipamento_cultural
 10
-9.433847
 20
38.697015
  0
VERTEX
  8
equipamento_cultural
 10
-9.433804
 20
38.697009
  0
VERTEX
  8
equipamento_cultural
 10
-9.433797
 20
38.697008
  0
VERTEX
  8
equipamento_cultural
 10
-9.433790
 20
38.697006
  0
VERTEX
  8
equipamento_cultural
 10
-9.433733
 20
38.696967
  0
VERTEX
  8
equipamento_cultural
 10
-9.433656
 20
38.697008
  0
VERTEX
  8
equipamento_cultural
 10
-9.433576
 20
38.696968
  0
VERTEX
  8
equipamento_cultural
 10
-9.433317
 20
38.696836
  0
VERTEX
  8
equipamento_cultural
 10
-9.433085
 20
38.696721
  0
VERTEX
  8
equipamento_cultural
 10
-9.433087
 20
38.696717
  0
VERTEX
  8
equipamento_cultural
 10
-9.433044
 20
38.696696
  0
VERTEX
  8
equipamento_cultural
 10
-9.433023
 20
38.696670
  0
VERTEX
  8
equipamento_cultural
 10
-9.432703
 20
38.696292
  0
VERTEX
  8
equipamento_cultural
 10
-9.432814
 20
38.696236
  0
VERTEX
  8
equipamento_cultural
 10
-9.433642
 20
38.695804
  0
VERTEX
  8
equipamento_cultural
 10
-9.434221
 20
38.695499
  0
SEQEND
  0
POINT
  8
equipamento_cultural
  6
BYLAYER
 10
-9.434029
 20
38.696375
 50
0.000000
  0
POLYLINE
  8
equipamento_cultural
  6
BYLAYER
 66
1
 70
1
 40
0.000000
 41
0.000000
  0
VERTEX
  8
equipamento_cultural
 10
-9.383987
 20
38.703419
  0
VERTEX
  8
equipamento_cultural
 10
-9.383960
 20
38.703423
  0
VERTEX
  8
equipamento_cultural
 10
-9.383854
 20
38.703419
  0
VERTEX
  8
equipamento_cultural
 10
-9.383797
 20
38.703396
  0
VERTEX
  8
equipamento_cultural
 10
-9.383780
 20
38.703387
  0
VERTEX
  8
equipamento_cultural
 10
-9.383729
 20
38.703363
  0
VERTEX
  8
equipamento_cultural
 10
-9.383715
 20
38.703357
  0
VERTEX
  8
equipamento_cultural
 10
-9.383678
 20
38.703344
  0
VERTEX
  8
equipamento_cultural
 10
-9.383633
 20
38.703331
  0
VERTEX
  8
equipamento_cultural
 10
-9.383570
 20
38.703325
  0
VERTEX
  8
equipamento_cultural
 10
-9.383468
 20
38.703331
  0
VERTEX
  8
equipamento_cultural
 10
-9.383414
 20
38.703304
  0
VERTEX
  8
equipamento_cultural
 10
-9.383418
 20
38.703204
  0
VERTEX
  8
equipamento_cultural
 10
-9.383167
 20
38.703191
  0
VERTEX
  8
equipamento_cultural
 10
-9.382942
 20
38.703003
  0
VERTEX
  8
equipamento_cultural
 10
-9.382952
 20
38.702869
  0
VERTEX
  8
equipamento_cultural
 10
-9.383013
 20
38.702869
  0
VERTEX
  8
equipamento_cultural
 10
-9.382900
 20
38.702773
  0
VERTEX
  8
equipamento_cultural
 10
-9.382839
 20
38.702770
  0
VERTEX
  8
equipamento_cultural
 10
-9.382874
 20
38.702488
  0
VERTEX
  8
equipamento_cultural
 10
-9.383542
 20
38.702533
  0
VERTEX
  8
equipamento_cultural
 10
-9.384012
 20
38.702549
  0
VERTEX
  8
equipamento_cultural
 10
-9.384710
 20
38.702524
  0
VERTEX
  8
equipamento_cultural
 10
-9.384645
 20
38.703242
  0
VERTEX
  8
equipamento_cultural
 10
-9.384612
 20
38.703279
  0
VERTEX
  8
equipamento_cultural
 10
-9.383987
 20
38.703419
  0
SEQEND
  0
POINT
  8
equipamento_cultural
  6
BYLAYER
 10
-9.383829
 20
38.702913
 50
0.000000
  0
POLYLINE
  8
equipamento_cultural
  6
BYLAYER
 66
1
 70
1
 40
0.000000
 41
0.000000
  0
VERTEX
  8
equipamento_cultural
 10
-9.351672
 20
38.695583
  0
VERTEX
  8
equipamento_cultural
 10
-9.352653
 20
38.695514
  0
VERTEX
  8
equipamento_cultural
 10
-9.352753
 20
38.696359
  0
VERTEX
  8
equipamento_cultural
 10
-9.352761
 20
38.696414
  0
VERTEX
  8
equipamento_cultural
 10
-9.352827
 20
38.697002
  0
VERTEX
  8
equipamento_cultural
 10
-9.351940
 20
38.697136
  0
VERTEX
  8
equipamento_cultural
 10
-9.351913
 20
38.696900
  0
VERTEX
  8
equipamento_cultural
 10
-9.351894
 20
38.696721
  0
VERTEX
  8
equipamento_cultural
 10
-9.351840
 20
38.696064
  0
VERTEX
  8
equipamento_cultural
 10
-9.351837
 20
38.696035
  0
VERTEX
  8
equipamento_cultural
 10
-9.351672
 20
38.695583
  0
SEQEND
  0
POINT
  8
equipamento_cultural
  6
BYLAYER
 10
-9.352289
 20
38.696301
 50
0.000000
  0
POLYLINE
  8
equipamento_cultural
  6
BYLAYER
 66
1
 70
1
 40
0.000000
 41
0.000000
  0
VERTEX
  8
equipamento_cultural
 10
-9.340460
 20
38.717534
  0
VERTEX
  8
equipamento_cultural
 10
-9.340348
 20
38.717579
  0
VERTEX
  8
equipamento_cultural
 10
-9.340323
 20
38.717589
  0
VERTEX
  8
equipamento_cultural
 10
-9.340294
 20
38.717545
  0
VERTEX
  8
equipamento_cultural
 10
-9.340280
 20
38.717524
  0
VERTEX
  8
equipamento_cultural
 10
-9.340238
 20
38.717541
  0
VERTEX
  8
equipamento_cultural
 10
-9.340168
 20
38.717570
  0
VERTEX
  8
equipamento_cultural
 10
-9.340151
 20
38.717577
  0
VERTEX
  8
equipamento_cultural
 10
-9.340051
 20
38.717619
  0
VERTEX
  8
equipamento_cultural
 10
-9.340005
 20
38.717552
  0
VERTEX
  8
equipamento_cultural
 10
-9.339990
 20
38.717529
  0
VERTEX
  8
equipamento_cultural
 10
-9.339967
 20
38.717496
  0
VERTEX
  8
equipamento_cultural
 10
-9.339951
 20
38.717472
  0
VERTEX
  8
equipamento_cultural
 10
-9.339897
 20
38.717394
  0
VERTEX
  8
equipamento_cultural
 10
-9.339844
 20
38.717315
  0
VERTEX
  8
equipamento_cultural
 10
-9.339655
 20
38.717055
  0
VERTEX
  8
equipamento_cultural
 10
-9.339636
 20
38.717030
  0
VERTEX
  8
equipamento_cultural
 10
-9.339687
 20
38.716595
  0
VERTEX
  8
equipamento_cultural
 10
-9.339704
 20
38.716441
  0
VERTEX
  8
equipamento_cultural
 10
-9.339708
 20
38.716390
  0
VERTEX
  8
equipamento_cultural
 10
-9.339711
 20
38.716340
  0
VERTEX
  8
equipamento_cultural
 10
-9.339707
 20
38.716289
  0
VERTEX
  8
equipamento_cultural
 10
-9.339700
 20
38.716241
  0
VERTEX
  8
equipamento_cultural
 10
-9.339686
 20
38.716189
  0
VERTEX
  8
equipamento_cultural
 10
-9.339678
 20
38.716165
  0
VERTEX
  8
equipamento_cultural
 10
-9.339663
 20
38.716130
  0
VERTEX
  8
equipamento_cultural
 10
-9.339641
 20
38.716091
  0
VERTEX
  8
equipamento_cultural
 10
-9.339608
 20
38.716045
  0
VERTEX
  8
equipamento_cultural
 10
-9.339562
 20
38.715992
  0
VERTEX
  8
equipamento_cultural
 10
-9.339440
 20
38.715873
  0
VERTEX
  8
equipamento_cultural
 10
-9.339327
 20
38.715764
  0
VERTEX
  8
equipamento_cultural
 10
-9.339285
 20
38.715723
  0
VERTEX
  8
equipamento_cultural
 10
-9.339296
 20
38.715721
  0
VERTEX
  8
equipamento_cultural
 10
-9.339471
 20
38.715694
  0
VERTEX
  8
equipamento_cultural
 10
-9.339523
 20
38.715685
  0
VERTEX
  8
equipamento_cultural
 10
-9.339562
 20
38.715679
  0
VERTEX
  8
equipamento_cultural
 10
-9.339588
 20
38.715675
  0
VERTEX
  8
equipamento_cultural
 10
-9.339716
 20
38.715655
  0
VERTEX
  8
equipamento_cultural
 10
-9.339762
 20
38.715648
  0
VERTEX
  8
equipamento_cultural
 10
-9.339789
 20
38.715644
  0
VERTEX
  8
equipamento_cultural
 10
-9.339905
 20
38.715626
  0
VERTEX
  8
equipamento_cultural
 10
-9.339953
 20
38.715616
  0
VERTEX
  8
equipamento_cultural
 10
-9.340016
 20
38.715604
  0
VERTEX
  8
equipamento_cultural
 10
-9.340036
 20
38.715600
  0
VERTEX
  8
equipamento_cultural
 10
-9.340110
 20
38.715695
  0
VERTEX
  8
equipamento_cultural
 10
-9.340121
 20
38.715709
  0
VERTEX
  8
equipamento_cultural
 10
-9.340171
 20
38.715773
  0
VERTEX
  8
equipamento_cultural
 10
-9.340204
 20
38.715815
  0
VERTEX
  8
equipamento_cultural
 10
-9.340226
 20
38.715844
  0
VERTEX
  8
equipamento_cultural
 10
-9.340288
 20
38.715926
  0
VERTEX
  8
equipamento_cultural
 10
-9.340355
 20
38.716016
  0
VERTEX
  8
equipamento_cultural
 10
-9.340404
 20
38.716080
  0
VERTEX
  8
equipamento_cultural
 10
-9.340432
 20
38.716117
  0
VERTEX
  8
equipamento_cultural
 10
-9.340459
 20
38.716153
  0
VERTEX
  8
equipamento_cultural
 10
-9.340467
 20
38.716164
  0
VERTEX
  8
equipamento_cultural
 10
-9.340508
 20
38.716217
  0
VERTEX
  8
equipamento_cultural
 10
-9.340520
 20
38.716233
  0
VERTEX
  8
equipamento_cultural
 10
-9.340548
 20
38.716270
  0
VERTEX
  8
equipamento_cultural
 10
-9.340674
 20
38.716436
  0
VERTEX
  8
equipamento_cultural
 10
-9.340763
 20
38.716552
  0
VERTEX
  8
equipamento_cultural
 10
-9.340801
 20
38.716603
  0
VERTEX
  8
equipamento_cultural
 10
-9.340826
 20
38.716635
  0
VERTEX
  8
equipamento_cultural
 10
-9.340877
 20
38.716702
  0
VERTEX
  8
equipamento_cultural
 10
-9.341013
 20
38.716880
  0
VERTEX
  8
equipamento_cultural
 10
-9.341062
 20
38.716944
  0
VERTEX
  8
equipamento_cultural
 10
-9.341082
 20
38.716977
  0
VERTEX
  8
equipamento_cultural
 10
-9.341109
 20
38.717022
  0
VERTEX
  8
equipamento_cultural
 10
-9.341129
 20
38.717054
  0
VERTEX
  8
equipamento_cultural
 10
-9.341152
 20
38.717092
  0
VERTEX
  8
equipamento_cultural
 10
-9.341232
 20
38.717225
  0
VERTEX
  8
equipamento_cultural
 10
-9.341128
 20
38.717265
  0
VERTEX
  8
equipamento_cultural
 10
-9.341062
 20
38.717248
  0
VERTEX
  8
equipamento_cultural
 10
-9.341034
 20
38.717260
  0
VERTEX
  8
equipamento_cultural
 10
-9.340990
 20
38.717278
  0
VERTEX
  8
equipamento_cultural
 10
-9.340943
 20
38.717297
  0
VERTEX
  8
equipamento_cultural
 10
-9.340856
 20
38.717333
  0
VERTEX
  8
equipamento_cultural
 10
-9.340838
 20
38.717382
  0
VERTEX
  8
equipamento_cultural
 10
-9.340788
 20
38.717402
  0
VERTEX
  8
equipamento_cultural
 10
-9.340507
 20
38.717515
  0
VERTEX
  8
equipamento_cultural
 10
-9.340460
 20
38.717534
  0
SEQEND
  0
POINT
  8
equipamento_cultural
  6
BYLAYER
 10
-9.340222
 20
38.716674
 50
0.000000
  0
POLYLINE
  8
equipamento_cultural
  6
BYLAYER
 66
1
 70
1
 40
0.000000
 41
0.000000
  0
VERTEX
  8
equipamento_cultural
 10
-9.403863
 20
38.733767
  0
VERTEX
  8
equipamento_cultural
 10
-9.404659
 20
38.733717
  0
VERTEX
  8
equipamento_cultural
 10
-9.405203
 20
38.733678
  0
VERTEX
  8
equipamento_cultural
 10
-9.405278
 20
38.734121
  0
VERTEX
  8
equipamento_cultural
 10
-9.405335
 20
38.734464
  0
VERTEX
  8
equipamento_cultural
 10
-9.405356
 20
38.734524
  0
VERTEX
  8
equipamento_cultural
 10
-9.405411
 20
38.734862
  0
VERTEX
  8
equipamento_cultural
 10
-9.405431
 20
38.734980
  0
VERTEX
  8
equipamento_cultural
 10
-9.405475
 20
38.735246
  0
VERTEX
  8
equipamento_cultural
 10
-9.404428
 20
38.735354
  0
VERTEX
  8
equipamento_cultural
 10
-9.404164
 20
38.735326
  0
VERTEX
  8
equipamento_cultural
 10
-9.404142
 20
38.735317
  0
VERTEX
  8
equipamento_cultural
 10
-9.404122
 20
38.735298
  0
VERTEX
  8
equipamento_cultural
 10
-9.404117
 20
38.735286
  0
VERTEX
  8
equipamento_cultural
 10
-9.403978
 20
38.734439
  0
VERTEX
  8
equipamento_cultural
 10
-9.403943
 20
38.734222
  0
VERTEX
  8
equipamento_cultural
 10
-9.403876
 20
38.733838
  0
VERTEX
  8
equipamento_cultural
 10
-9.403863
 20
38.733767
  0
SEQEND
  0
POINT
  8
equipamento_cultural
  6
BYLAYER
 10
-9.404669
 20
38.734518
 50
0.000000
  0
POLYLINE
  8
equipamento_cultural
  6
BYLAYER
 66
1
 70
1
 40
0.000000
 41
0.000000
  0
VERTEX
  8
equipamento_cultural
 10
-9.415507
 20
38.702573
  0
VERTEX
  8
equipamento_cultural
 10
-9.415496
 20
38.702576
  0
VERTEX
  8
equipamento_cultural
 10
-9.415379
 20
38.702568
  0
VERTEX
  8
equipamento_cultural
 10
-9.415359
 20
38.702567
  0
VERTEX
  8
equipamento_cultural
 10
-9.415360
 20
38.702589
  0
VERTEX
  8
equipamento_cultural
 10
-9.415237
 20
38.702584
  0
VERTEX
  8
equipamento_cultural
 10
-9.415219
 20
38.702584
  0
VERTEX
  8
equipamento_cultural
 10
-9.415218
 20
38.702573
  0
VERTEX
  8
equipamento_cultural
 10
-9.415213
 20
38.702572
  0
VERTEX
  8
equipamento_cultural
 10
-9.415212
 20
38.702560
  0
VERTEX
  8
equipamento_cultural
 10
-9.415202
 20
38.702554
  0
VERTEX
  8
equipamento_cultural
 10
-9.415202
 20
38.702541
  0
VERTEX
  8
equipamento_cultural
 10
-9.415208
 20
38.702536
  0
VERTEX
  8
equipamento_cultural
 10
-9.415193
 20
38.702400
  0
VERTEX
  8
equipamento_cultural
 10
-9.415185
 20
38.702358
  0
VERTEX
  8
equipamento_cultural
 10
-9.415197
 20
38.702357
  0
VERTEX
  8
equipamento_cultural
 10
-9.415256
 20
38.702354
  0
VERTEX
  8
equipamento_cultural
 10
-9.415340
 20
38.702350
  0
VERTEX
  8
equipamento_cultural
 10
-9.415426
 20
38.702345
  0
VERTEX
  8
equipamento_cultural
 10
-9.415435
 20
38.702344
  0
VERTEX
  8
equipamento_cultural
 10
-9.415505
 20
38.702340
  0
VERTEX
  8
equipamento_cultural
 10
-9.415527
 20
38.702374
  0
VERTEX
  8
equipamento_cultural
 10
-9.415560
 20
38.702425
  0
VERTEX
  8
equipamento_cultural
 10
-9.415576
 20
38.702449
  0
VERTEX
  8
equipamento_cultural
 10
-9.415568
 20
38.702452
  0
VERTEX
  8
equipamento_cultural
 10
-9.415580
 20
38.702469
  0
VERTEX
  8
equipamento_cultural
 10
-9.415542
 20
38.702485
  0
VERTEX
  8
equipamento_cultural
 10
-9.415528
 20
38.702564
  0
VERTEX
  8
equipamento_cultural
 10
-9.415507
 20
38.702573
  0
SEQEND
  0
POINT
  8
equipamento_cultural
  6
BYLAYER
 10
-9.415372
 20
38.702462
 50
0.000000
  0
POLYLINE
  8
equipamento_cultural
  6
BYLAYER
 66
1
 70
1
 40
0.000000
 41
0.000000
  0
VERTEX
  8
equipamento_cultural
 10
-9.396310
 20
38.703544
  0
VERTEX
  8
equipamento_cultural
 10
-9.396202
 20
38.703544
  0
VERTEX
  8
equipamento_cultural
 10
-9.396198
 20
38.703580
  0
VERTEX
  8
equipamento_cultural
 10
-9.396174
 20
38.703580
  0
VERTEX
  8
equipamento_cultural
 10
-9.396117
 20
38.703581
  0
VERTEX
  8
equipamento_cultural
 10
-9.396120
 20
38.703565
  0
VERTEX
  8
equipamento_cultural
 10
-9.396129
 20
38.703519
  0
VERTEX
  8
equipamento_cultural
 10
-9.396137
 20
38.703519
  0
VERTEX
  8
equipamento_cultural
 10
-9.396280
 20
38.703516
  0
VERTEX
  8
equipamento_cultural
 10
-9.396307
 20
38.703515
  0
VERTEX
  8
equipamento_cultural
 10
-9.396310
 20
38.703544
  0
SEQEND
  0
POINT
  8
equipamento_cultural
  6
BYLAYER
 10
-9.396197
 20
38.703542
 50
0.000000
  0
POLYLINE
  8
equipamento_cultural
  6
BYLAYER
 66
1
 70
1
 40
0.000000
 41
0.000000
  0
VERTEX
  8
equipamento_cultural
 10
-9.421353
 20
38.690478
  0
VERTEX
  8
equipamento_cultural
 10
-9.421356
 20
38.690477
  0
VERTEX
  8
equipamento_cultural
 10
-9.421375
 20
38.690591
  0
VERTEX
  8
equipamento_cultural
 10
-9.421391
 20
38.690767
  0
VERTEX
  8
equipamento_cultural
 10
-9.421406
 20
38.690863
  0
VERTEX
  8
equipamento_cultural
 10
-9.421415
 20
38.690876
  0
VERTEX
  8
equipamento_cultural
 10
-9.421371
 20
38.690905
  0
VERTEX
  8
equipamento_cultural
 10
-9.421365
 20
38.690909
  0
VERTEX
  8
equipamento_cultural
 10
-9.421256
 20
38.690885
  0
VERTEX
  8
equipamento_cultural
 10
-9.421248
 20
38.690795
  0
VERTEX
  8
equipamento_cultural
 10
-9.421041
 20
38.690731
  0
VERTEX
  8
equipamento_cultural
 10
-9.421015
 20
38.690535
  0
VERTEX
  8
equipamento_cultural
 10
-9.420982
 20
38.690465
  0
VERTEX
  8
equipamento_cultural
 10
-9.420962
 20
38.690421
  0
VERTEX
  8
equipamento_cultural
 10
-9.420939
 20
38.690381
  0
VERTEX
  8
equipamento_cultural
 10
-9.420990
 20
38.690367
  0
VERTEX
  8
equipamento_cultural
 10
-9.421241
 20
38.690273
  0
VERTEX
  8
equipamento_cultural
 10
-9.421253
 20
38.690281
  0
VERTEX
  8
equipamento_cultural
 10
-9.421322
 20
38.690422
  0
VERTEX
  8
equipamento_cultural
 10
-9.421353
 20
38.690478
  0
SEQEND
  0
POINT
  8
equipamento_cultural
  6
BYLAYER
 10
-9.421201
 20
38.690575
 50
0.000000
  0
POLYLINE
  8
equipamento_cultural
  6
BYLAYER
 66
1
 70
1
 40
0.000000
 41
0.000000
  0
VERTEX
  8
equipamento_cultural
 10
-9.396112
 20
38.708993
  0
VERTEX
  8
equipamento_cultural
 10
-9.395808
 20
38.709017
  0
VERTEX
  8
equipamento_cultural
 10
-9.395783
 20
38.708808
  0
VERTEX
  8
equipamento_cultural
 10
-9.395710
 20
38.708195
  0
VERTEX
  8
equipamento_cultural
 10
-9.395676
 20
38.707884
  0
VERTEX
  8
equipamento_cultural
 10
-9.395613
 20
38.707328
  0
VERTEX
  8
equipamento_cultural
 10
-9.395626
 20
38.707258
  0
VERTEX
  8
equipamento_cultural
 10
-9.395663
 20
38.707255
  0
VERTEX
  8
equipamento_cultural
 10
-9.395732
 20
38.707214
  0
VERTEX
  8
equipamento_cultural
 10
-9.395760
 20
38.707212
  0
VERTEX
  8
equipamento_cultural
 10
-9.395863
 20
38.707212
  0
VERTEX
  8
equipamento_cultural
 10
-9.395989
 20
38.707202
  0
VERTEX
  8
equipamento_cultural
 10
-9.396003
 20
38.707310
  0
VERTEX
  8
equipamento_cultural
 10
-9.395947
 20
38.707314
  0
VERTEX
  8
equipamento_cultural
 10
-9.395950
 20
38.707339
  0
VERTEX
  8
equipamento_cultural
 10
-9.395970
 20
38.707337
  0
VERTEX
  8
equipamento_cultural
 10
-9.395973
 20
38.707363
  0
VERTEX
  8
equipamento_cultural
 10
-9.395952
 20
38.707365
  0
VERTEX
  8
equipamento_cultural
 10
-9.395956
 20
38.707394
  0
VERTEX
  8
equipamento_cultural
 10
-9.396025
 20
38.707389
  0
VERTEX
  8
equipamento_cultural
 10
-9.396032
 20
38.707444
  0
VERTEX
  8
equipamento_cultural
 10
-9.396061
 20
38.707442
  0
VERTEX
  8
equipamento_cultural
 10
-9.396064
 20
38.707469
  0
VERTEX
  8
equipamento_cultural
 10
-9.396134
 20
38.707464
  0
VERTEX
  8
equipamento_cultural
 10
-9.396143
 20
38.707544
  0
VERTEX
  8
equipamento_cultural
 10
-9.396130
 20
38.707544
  0
VERTEX
  8
equipamento_cultural
 10
-9.396165
 20
38.707823
  0
VERTEX
  8
equipamento_cultural
 10
-9.396131
 20
38.708115
  0
VERTEX
  8
equipamento_cultural
 10
-9.396152
 20
38.708428
  0
VERTEX
  8
equipamento_cultural
 10
-9.396153
 20
38.708542
  0
VERTEX
  8
equipamento_cultural
 10
-9.396116
 20
38.708777
  0
VERTEX
  8
equipamento_cultural
 10
-9.396109
 20
38.708855
  0
VERTEX
  8
equipamento_cultural
 10
-9.396105
 20
38.708919
  0
VERTEX
  8
equipamento_cultural
 10
-9.396112
 20
38.708993
  0
SEQEND
  0
POINT
  8
equipamento_cultural
  6
BYLAYER
 10
-9.395911
 20
38.708069
 50
0.000000
  0
POLYLINE
  8
equipamento_cultural
  6
BYLAYER
 66
1
 70
1
 40
0.000000
 41
0.000000
  0
VERTEX
  8
equipamento_cultural
 10
-9.400760
 20
38.737501
  0
VERTEX
  8
equipamento_cultural
 10
-9.400926
 20
38.737591
  0
VERTEX
  8
equipamento_cultural
 10
-9.401015
 20
38.738004
  0
VERTEX
  8
equipamento_cultural
 10
-9.400889
 20
38.738047
  0
VERTEX
  8
equipamento_cultural
 10
-9.400725
 20
38.738105
  0
VERTEX
  8
equipamento_cultural
 10
-9.400661
 20
38.737833
  0
VERTEX
  8
equipamento_cultural
 10
-9.400577
 20
38.737793
  0
VERTEX
  8
equipamento_cultural
 10
-9.400515
 20
38.737535
  0
VERTEX
  8
equipamento_cultural
 10
-9.400760
 20
38.737501
  0
SEQEND
  0
POINT
  8
equipamento_cultural
  6
BYLAYER
 10
-9.400777
 20
38.737777
 50
0.000000
  0
POLYLINE
  8
equipamento_cultural
  6
BYLAYER
 66
1
 70
1
 40
0.000000
 41
0.000000
  0
VERTEX
  8
equipamento_cultural
 10
-9.470095
 20
38.700322
  0
VERTEX
  8
equipamento_cultural
 10
-9.470054
 20
38.700318
  0
VERTEX
  8
equipamento_cultural
 10
-9.470068
 20
38.700194
  0
VERTEX
  8
equipamento_cultural
 10
-9.469442
 20
38.700162
  0
VERTEX
  8
equipamento_cultural
 10
-9.469390
 20
38.700264
  0
VERTEX
  8
equipamento_cultural
 10
-9.468923
 20
38.700126
  0
VERTEX
  8
equipamento_cultural
 10
-9.468972
 20
38.700023
  0
VERTEX
  8
equipamento_cultural
 10
-9.468449
 20
38.699705
  0
VERTEX
  8
equipamento_cultural
 10
-9.468429
 20
38.699691
  0
VERTEX
  8
equipamento_cultural
 10
-9.468398
 20
38.699725
  0
VERTEX
  8
equipamento_cultural
 10
-9.468328
 20
38.699686
  0
VERTEX
  8
equipamento_cultural
 10
-9.468249
 20
38.699774
  0
VERTEX
  8
equipamento_cultural
 10
-9.467925
 20
38.699579
  0
VERTEX
  8
equipamento_cultural
 10
-9.468168
 20
38.699355
  0
VERTEX
  8
equipamento_cultural
 10
-9.468367
 20
38.699517
  0
VERTEX
  8
equipamento_cultural
 10
-9.468369
 20
38.699640
  0
VERTEX
  8
equipamento_cultural
 10
-9.468450
 20
38.699668
  0
VERTEX
  8
equipamento_cultural
 10
-9.468483
 20
38.699684
  0
VERTEX
  8
equipamento_cultural
 10
-9.469001
 20
38.700000
  0
VERTEX
  8
equipamento_cultural
 10
-9.468954
 20
38.700102
  0
VERTEX
  8
equipamento_cultural
 10
-9.469388
 20
38.700231
  0
VERTEX
  8
equipamento_cultural
 10
-9.469437
 20
38.700127
  0
VERTEX
  8
equipamento_cultural
 10
-9.470112
 20
38.700164
  0
VERTEX
  8
equipamento_cultural
 10
-9.470104
 20
38.700242
  0
VERTEX
  8
equipamento_cultural
 10
-9.470095
 20
38.700322
  0
SEQEND
  0
POINT
  8
equipamento_cultural
  6
BYLAYER
 10
-9.468616
 20
38.699766
 50
0.000000
  0
POLYLINE
  8
equipamento_cultural
  6
BYLAYER
 66
1
 70
1
 40
0.000000
 41
0.000000
  0
VERTEX
  8
equipamento_cultural
 10
-9.333753
 20
38.724099
  0
VERTEX
  8
equipamento_cultural
 10
-9.333464
 20
38.724116
  0
VERTEX
  8
equipamento_cultural
 10
-9.333448
 20
38.723966
  0
VERTEX
  8
equipamento_cultural
 10
-9.333738
 20
38.723942
  0
VERTEX
  8
equipamento_cultural
 10
-9.333753
 20
38.724099
  0
SEQEND
  0
POINT
  8
equipamento_cultural
  6
BYLAYER
 10
-9.333602
 20
38.724030
 50
0.000000
  0
POLYLINE
  8
equipamento_cultural
  6
BYLAYER
 66
1
 70
1
 40
0.000000
 41
0.000000
  0
VERTEX
  8
equipamento_cultural
 10
-9.394967
 20
38.733136
  0
VERTEX
  8
equipamento_cultural
 10
-9.394810
 20
38.733185
  0
VERTEX
  8
equipamento_cultural
 10
-9.394713
 20
38.732983
  0
VERTEX
  8
equipamento_cultural
 10
-9.394870
 20
38.732937
  0
VERTEX
  8
equipamento_cultural
 10
-9.394967
 20
38.733136
  0
SEQEND
  0
POINT
  8
equipamento_cultural
  6
BYLAYER
 10
-9.394840
 20
38.733060
 50
0.000000
  0
POLYLINE
  8
equipamento_cultural
  6
BYLAYER
 66
1
 70
1
 40
0.000000
 41
0.000000
  0
VERTEX
  8
equipamento_cultural
 10
-9.339185
 20
38.736251
  0
VERTEX
  8
equipamento_cultural
 10
-9.339084
 20
38.736229
  0
VERTEX
  8
equipamento_cultural
 10
-9.339023
 20
38.736213
  0
VERTEX
  8
equipamento_cultural
 10
-9.339051
 20
38.736122
  0
VERTEX
  8
equipamento_cultural
 10
-9.339093
 20
38.735998
  0
VERTEX
  8
equipamento_cultural
 10
-9.339264
 20
38.736042
  0
VERTEX
  8
equipamento_cultural
 10
-9.339223
 20
38.736158
  0
VERTEX
  8
equipamento_cultural
 10
-9.339185
 20
38.736251
  0
SEQEND
  0
POINT
  8
equipamento_cultural
  6
BYLAYER
 10
-9.339142
 20
38.736125
 50
0.000000
  0
POLYLINE
  8
equipamento_cultural
  6
BYLAYER
 66
1
 70
1
 40
0.000000
 41
0.000000
  0
VERTEX
  8
equipamento_cultural
 10
-9.409574
 20
38.732175
  0
VERTEX
  8
equipamento_cultural
 10
-9.409462
 20
38.732134
  0
VERTEX
  8
equipamento_cultural
 10
-9.409529
 20
38.732028
  0
VERTEX
  8
equipamento_cultural
 10
-9.409641
 20
38.732076
  0
VERTEX
  8
equipamento_cultural
 10
-9.409574
 20
38.732175
  0
SEQEND
  0
POINT
  8
equipamento_cultural
  6
BYLAYER
 10
-9.409551
 20
38.732102
 50
0.000000
  0
POLYLINE
  8
equipamento_cultural
  6
BYLAYER
 66
1
 70
1
 40
0.000000
 41
0.000000
  0
VERTEX
  8
equipamento_cultural
 10
-9.419434
 20
38.698319
  0
VERTEX
  8
equipamento_cultural
 10
-9.419320
 20
38.698387
  0
VERTEX
  8
equipamento_cultural
 10
-9.419289
 20
38.698354
  0
VERTEX
  8
equipamento_cultural
 10
-9.419402
 20
38.698286
  0
VERTEX
  8
equipamento_cultural
 10
-9.419434
 20
38.698319
  0
SEQEND
  0
POINT
  8
equipamento_cultural
  6
BYLAYER
 10
-9.419362
 20
38.698337
 50
0.000000
  0
POLYLINE
  8
equipamento_cultural
  6
BYLAYER
 66
1
 70
1
 40
0.000000
 41
0.000000
  0
VERTEX
  8
equipamento_cultural
 10
-9.341805
 20
38.701365
  0
VERTEX
  8
equipamento_cultural
 10
-9.341742
 20
38.701382
  0
VERTEX
  8
equipamento_cultural
 10
-9.341718
 20
38.701389
  0
VERTEX
  8
equipamento_cultural
 10
-9.341715
 20
38.701383
  0
VERTEX
  8
equipamento_cultural
 10
-9.341702
 20
38.701357
  0
VERTEX
  8
equipamento_cultural
 10
-9.341615
 20
38.701380
  0
VERTEX
  8
equipamento_cultural
 10
-9.341588
 20
38.701387
  0
VERTEX
  8
equipamento_cultural
 10
-9.341585
 20
38.701380
  0
VERTEX
  8
equipamento_cultural
 10
-9.341557
 20
38.701315
  0
VERTEX
  8
equipamento_cultural
 10
-9.341875
 20
38.701227
  0
VERTEX
  8
equipamento_cultural
 10
-9.341906
 20
38.701299
  0
VERTEX
  8
equipamento_cultural
 10
-9.341789
 20
38.701331
  0
VERTEX
  8
equipamento_cultural
 10
-9.341805
 20
38.701365
  0
SEQEND
  0
POINT
  8
equipamento_cultural
  6
BYLAYER
 10
-9.341734
 20
38.701313
 50
0.000000
  0
POLYLINE
  8
equipamento_cultural
  6
BYLAYER
 66
1
 70
1
 40
0.000000
 41
0.000000
  0
VERTEX
  8
equipamento_cultural
 10
-9.391556
 20
38.703520
  0
VERTEX
  8
equipamento_cultural
 10
-9.391491
 20
38.703783
  0
VERTEX
  8
equipamento_cultural
 10
-9.391145
 20
38.703730
  0
VERTEX
  8
equipamento_cultural
 10
-9.391210
 20
38.703468
  0
VERTEX
  8
equipamento_cultural
 10
-9.391556
 20
38.703520
  0
SEQEND
  0
POINT
  8
equipamento_cultural
  6
BYLAYER
 10
-9.391350
 20
38.703625
 50
0.000000
  0
POLYLINE
  8
equipamento_cultural
  6
BYLAYER
 66
1
 70
1
 40
0.000000
 41
0.000000
  0
VERTEX
  8
equipamento_cultural
 10
-9.399037
 20
38.738138
  0
VERTEX
  8
equipamento_cultural
 10
-9.399106
 20
38.738609
  0
VERTEX
  8
equipamento_cultural
 10
-9.398841
 20
38.738620
  0
VERTEX
  8
equipamento_cultural
 10
-9.398742
 20
38.738189
  0
VERTEX
  8
equipamento_cultural
 10
-9.399037
 20
38.738138
  0
SEQEND
  0
POINT
  8
equipamento_cultural
  6
BYLAYER
 10
-9.398932
 20
38.738384
 50
0.000000
  0
POLYLINE
  8
equipamento_cultural
  6
BYLAYER
 66
1
 70
1
 40
0.000000
 41
0.000000
  0
VERTEX
  8
equipamento_cultural
 10
-9.353938
 20
38.690144
  0
VERTEX
  8
equipamento_cultural
 10
-9.353936
 20
38.690095
  0
VERTEX
  8
equipamento_cultural
 10
-9.354030
 20
38.690087
  0
VERTEX
  8
equipamento_cultural
 10
-9.354036
 20
38.690139
  0
VERTEX
  8
equipamento_cultural
 10
-9.353938
 20
38.690144
  0
SEQEND
  0
POINT
  8
equipamento_cultural
  6
BYLAYER
 10
-9.353986
 20
38.690116
 50
0.000000
  0
POLYLINE
  8
equipamento_cultural
  6
BYLAYER
 66
1
 70
1
 40
0.000000
 41
0.000000
  0
VERTEX
  8
equipamento_cultural
 10
-9.397453
 20
38.703754
  0
VERTEX
  8
equipamento_cultural
 10
-9.397382
 20
38.703797
  0
VERTEX
  8
equipamento_cultural
 10
-9.397285
 20
38.703705
  0
VERTEX
  8
equipamento_cultural
 10
-9.397347
 20
38.703668
  0
VERTEX
  8
equipamento_cultural
 10
-9.397453
 20
38.703754
  0
SEQEND
  0
POINT
  8
equipamento_cultural
  6
BYLAYER
 10
-9.397368
 20
38.703732
 50
0.000000
  0
POLYLINE
  8
equipamento_cultural
  6
BYLAYER
 66
1
 70
1
 40
0.000000
 41
0.000000
  0
VERTEX
  8
equipamento_cultural
 10
-9.419309
 20
38.699541
  0
VERTEX
  8
equipamento_cultural
 10
-9.419185
 20
38.699620
  0
VERTEX
  8
equipamento_cultural
 10
-9.419012
 20
38.699458
  0
VERTEX
  8
equipamento_cultural
 10
-9.419139
 20
38.699391
  0
VERTEX
  8
equipamento_cultural
 10
-9.419309
 20
38.699541
  0
SEQEND
  0
POINT
  8
equipamento_cultural
  6
BYLAYER
 10
-9.419161
 20
38.699504
 50
0.000000
  0
POLYLINE
  8
equipamento_cultural
  6
BYLAYER
 66
1
 70
1
 40
0.000000
 41
0.000000
  0
VERTEX
  8
equipamento_cultural
 10
-9.423470
 20
38.699247
  0
VERTEX
  8
equipamento_cultural
 10
-9.423316
 20
38.699331
  0
VERTEX
  8
equipamento_cultural
 10
-9.423276
 20
38.699277
  0
VERTEX
  8
equipamento_cultural
 10
-9.423421
 20
38.699189
  0
VERTEX
  8
equipamento_cultural
 10
-9.423470
 20
38.699247
  0
SEQEND
  0
POINT
  8
equipamento_cultural
  6
BYLAYER
 10
-9.423372
 20
38.699260
 50
0.000000
  0
POLYLINE
  8
equipamento_cultural
  6
BYLAYER
 66
1
 70
1
 40
0.000000
 41
0.000000
  0
VERTEX
  8
equipamento_cultural
 10
-9.417938
 20
38.700063
  0
VERTEX
  8
equipamento_cultural
 10
-9.418002
 20
38.700118
  0
VERTEX
  8
equipamento_cultural
 10
-9.418045
 20
38.700157
  0
VERTEX
  8
equipamento_cultural
 10
-9.417996
 20
38.700217
  0
VERTEX
  8
equipamento_cultural
 10
-9.417957
 20
38.700187
  0
VERTEX
  8
equipamento_cultural
 10
-9.417937
 20
38.700199
  0
VERTEX
  8
equipamento_cultural
 10
-9.417853
 20
38.700131
  0
VERTEX
  8
equipamento_cultural
 10
-9.417892
 20
38.700100
  0
VERTEX
  8
equipamento_cultural
 10
-9.417938
 20
38.700063
  0
SEQEND
  0
POINT
  8
equipamento_cultural
  6
BYLAYER
 10
-9.417952
 20
38.700142
 50
0.000000
  0
POLYLINE
  8
equipamento_cultural
  6
BYLAYER
 66
1
 70
1
 40
0.000000
 41
0.000000
  0
VERTEX
  8
equipamento_cultural
 10
-9.378732
 20
38.746195
  0
VERTEX
  8
equipamento_cultural
 10
-9.378696
 20
38.746122
  0
VERTEX
  8
equipamento_cultural
 10
-9.378805
 20
38.746090
  0
VERTEX
  8
equipamento_cultural
 10
-9.378843
 20
38.746163
  0
VERTEX
  8
equipamento_cultural
 10
-9.378732
 20
38.746195
  0
SEQEND
  0
POINT
  8
equipamento_cultural
  6
BYLAYER
 10
-9.378769
 20
38.746143
 50
0.000000
  0
POLYLINE
  8
equipamento_cultural
  6
BYLAYER
 66
1
 70
1
 40
0.000000
 41
0.000000
  0
VERTEX
  8
equipamento_cultural
 10
-9.386986
 20
38.708437
  0
VERTEX
  8
equipamento_cultural
 10
-9.386955
 20
38.708516
  0
VERTEX
  8
equipamento_cultural
 10
-9.386796
 20
38.708475
  0
VERTEX
  8
equipamento_cultural
 10
-9.386822
 20
38.708399
  0
VERTEX
  8
equipamento_cultural
 10
-9.386877
 20
38.708408
  0
VERTEX
  8
equipamento_cultural
 10
-9.386867
 20
38.708437
  0
VERTEX
  8
equipamento_cultural
 10
-9.386921
 20
38.708450
  0
VERTEX
  8
equipamento_cultural
 10
-9.386933
 20
38.708424
  0
VERTEX
  8
equipamento_cultural
 10
-9.386986
 20
38.708437
  0
SEQEND
  0
POINT
  8
equipamento_cultural
  6
BYLAYER
 10
-9.386889
 20
38.708460
 50
0.000000
  0
POLYLINE
  8
equipamento_cultural
  6
BYLAYER
 66
1
 70
1
 40
0.000000
 41
0.000000
  0
VERTEX
  8
equipamento_cultural
 10
-9.390694
 20
38.734811
  0
VERTEX
  8
equipamento_cultural
 10
-9.390761
 20
38.734948
  0
VERTEX
  8
equipamento_cultural
 10
-9.390664
 20
38.734979
  0
VERTEX
  8
equipamento_cultural
 10
-9.390597
 20
38.734843
  0
VERTEX
  8
equipamento_cultural
 10
-9.390694
 20
38.734811
  0
SEQEND
  0
POINT
  8
equipamento_cultural
  6
BYLAYER
 10
-9.390679
 20
38.734895
 50
0.000000
  0
POLYLINE
  8
equipamento_cultural
  6
BYLAYER
 66
1
 70
1
 40
0.000000
 41
0.000000
  0
VERTEX
  8
equipamento_cultural
 10
-9.410270
 20
38.709665
  0
VERTEX
  8
equipamento_cultural
 10
-9.410165
 20
38.709652
  0
VERTEX
  8
equipamento_cultural
 10
-9.410189
 20
38.709488
  0
VERTEX
  8
equipamento_cultural
 10
-9.410297
 20
38.709505
  0
VERTEX
  8
equipamento_cultural
 10
-9.410270
 20
38.709665
  0
SEQEND
  0
POINT
  8
equipamento_cultural
  6
BYLAYER
 10
-9.410230
 20
38.709577
 50
0.000000
  0
POLYLINE
  8
equipamento_cultural
  6
BYLAYER
 66
1
 70
1
 40
0.000000
 41
0.000000
  0
VERTEX
  8
equipamento_cultural
 10
-9.409599
 20
38.731272
  0
VERTEX
  8
equipamento_cultural
 10
-9.409452
 20
38.731247
  0
VERTEX
  8
equipamento_cultural
 10
-9.409468
 20
38.731132
  0
VERTEX
  8
equipamento_cultural
 10
-9.409622
 20
38.731155
  0
VERTEX
  8
equipamento_cultural
 10
-9.409599
 20
38.731272
  0
SEQEND
  0
POINT
  8
equipamento_cultural
  6
BYLAYER
 10
-9.409536
 20
38.731201
 50
0.000000
  0
POLYLINE
  8
equipamento_cultural
  6
BYLAYER
 66
1
 70
1
 40
0.000000
 41
0.000000
  0
VERTEX
  8
equipamento_cultural
 10
-9.421917
 20
38.692082
  0
VERTEX
  8
equipamento_cultural
 10
-9.421919
 20
38.692088
  0
VERTEX
  8
equipamento_cultural
 10
-9.421938
 20
38.692145
  0
VERTEX
  8
equipamento_cultural
 10
-9.421908
 20
38.692151
  0
VERTEX
  8
equipamento_cultural
 10
-9.421873
 20
38.692158
  0
VERTEX
  8
equipamento_cultural
 10
-9.421863
 20
38.692127
  0
VERTEX
  8
equipamento_cultural
 10
-9.421858
 20
38.692113
  0
VERTEX
  8
equipamento_cultural
 10
-9.421836
 20
38.692118
  0
VERTEX
  8
equipamento_cultural
 10
-9.421815
 20
38.692122
  0
VERTEX
  8
equipamento_cultural
 10
-9.421811
 20
38.692110
  0
VERTEX
  8
equipamento_cultural
 10
-9.421803
 20
38.692085
  0
VERTEX
  8
equipamento_cultural
 10
-9.421764
 20
38.692093
  0
VERTEX
  8
equipamento_cultural
 10
-9.421673
 20
38.692112
  0
VERTEX
  8
equipamento_cultural
 10
-9.421697
 20
38.692183
  0
VERTEX
  8
equipamento_cultural
 10
-9.421593
 20
38.692204
  0
VERTEX
  8
equipamento_cultural
 10
-9.421595
 20
38.692208
  0
VERTEX
  8
equipamento_cultural
 10
-9.421595
 20
38.692212
  0
VERTEX
  8
equipamento_cultural
 10
-9.421595
 20
38.692216
  0
VERTEX
  8
equipamento_cultural
 10
-9.421593
 20
38.692220
  0
VERTEX
  8
equipamento_cultural
 10
-9.421590
 20
38.692223
  0
VERTEX
  8
equipamento_cultural
 10
-9.421587
 20
38.692226
  0
VERTEX
  8
equipamento_cultural
 10
-9.421582
 20
38.692229
  0
VERTEX
  8
equipamento_cultural
 10
-9.421577
 20
38.692230
  0
VERTEX
  8
equipamento_cultural
 10
-9.421572
 20
38.692231
  0
VERTEX
  8
equipamento_cultural
 10
-9.421567
 20
38.692230
  0
VERTEX
  8
equipamento_cultural
 10
-9.421562
 20
38.692229
  0
VERTEX
  8
equipamento_cultural
 10
-9.421557
 20
38.692227
  0
VERTEX
  8
equipamento_cultural
 10
-9.421553
 20
38.692224
  0
VERTEX
  8
equipamento_cultural
 10
-9.421550
 20
38.692221
  0
VERTEX
  8
equipamento_cultural
 10
-9.421548
 20
38.692217
  0
VERTEX
  8
equipamento_cultural
 10
-9.421547
 20
38.692213
  0
VERTEX
  8
equipamento_cultural
 10
-9.421477
 20
38.692227
  0
VERTEX
  8
equipamento_cultural
 10
-9.421460
 20
38.692176
  0
VERTEX
  8
equipamento_cultural
 10
-9.421421
 20
38.692184
  0
VERTEX
  8
equipamento_cultural
 10
-9.421409
 20
38.692148
  0
VERTEX
  8
equipamento_cultural
 10
-9.421445
 20
38.692140
  0
VERTEX
  8
equipamento_cultural
 10
-9.421442
 20
38.692127
  0
VERTEX
  8
equipamento_cultural
 10
-9.421438
 20
38.692127
  0
VERTEX
  8
equipamento_cultural
 10
-9.421425
 20
38.692082
  0
VERTEX
  8
equipamento_cultural
 10
-9.421429
 20
38.692081
  0
VERTEX
  8
equipamento_cultural
 10
-9.421429
 20
38.692077
  0
VERTEX
  8
equipamento_cultural
 10
-9.421429
 20
38.692074
  0
VERTEX
  8
equipamento_cultural
 10
-9.421430
 20
38.692071
  0
VERTEX
  8
equipamento_cultural
 10
-9.421431
 20
38.692070
  0
VERTEX
  8
equipamento_cultural
 10
-9.421433
 20
38.692067
  0
VERTEX
  8
equipamento_cultural
 10
-9.421436
 20
38.692064
  0
VERTEX
  8
equipamento_cultural
 10
-9.421440
 20
38.692062
  0
VERTEX
  8
equipamento_cultural
 10
-9.421444
 20
38.692061
  0
VERTEX
  8
equipamento_cultural
 10
-9.421448
 20
38.692059
  0
VERTEX
  8
equipamento_cultural
 10
-9.421453
 20
38.692059
  0
VERTEX
  8
equipamento_cultural
 10
-9.421462
 20
38.692060
  0
VERTEX
  8
equipamento_cultural
 10
-9.421471
 20
38.692059
  0
VERTEX
  8
equipamento_cultural
 10
-9.421450
 20
38.691988
  0
VERTEX
  8
equipamento_cultural
 10
-9.421443
 20
38.691964
  0
VERTEX
  8
equipamento_cultural
 10
-9.421456
 20
38.691962
  0
VERTEX
  8
equipamento_cultural
 10
-9.421480
 20
38.691958
  0
VERTEX
  8
equipamento_cultural
 10
-9.421505
 20
38.691953
  0
VERTEX
  8
equipamento_cultural
 10
-9.421529
 20
38.691949
  0
VERTEX
  8
equipamento_cultural
 10
-9.421542
 20
38.691946
  0
VERTEX
  8
equipamento_cultural
 10
-9.421548
 20
38.691967
  0
VERTEX
  8
equipamento_cultural
 10
-9.421550
 20
38.691973
  0
VERTEX
  8
equipamento_cultural
 10
-9.421553
 20
38.691982
  0
VERTEX
  8
equipamento_cultural
 10
-9.421556
 20
38.691991
  0
VERTEX
  8
equipamento_cultural
 10
-9.421556
 20
38.691994
  0
VERTEX
  8
equipamento_cultural
 10
-9.421563
 20
38.691993
  0
VERTEX
  8
equipamento_cultural
 10
-9.421584
 20
38.691989
  0
VERTEX
  8
equipamento_cultural
 10
-9.421610
 20
38.691984
  0
VERTEX
  8
equipamento_cultural
 10
-9.421635
 20
38.691980
  0
VERTEX
  8
equipamento_cultural
 10
-9.421673
 20
38.691973
  0
VERTEX
  8
equipamento_cultural
 10
-9.421728
 20
38.691963
  0
VERTEX
  8
equipamento_cultural
 10
-9.421725
 20
38.691951
  0
VERTEX
  8
equipamento_cultural
 10
-9.421739
 20
38.691927
  0
VERTEX
  8
equipamento_cultural
 10
-9.421758
 20
38.691923
  0
VERTEX
  8
equipamento_cultural
 10
-9.421782
 20
38.691933
  0
VERTEX
  8
equipamento_cultural
 10
-9.421797
 20
38.691930
  0
VERTEX
  8
equipamento_cultural
 10
-9.421803
 20
38.691946
  0
VERTEX
  8
equipamento_cultural
 10
-9.421828
 20
38.691940
  0
VERTEX
  8
equipamento_cultural
 10
-9.421832
 20
38.691952
  0
VERTEX
  8
equipamento_cultural
 10
-9.421883
 20
38.691940
  0
VERTEX
  8
equipamento_cultural
 10
-9.421894
 20
38.691973
  0
VERTEX
  8
equipamento_cultural
 10
-9.421907
 20
38.692012
  0
VERTEX
  8
equipamento_cultural
 10
-9.421913
 20
38.692027
  0
VERTEX
  8
equipamento_cultural
 10
-9.421921
 20
38.692051
  0
VERTEX
  8
equipamento_cultural
 10
-9.421928
 20
38.692070
  0
VERTEX
  8
equipamento_cultural
 10
-9.421922
 20
38.692071
  0
VERTEX
  8
equipamento_cultural
 10
-9.421914
 20
38.692073
  0
VERTEX
  8
equipamento_cultural
 10
-9.421917
 20
38.692082
  0
SEQEND
  0
POINT
  8
equipamento_cultural
  6
BYLAYER
 10
-9.421659
 20
38.692069
 50
0.000000
  0
POLYLINE
  8
equipamento_cultural
  6
BYLAYER
 66
1
 70
1
 40
0.000000
 41
0.000000
  0
VERTEX
  8
equipamento_cultural
 10
-9.405393
 20
38.710097
  0
VERTEX
  8
equipamento_cultural
 10
-9.405379
 20
38.710098
  0
VERTEX
  8
equipamento_cultural
 10
-9.405365
 20
38.710100
  0
VERTEX
  8
equipamento_cultural
 10
-9.405299
 20
38.710106
  0
VERTEX
  8
equipamento_cultural
 10
-9.405273
 20
38.710109
  0
VERTEX
  8
equipamento_cultural
 10
-9.405273
 20
38.710109
  0
VERTEX
  8
equipamento_cultural
 10
-9.405232
 20
38.710113
  0
VERTEX
  8
equipamento_cultural
 10
-9.405250
 20
38.710219
  0
VERTEX
  8
equipamento_cultural
 10
-9.405179
 20
38.710226
  0
VERTEX
  8
equipamento_cultural
 10
-9.405161
 20
38.710228
  0
VERTEX
  8
equipamento_cultural
 10
-9.405147
 20
38.710145
  0
VERTEX
  8
equipamento_cultural
 10
-9.405114
 20
38.710149
  0
VERTEX
  8
equipamento_cultural
 10
-9.405100
 20
38.710067
  0
VERTEX
  8
equipamento_cultural
 10
-9.405139
 20
38.710063
  0
VERTEX
  8
equipamento_cultural
 10
-9.405135
 20
38.710042
  0
VERTEX
  8
equipamento_cultural
 10
-9.405145
 20
38.710041
  0
VERTEX
  8
equipamento_cultural
 10
-9.405207
 20
38.710034
  0
VERTEX
  8
equipamento_cultural
 10
-9.405211
 20
38.710055
  0
VERTEX
  8
equipamento_cultural
 10
-9.405266
 20
38.710050
  0
VERTEX
  8
equipamento_cultural
 10
-9.405292
 20
38.710047
  0
VERTEX
  8
equipamento_cultural
 10
-9.405355
 20
38.710040
  0
VERTEX
  8
equipamento_cultural
 10
-9.405369
 20
38.710039
  0
VERTEX
  8
equipamento_cultural
 10
-9.405382
 20
38.710037
  0
VERTEX
  8
equipamento_cultural
 10
-9.405393
 20
38.710097
  0
SEQEND
  0
POINT
  8
equipamento_cultural
  6
BYLAYER
 10
-9.405223
 20
38.710111
 50
0.000000
  0
POLYLINE
  8
equipamento_cultural
  6
BYLAYER
 66
1
 70
1
 40
0.000000
 41
0.000000
  0
VERTEX
  8
equipamento_cultural
 10
-9.423738
 20
38.695184
  0
VERTEX
  8
equipamento_cultural
 10
-9.423740
 20
38.695193
  0
VERTEX
  8
equipamento_cultural
 10
-9.423697
 20
38.695199
  0
VERTEX
  8
equipamento_cultural
 10
-9.423695
 20
38.695192
  0
VERTEX
  8
equipamento_cultural
 10
-9.423648
 20
38.695196
  0
VERTEX
  8
equipamento_cultural
 10
-9.423560
 20
38.695293
  0
VERTEX
  8
equipamento_cultural
 10
-9.423549
 20
38.695305
  0
VERTEX
  8
equipamento_cultural
 10
-9.423497
 20
38.695280
  0
VERTEX
  8
equipamento_cultural
 10
-9.423504
 20
38.695301
  0
VERTEX
  8
equipamento_cultural
 10
-9.423487
 20
38.695322
  0
VERTEX
  8
equipamento_cultural
 10
-9.423441
 20
38.695328
  0
VERTEX
  8
equipamento_cultural
 10
-9.423418
 20
38.695313
  0
VERTEX
  8
equipamento_cultural
 10
-9.423414
 20
38.695288
  0
VERTEX
  8
equipamento_cultural
 10
-9.423380
 20
38.695325
  0
VERTEX
  8
equipamento_cultural
 10
-9.423377
 20
38.695328
  0
VERTEX
  8
equipamento_cultural
 10
-9.423271
 20
38.695266
  0
VERTEX
  8
equipamento_cultural
 10
-9.423260
 20
38.695198
  0
VERTEX
  8
equipamento_cultural
 10
-9.423255
 20
38.695169
  0
VERTEX
  8
equipamento_cultural
 10
-9.423329
 20
38.695090
  0
VERTEX
  8
equipamento_cultural
 10
-9.423373
 20
38.695111
  0
VERTEX
  8
equipamento_cultural
 10
-9.423384
 20
38.695110
  0
VERTEX
  8
equipamento_cultural
 10
-9.423352
 20
38.694902
  0
VERTEX
  8
equipamento_cultural
 10
-9.423342
 20
38.694903
  0
VERTEX
  8
equipamento_cultural
 10
-9.423332
 20
38.694905
  0
VERTEX
  8
equipamento_cultural
 10
-9.423330
 20
38.694897
  0
VERTEX
  8
equipamento_cultural
 10
-9.423323
 20
38.694869
  0
VERTEX
  8
equipamento_cultural
 10
-9.423254
 20
38.694878
  0
VERTEX
  8
equipamento_cultural
 10
-9.423231
 20
38.694780
  0
VERTEX
  8
equipamento_cultural
 10
-9.423251
 20
38.694778
  0
VERTEX
  8
equipamento_cultural
 10
-9.423246
 20
38.694753
  0
VERTEX
  8
equipamento_cultural
 10
-9.423447
 20
38.694724
  0
VERTEX
  8
equipamento_cultural
 10
-9.423466
 20
38.694721
  0
VERTEX
  8
equipamento_cultural
 10
-9.423472
 20
38.694745
  0
VERTEX
  8
equipamento_cultural
 10
-9.423484
 20
38.694743
  0
VERTEX
  8
equipamento_cultural
 10
-9.423507
 20
38.694843
  0
VERTEX
  8
equipamento_cultural
 10
-9.423441
 20
38.694853
  0
VERTEX
  8
equipamento_cultural
 10
-9.423449
 20
38.694889
  0
VERTEX
  8
equipamento_cultural
 10
-9.423428
 20
38.694892
  0
VERTEX
  8
equipamento_cultural
 10
-9.423457
 20
38.695104
  0
VERTEX
  8
equipamento_cultural
 10
-9.423468
 20
38.695102
  0
VERTEX
  8
equipamento_cultural
 10
-9.423505
 20
38.695064
  0
VERTEX
  8
equipamento_cultural
 10
-9.423548
 20
38.695091
  0
VERTEX
  8
equipamento_cultural
 10
-9.423638
 20
38.695147
  0
VERTEX
  8
equipamento_cultural
 10
-9.423688
 20
38.695140
  0
VERTEX
  8
equipamento_cultural
 10
-9.423687
 20
38.695136
  0
VERTEX
  8
equipamento_cultural
 10
-9.423728
 20
38.695132
  0
VERTEX
  8
equipamento_cultural
 10
-9.423738
 20
38.695184
  0
SEQEND
  0
POINT
  8
equipamento_cultural
  6
BYLAYER
 10
-9.423429
 20
38.695064
 50
0.000000
  0
POLYLINE
  8
equipamento_cultural
  6
BYLAYER
 66
1
 70
1
 40
0.000000
 41
0.000000
  0
VERTEX
  8
equipamento_cultural
 10
-9.421585
 20
38.697526
  0
VERTEX
  8
equipamento_cultural
 10
-9.421511
 20
38.697539
  0
VERTEX
  8
equipamento_cultural
 10
-9.421437
 20
38.697555
  0
VERTEX
  8
equipamento_cultural
 10
-9.421415
 20
38.697560
  0
VERTEX
  8
equipamento_cultural
 10
-9.421411
 20
38.697561
  0
VERTEX
  8
equipamento_cultural
 10
-9.421396
 20
38.697568
  0
VERTEX
  8
equipamento_cultural
 10
-9.421366
 20
38.697490
  0
VERTEX
  8
equipamento_cultural
 10
-9.421513
 20
38.697464
  0
VERTEX
  8
equipamento_cultural
 10
-9.421562
 20
38.697460
  0
VERTEX
  8
equipamento_cultural
 10
-9.421585
 20
38.697526
  0
SEQEND
  0
POINT
  8
equipamento_cultural
  6
BYLAYER
 10
-9.421475
 20
38.697509
 50
0.000000
  0
POLYLINE
  8
equipamento_cultural
  6
BYLAYER
 66
1
 70
1
 40
0.000000
 41
0.000000
  0
VERTEX
  8
equipamento_cultural
 10
-9.421636
 20
38.696223
  0
VERTEX
  8
equipamento_cultural
 10
-9.421612
 20
38.696233
  0
VERTEX
  8
equipamento_cultural
 10
-9.421574
 20
38.696248
  0
VERTEX
  8
equipamento_cultural
 10
-9.421606
 20
38.696297
  0
VERTEX
  8
equipamento_cultural
 10
-9.421563
 20
38.696314
  0
VERTEX
  8
equipamento_cultural
 10
-9.421487
 20
38.696344
  0
VERTEX
  8
equipamento_cultural
 10
-9.421314
 20
38.696099
  0
VERTEX
  8
equipamento_cultural
 10
-9.421330
 20
38.696094
  0
VERTEX
  8
equipamento_cultural
 10
-9.421399
 20
38.696076
  0
VERTEX
  8
equipamento_cultural
 10
-9.421430
 20
38.696068
  0
VERTEX
  8
equipamento_cultural
 10
-9.421447
 20
38.696063
  0
VERTEX
  8
equipamento_cultural
 10
-9.421518
 20
38.696044
  0
VERTEX
  8
equipamento_cultural
 10
-9.421636
 20
38.696223
  0
SEQEND
  0
POINT
  8
equipamento_cultural
  6
BYLAYER
 10
-9.421486
 20
38.696184
 50
0.000000
  0
POLYLINE
  8
equipamento_cultural
  6
BYLAYER
 66
1
 70
1
 40
0.000000
 41
0.000000
  0
VERTEX
  8
equipamento_cultural
 10
-9.403644
 20
38.707339
  0
VERTEX
  8
equipamento_cultural
 10
-9.403729
 20
38.707437
  0
VERTEX
  8
equipamento_cultural
 10
-9.403712
 20
38.707445
  0
VERTEX
  8
equipamento_cultural
 10
-9.403727
 20
38.707463
  0
VERTEX
  8
equipamento_cultural
 10
-9.403640
 20
38.707508
  0
VERTEX
  8
equipamento_cultural
 10
-9.403648
 20
38.707517
  0
VERTEX
  8
equipamento_cultural
 10
-9.403616
 20
38.707534
  0
VERTEX
  8
equipamento_cultural
 10
-9.403605
 20
38.707522
  0
VERTEX
  8
equipamento_cultural
 10
-9.403552
 20
38.707550
  0
VERTEX
  8
equipamento_cultural
 10
-9.403564
 20
38.707564
  0
VERTEX
  8
equipamento_cultural
 10
-9.403517
 20
38.707589
  0
VERTEX
  8
equipamento_cultural
 10
-9.403506
 20
38.707576
  0
VERTEX
  8
equipamento_cultural
 10
-9.403467
 20
38.707596
  0
VERTEX
  8
equipamento_cultural
 10
-9.403454
 20
38.707581
  0
VERTEX
  8
equipamento_cultural
 10
-9.403451
 20
38.707583
  0
VERTEX
  8
equipamento_cultural
 10
-9.403370
 20
38.707488
  0
VERTEX
  8
equipamento_cultural
 10
-9.403327
 20
38.707511
  0
VERTEX
  8
equipamento_cultural
 10
-9.403336
 20
38.707521
  0
VERTEX
  8
equipamento_cultural
 10
-9.403368
 20
38.707504
  0
VERTEX
  8
equipamento_cultural
 10
-9.403398
 20
38.707540
  0
VERTEX
  8
equipamento_cultural
 10
-9.403380
 20
38.707549
  0
VERTEX
  8
equipamento_cultural
 10
-9.403449
 20
38.707630
  0
VERTEX
  8
equipamento_cultural
 10
-9.403397
 20
38.707648
  0
VERTEX
  8
equipamento_cultural
 10
-9.403317
 20
38.707557
  0
VERTEX
  8
equipamento_cultural
 10
-9.403277
 20
38.707511
  0
VERTEX
  8
equipamento_cultural
 10
-9.403260
 20
38.707491
  0
VERTEX
  8
equipamento_cultural
 10
-9.403257
 20
38.707489
  0
VERTEX
  8
equipamento_cultural
 10
-9.403280
 20
38.707476
  0
VERTEX
  8
equipamento_cultural
 10
-9.403288
 20
38.707471
  0
VERTEX
  8
equipamento_cultural
 10
-9.403287
 20
38.707471
  0
VERTEX
  8
equipamento_cultural
 10
-9.403251
 20
38.707429
  0
VERTEX
  8
equipamento_cultural
 10
-9.403391
 20
38.707382
  0
VERTEX
  8
equipamento_cultural
 10
-9.403420
 20
38.707374
  0
VERTEX
  8
equipamento_cultural
 10
-9.403466
 20
38.707360
  0
VERTEX
  8
equipamento_cultural
 10
-9.403482
 20
38.707326
  0
VERTEX
  8
equipamento_cultural
 10
-9.403514
 20
38.707317
  0
VERTEX
  8
equipamento_cultural
 10
-9.403575
 20
38.707300
  0
VERTEX
  8
equipamento_cultural
 10
-9.403633
 20
38.707283
  0
VERTEX
  8
equipamento_cultural
 10
-9.403649
 20
38.707306
  0
VERTEX
  8
equipamento_cultural
 10
-9.403625
 20
38.707318
  0
VERTEX
  8
equipamento_cultural
 10
-9.403644
 20
38.707339
  0
SEQEND
  0
POINT
  8
equipamento_cultural
  6
BYLAYER
 10
-9.403493
 20
38.707456
 50
0.000000
  0
POLYLINE
  8
equipamento_cultural
  6
BYLAYER
 66
1
 70
1
 40
0.000000
 41
0.000000
  0
VERTEX
  8
equipamento_cultural
 10
-9.398213
 20
38.738123
  0
VERTEX
  8
equipamento_cultural
 10
-9.397484
 20
38.738219
  0
VERTEX
  8
equipamento_cultural
 10
-9.397468
 20
38.738149
  0
VERTEX
  8
equipamento_cultural
 10
-9.397450
 20
38.738073
  0
VERTEX
  8
equipamento_cultural
 10
-9.397484
 20
38.738068
  0
VERTEX
  8
equipamento_cultural
 10
-9.397450
 20
38.737918
  0
VERTEX
  8
equipamento_cultural
 10
-9.397471
 20
38.737894
  0
VERTEX
  8
equipamento_cultural
 10
-9.397462
 20
38.737852
  0
VERTEX
  8
equipamento_cultural
 10
-9.397699
 20
38.737819
  0
VERTEX
  8
equipamento_cultural
 10
-9.397695
 20
38.737801
  0
VERTEX
  8
equipamento_cultural
 10
-9.397773
 20
38.737790
  0
VERTEX
  8
equipamento_cultural
 10
-9.397767
 20
38.737763
  0
VERTEX
  8
equipamento_cultural
 10
-9.397735
 20
38.737624
  0
VERTEX
  8
equipamento_cultural
 10
-9.397678
 20
38.737372
  0
VERTEX
  8
equipamento_cultural
 10
-9.397815
 20
38.737353
  0
VERTEX
  8
equipamento_cultural
 10
-9.397906
 20
38.737340
  0
VERTEX
  8
equipamento_cultural
 10
-9.397921
 20
38.737338
  0
VERTEX
  8
equipamento_cultural
 10
-9.398080
 20
38.737316
  0
VERTEX
  8
equipamento_cultural
 10
-9.398082
 20
38.737322
  0
VERTEX
  8
equipamento_cultural
 10
-9.398091
 20
38.737365
  0
VERTEX
  8
equipamento_cultural
 10
-9.398213
 20
38.738123
  0
SEQEND
  0
POINT
  8
equipamento_cultural
  6
BYLAYER
 10
-9.397864
 20
38.737819
 50
0.000000
  0
POLYLINE
  8
equipamento_cultural
  6
BYLAYER
 66
1
 70
1
 40
0.000000
 41
0.000000
  0
VERTEX
  8
equipamento_cultural
 10
-9.421127
 20
38.692931
  0
VERTEX
  8
equipamento_cultural
 10
-9.421116
 20
38.692943
  0
VERTEX
  8
equipamento_cultural
 10
-9.421122
 20
38.692946
  0
VERTEX
  8
equipamento_cultural
 10
-9.421103
 20
38.692968
  0
VERTEX
  8
equipamento_cultural
 10
-9.421077
 20
38.692999
  0
VERTEX
  8
equipamento_cultural
 10
-9.421064
 20
38.693014
  0
VERTEX
  8
equipamento_cultural
 10
-9.421029
 20
38.692996
  0
VERTEX
  8
equipamento_cultural
 10
-9.420988
 20
38.693044
  0
VERTEX
  8
equipamento_cultural
 10
-9.421003
 20
38.693053
  0
VERTEX
  8
equipamento_cultural
 10
-9.421022
 20
38.693062
  0
VERTEX
  8
equipamento_cultural
 10
-9.420994
 20
38.693094
  0
VERTEX
  8
equipamento_cultural
 10
-9.420957
 20
38.693075
  0
VERTEX
  8
equipamento_cultural
 10
-9.420889
 20
38.693039
  0
VERTEX
  8
equipamento_cultural
 10
-9.420953
 20
38.692963
  0
VERTEX
  8
equipamento_cultural
 10
-9.420948
 20
38.692959
  0
VERTEX
  8
equipamento_cultural
 10
-9.421003
 20
38.692891
  0
VERTEX
  8
equipamento_cultural
 10
-9.421034
 20
38.692907
  0
VERTEX
  8
equipamento_cultural
 10
-9.421043
 20
38.692895
  0
VERTEX
  8
equipamento_cultural
 10
-9.421086
 20
38.692917
  0
VERTEX
  8
equipamento_cultural
 10
-9.421090
 20
38.692912
  0
VERTEX
  8
equipamento_cultural
 10
-9.421127
 20
38.692931
  0
SEQEND
  0
POINT
  8
equipamento_cultural
  6
BYLAYER
 10
-9.421006
 20
38.692983
 50
0.000000
  0
POLYLINE
  8
equipamento_cultural
  6
BYLAYER
 66
1
 70
1
 40
0.000000
 41
0.000000
  0
VERTEX
  8
equipamento_cultural
 10
-9.418705
 20
38.693249
  0
VERTEX
  8
equipamento_cultural
 10
-9.418703
 20
38.693324
  0
VERTEX
  8
equipamento_cultural
 10
-9.418703
 20
38.693333
  0
VERTEX
  8
equipamento_cultural
 10
-9.418700
 20
38.693336
  0
VERTEX
  8
equipamento_cultural
 10
-9.418691
 20
38.693343
  0
VERTEX
  8
equipamento_cultural
 10
-9.418681
 20
38.693319
  0
VERTEX
  8
equipamento_cultural
 10
-9.418673
 20
38.693312
  0
VERTEX
  8
equipamento_cultural
 10
-9.418673
 20
38.693307
  0
VERTEX
  8
equipamento_cultural
 10
-9.418649
 20
38.693308
  0
VERTEX
  8
equipamento_cultural
 10
-9.418651
 20
38.693322
  0
VERTEX
  8
equipamento_cultural
 10
-9.418645
 20
38.693322
  0
VERTEX
  8
equipamento_cultural
 10
-9.418714
 20
38.693592
  0
VERTEX
  8
equipamento_cultural
 10
-9.418763
 20
38.693587
  0
VERTEX
  8
equipamento_cultural
 10
-9.418844
 20
38.693760
  0
VERTEX
  8
equipamento_cultural
 10
-9.418847
 20
38.693760
  0
VERTEX
  8
equipamento_cultural
 10
-9.418850
 20
38.693761
  0
VERTEX
  8
equipamento_cultural
 10
-9.418853
 20
38.693763
  0
VERTEX
  8
equipamento_cultural
 10
-9.418855
 20
38.693765
  0
VERTEX
  8
equipamento_cultural
 10
-9.418857
 20
38.693767
  0
VERTEX
  8
equipamento_cultural
 10
-9.418858
 20
38.693770
  0
VERTEX
  8
equipamento_cultural
 10
-9.418859
 20
38.693772
  0
VERTEX
  8
equipamento_cultural
 10
-9.418858
 20
38.693775
  0
VERTEX
  8
equipamento_cultural
 10
-9.418857
 20
38.693778
  0
VERTEX
  8
equipamento_cultural
 10
-9.418855
 20
38.693780
  0
VERTEX
  8
equipamento_cultural
 10
-9.418853
 20
38.693782
  0
VERTEX
  8
equipamento_cultural
 10
-9.418850
 20
38.693783
  0
VERTEX
  8
equipamento_cultural
 10
-9.418847
 20
38.693784
  0
VERTEX
  8
equipamento_cultural
 10
-9.418844
 20
38.693785
  0
VERTEX
  8
equipamento_cultural
 10
-9.418840
 20
38.693785
  0
VERTEX
  8
equipamento_cultural
 10
-9.418837
 20
38.693784
  0
VERTEX
  8
equipamento_cultural
 10
-9.418834
 20
38.693783
  0
VERTEX
  8
equipamento_cultural
 10
-9.418831
 20
38.693781
  0
VERTEX
  8
equipamento_cultural
 10
-9.418829
 20
38.693779
  0
VERTEX
  8
equipamento_cultural
 10
-9.418828
 20
38.693776
  0
VERTEX
  8
equipamento_cultural
 10
-9.418827
 20
38.693774
  0
VERTEX
  8
equipamento_cultural
 10
-9.418827
 20
38.693771
  0
VERTEX
  8
equipamento_cultural
 10
-9.418828
 20
38.693769
  0
VERTEX
  8
equipamento_cultural
 10
-9.418630
 20
38.693677
  0
VERTEX
  8
equipamento_cultural
 10
-9.418649
 20
38.693639
  0
VERTEX
  8
equipamento_cultural
 10
-9.418493
 20
38.693599
  0
VERTEX
  8
equipamento_cultural
 10
-9.418419
 20
38.693579
  0
VERTEX
  8
equipamento_cultural
 10
-9.418405
 20
38.693603
  0
VERTEX
  8
equipamento_cultural
 10
-9.418451
 20
38.693623
  0
VERTEX
  8
equipamento_cultural
 10
-9.418437
 20
38.693625
  0
VERTEX
  8
equipamento_cultural
 10
-9.418430
 20
38.693626
  0
VERTEX
  8
equipamento_cultural
 10
-9.418389
 20
38.693623
  0
VERTEX
  8
equipamento_cultural
 10
-9.418274
 20
38.693615
  0
VERTEX
  8
equipamento_cultural
 10
-9.418259
 20
38.693614
  0
VERTEX
  8
equipamento_cultural
 10
-9.418259
 20
38.693577
  0
VERTEX
  8
equipamento_cultural
 10
-9.418269
 20
38.693578
  0
VERTEX
  8
equipamento_cultural
 10
-9.418258
 20
38.693539
  0
VERTEX
  8
equipamento_cultural
 10
-9.418245
 20
38.693543
  0
VERTEX
  8
equipamento_cultural
 10
-9.418226
 20
38.693516
  0
VERTEX
  8
equipamento_cultural
 10
-9.418337
 20
38.693449
  0
VERTEX
  8
equipamento_cultural
 10
-9.418373
 20
38.693476
  0
VERTEX
  8
equipamento_cultural
 10
-9.418521
 20
38.693318
  0
VERTEX
  8
equipamento_cultural
 10
-9.418486
 20
38.693290
  0
VERTEX
  8
equipamento_cultural
 10
-9.418564
 20
38.693158
  0
VERTEX
  8
equipamento_cultural
 10
-9.418563
 20
38.693157
  0
VERTEX
  8
equipamento_cultural
 10
-9.418562
 20
38.693155
  0
VERTEX
  8
equipamento_cultural
 10
-9.418561
 20
38.693153
  0
VERTEX
  8
equipamento_cultural
 10
-9.418561
 20
38.693151
  0
VERTEX
  8
equipamento_cultural
 10
-9.418562
 20
38.693149
  0
VERTEX
  8
equipamento_cultural
 10
-9.418563
 20
38.693148
  0
VERTEX
  8
equipamento_cultural
 10
-9.418564
 20
38.693146
  0
VERTEX
  8
equipamento_cultural
 10
-9.418566
 20
38.693145
  0
VERTEX
  8
equipamento_cultural
 10
-9.418568
 20
38.693144
  0
VERTEX
  8
equipamento_cultural
 10
-9.418570
 20
38.693143
  0
VERTEX
  8
equipamento_cultural
 10
-9.418573
 20
38.693143
  0
VERTEX
  8
equipamento_cultural
 10
-9.418575
 20
38.693144
  0
VERTEX
  8
equipamento_cultural
 10
-9.418578
 20
38.693144
  0
VERTEX
  8
equipamento_cultural
 10
-9.418579
 20
38.693145
  0
VERTEX
  8
equipamento_cultural
 10
-9.418581
 20
38.693147
  0
VERTEX
  8
equipamento_cultural
 10
-9.418583
 20
38.693148
  0
VERTEX
  8
equipamento_cultural
 10
-9.418583
 20
38.693150
  0
VERTEX
  8
equipamento_cultural
 10
-9.418584
 20
38.693152
  0
VERTEX
  8
equipamento_cultural
 10
-9.418584
 20
38.693154
  0
VERTEX
  8
equipamento_cultural
 10
-9.418583
 20
38.693155
  0
VERTEX
  8
equipamento_cultural
 10
-9.418582
 20
38.693157
  0
VERTEX
  8
equipamento_cultural
 10
-9.418580
 20
38.693159
  0
VERTEX
  8
equipamento_cultural
 10
-9.418662
 20
38.693191
  0
VERTEX
  8
equipamento_cultural
 10
-9.418664
 20
38.693184
  0
VERTEX
  8
equipamento_cultural
 10
-9.418708
 20
38.693189
  0
VERTEX
  8
equipamento_cultural
 10
-9.418705
 20
38.693249
  0
SEQEND
  0
POINT
  8
equipamento_cultural
  6
BYLAYER
 10
-9.418557
 20
38.693475
 50
0.000000
  0
POLYLINE
  8
equipamento_cultural
  6
BYLAYER
 66
1
 70
1
 40
0.000000
 41
0.000000
  0
VERTEX
  8
equipamento_cultural
 10
-9.420627
 20
38.696884
  0
VERTEX
  8
equipamento_cultural
 10
-9.420490
 20
38.696724
  0
VERTEX
  8
equipamento_cultural
 10
-9.420678
 20
38.696626
  0
VERTEX
  8
equipamento_cultural
 10
-9.420830
 20
38.696793
  0
VERTEX
  8
equipamento_cultural
 10
-9.420627
 20
38.696884
  0
SEQEND
  0
POINT
  8
equipamento_cultural
  6
BYLAYER
 10
-9.420658
 20
38.696757
 50
0.000000
  0
POLYLINE
  8
equipamento_cultural
  6
BYLAYER
 66
1
 70
1
 40
0.000000
 41
0.000000
  0
VERTEX
  8
equipamento_cultural
 10
-9.418165
 20
38.694150
  0
VERTEX
  8
equipamento_cultural
 10
-9.418151
 20
38.694144
  0
VERTEX
  8
equipamento_cultural
 10
-9.418145
 20
38.694137
  0
VERTEX
  8
equipamento_cultural
 10
-9.418139
 20
38.694121
  0
VERTEX
  8
equipamento_cultural
 10
-9.418141
 20
38.694100
  0
VERTEX
  8
equipamento_cultural
 10
-9.418230
 20
38.694054
  0
VERTEX
  8
equipamento_cultural
 10
-9.418278
 20
38.694115
  0
VERTEX
  8
equipamento_cultural
 10
-9.418165
 20
38.694150
  0
SEQEND
  0
POINT
  8
equipamento_cultural
  6
BYLAYER
 10
-9.418203
 20
38.694106
 50
0.000000
  0
POLYLINE
  8
equipamento_cultural
  6
BYLAYER
 66
1
 70
1
 40
0.000000
 41
0.000000
  0
VERTEX
  8
equipamento_cultural
 10
-9.335898
 20
38.698841
  0
VERTEX
  8
equipamento_cultural
 10
-9.336005
 20
38.698405
  0
VERTEX
  8
equipamento_cultural
 10
-9.336040
 20
38.698263
  0
VERTEX
  8
equipamento_cultural
 10
-9.336045
 20
38.698244
  0
VERTEX
  8
equipamento_cultural
 10
-9.336213
 20
38.697559
  0
VERTEX
  8
equipamento_cultural
 10
-9.336700
 20
38.697680
  0
VERTEX
  8
equipamento_cultural
 10
-9.337161
 20
38.697794
  0
VERTEX
  8
equipamento_cultural
 10
-9.337527
 20
38.697884
  0
VERTEX
  8
equipamento_cultural
 10
-9.337745
 20
38.697940
  0
VERTEX
  8
equipamento_cultural
 10
-9.337925
 20
38.697985
  0
VERTEX
  8
equipamento_cultural
 10
-9.338176
 20
38.698047
  0
VERTEX
  8
equipamento_cultural
 10
-9.338086
 20
38.698242
  0
VERTEX
  8
equipamento_cultural
 10
-9.337960
 20
38.698516
  0
VERTEX
  8
equipamento_cultural
 10
-9.337838
 20
38.698784
  0
VERTEX
  8
equipamento_cultural
 10
-9.337759
 20
38.698789
  0
VERTEX
  8
equipamento_cultural
 10
-9.337534
 20
38.698802
  0
VERTEX
  8
equipamento_cultural
 10
-9.337439
 20
38.698813
  0
VERTEX
  8
equipamento_cultural
 10
-9.337270
 20
38.698831
  0
VERTEX
  8
equipamento_cultural
 10
-9.337272
 20
38.698891
  0
VERTEX
  8
equipamento_cultural
 10
-9.337295
 20
38.699022
  0
VERTEX
  8
equipamento_cultural
 10
-9.337302
 20
38.699060
  0
VERTEX
  8
equipamento_cultural
 10
-9.337207
 20
38.699044
  0
VERTEX
  8
equipamento_cultural
 10
-9.337175
 20
38.699019
  0
VERTEX
  8
equipamento_cultural
 10
-9.337128
 20
38.699012
  0
VERTEX
  8
equipamento_cultural
 10
-9.337083
 20
38.699022
  0
VERTEX
  8
equipamento_cultural
 10
-9.336664
 20
38.698959
  0
VERTEX
  8
equipamento_cultural
 10
-9.336643
 20
38.698946
  0
VERTEX
  8
equipamento_cultural
 10
-9.336626
 20
38.698935
  0
VERTEX
  8
equipamento_cultural
 10
-9.336524
 20
38.698919
  0
VERTEX
  8
equipamento_cultural
 10
-9.336506
 20
38.698916
  0
VERTEX
  8
equipamento_cultural
 10
-9.336462
 20
38.698908
  0
VERTEX
  8
equipamento_cultural
 10
-9.336419
 20
38.698920
  0
VERTEX
  8
equipamento_cultural
 10
-9.335898
 20
38.698841
  0
SEQEND
  0
POINT
  8
equipamento_cultural
  6
BYLAYER
 10
-9.336941
 20
38.698338
 50
0.000000
  0
POLYLINE
  8
equipamento_cultural
  6
BYLAYER
 66
1
 70
1
 40
0.000000
 41
0.000000
  0
VERTEX
  8
equipamento_cultural
 10
-9.463030
 20
38.718448
  0
VERTEX
  8
equipamento_cultural
 10
-9.463190
 20
38.718848
  0
VERTEX
  8
equipamento_cultural
 10
-9.463188
 20
38.718849
  0
VERTEX
  8
equipamento_cultural
 10
-9.462719
 20
38.718920
  0
VERTEX
  8
equipamento_cultural
 10
-9.462363
 20
38.718392
  0
VERTEX
  8
equipamento_cultural
 10
-9.462874
 20
38.718326
  0
VERTEX
  8
equipamento_cultural
 10
-9.463021
 20
38.718441
  0
VERTEX
  8
equipamento_cultural
 10
-9.463030
 20
38.718448
  0
SEQEND
  0
POINT
  8
equipamento_cultural
  6
BYLAYER
 10
-9.462801
 20
38.718613
 50
0.000000
  0
POLYLINE
  8
equipamento_cultural
  6
BYLAYER
 66
1
 70
1
 40
0.000000
 41
0.000000
  0
VERTEX
  8
equipamento_cultural
 10
-9.402185
 20
38.735942
  0
VERTEX
  8
equipamento_cultural
 10
-9.400499
 20
38.736059
  0
VERTEX
  8
equipamento_cultural
 10
-9.400488
 20
38.735999
  0
VERTEX
  8
equipamento_cultural
 10
-9.400536
 20
38.735984
  0
VERTEX
  8
equipamento_cultural
 10
-9.400590
 20
38.735957
  0
VERTEX
  8
equipamento_cultural
 10
-9.400640
 20
38.735929
  0
VERTEX
  8
equipamento_cultural
 10
-9.400681
 20
38.735895
  0
VERTEX
  8
equipamento_cultural
 10
-9.400721
 20
38.735862
  0
VERTEX
  8
equipamento_cultural
 10
-9.400751
 20
38.735822
  0
VERTEX
  8
equipamento_cultural
 10
-9.400764
 20
38.735789
  0
VERTEX
  8
equipamento_cultural
 10
-9.400894
 20
38.735773
  0
VERTEX
  8
equipamento_cultural
 10
-9.400877
 20
38.735663
  0
VERTEX
  8
equipamento_cultural
 10
-9.402164
 20
38.735332
  0
VERTEX
  8
equipamento_cultural
 10
-9.402177
 20
38.735462
  0
VERTEX
  8
equipamento_cultural
 10
-9.402152
 20
38.735472
  0
VERTEX
  8
equipamento_cultural
 10
-9.402131
 20
38.735486
  0
VERTEX
  8
equipamento_cultural
 10
-9.402114
 20
38.735501
  0
VERTEX
  8
equipamento_cultural
 10
-9.402104
 20
38.735522
  0
VERTEX
  8
equipamento_cultural
 10
-9.402096
 20
38.735547
  0
VERTEX
  8
equipamento_cultural
 10
-9.402099
 20
38.735574
  0
VERTEX
  8
equipamento_cultural
 10
-9.402116
 20
38.735606
  0
VERTEX
  8
equipamento_cultural
 10
-9.402150
 20
38.735631
  0
VERTEX
  8
equipamento_cultural
 10
-9.402163
 20
38.735756
  0
VERTEX
  8
equipamento_cultural
 10
-9.402134
 20
38.735761
  0
VERTEX
  8
equipamento_cultural
 10
-9.402148
 20
38.735861
  0
VERTEX
  8
equipamento_cultural
 10
-9.402180
 20
38.735866
  0
VERTEX
  8
equipamento_cultural
 10
-9.402185
 20
38.735942
  0
SEQEND
  0
POINT
  8
equipamento_cultural
  6
BYLAYER
 10
-9.401490
 20
38.735755
 50
0.000000
  0
POLYLINE
  8
equipamento_cultural
  6
BYLAYER
 66
1
 70
1
 40
0.000000
 41
0.000000
  0
VERTEX
  8
equipamento_cultural
 10
-9.422189
 20
38.697822
  0
VERTEX
  8
equipamento_cultural
 10
-9.422236
 20
38.697874
  0
VERTEX
  8
equipamento_cultural
 10
-9.422199
 20
38.697896
  0
VERTEX
  8
equipamento_cultural
 10
-9.422182
 20
38.697911
  0
VERTEX
  8
equipamento_cultural
 10
-9.422117
 20
38.697873
  0
VERTEX
  8
equipamento_cultural
 10
-9.422189
 20
38.697822
  0
SEQEND
  0
POINT
  8
equipamento_cultural
  6
BYLAYER
 10
-9.422179
 20
38.697868
 50
0.000000
  0
POLYLINE
  8
equipamento_cultural
  6
BYLAYER
 66
1
 70
1
 40
0.000000
 41
0.000000
  0
VERTEX
  8
equipamento_cultural
 10
-9.352284
 20
38.723012
  0
VERTEX
  8
equipamento_cultural
 10
-9.352370
 20
38.723106
  0
VERTEX
  8
equipamento_cultural
 10
-9.352329
 20
38.723129
  0
VERTEX
  8
equipamento_cultural
 10
-9.352333
 20
38.723133
  0
VERTEX
  8
equipamento_cultural
 10
-9.352273
 20
38.723167
  0
VERTEX
  8
equipamento_cultural
 10
-9.352170
 20
38.723058
  0
VERTEX
  8
equipamento_cultural
 10
-9.352232
 20
38.723022
  0
VERTEX
  8
equipamento_cultural
 10
-9.352244
 20
38.723035
  0
VERTEX
  8
equipamento_cultural
 10
-9.352284
 20
38.723012
  0
SEQEND
  0
POINT
  8
equipamento_cultural
  6
BYLAYER
 10
-9.352271
 20
38.723086
 50
0.000000
  0
POLYLINE
  8
equipamento_cultural
  6
BYLAYER
 66
1
 70
1
 40
0.000000
 41
0.000000
  0
VERTEX
  8
equipamento_cultural
 10
-9.365371
 20
38.701740
  0
VERTEX
  8
equipamento_cultural
 10
-9.365299
 20
38.701752
  0
VERTEX
  8
equipamento_cultural
 10
-9.365284
 20
38.701701
  0
VERTEX
  8
equipamento_cultural
 10
-9.365358
 20
38.701690
  0
VERTEX
  8
equipamento_cultural
 10
-9.365371
 20
38.701740
  0
SEQEND
  0
POINT
  8
equipamento_cultural
  6
BYLAYER
 10
-9.365328
 20
38.701721
 50
0.000000
  0
POLYLINE
  8
equipamento_cultural
  6
BYLAYER
 66
1
 70
1
 40
0.000000
 41
0.000000
  0
VERTEX
  8
equipamento_cultural
 10
-9.421763
 20
38.695293
  0
VERTEX
  8
equipamento_cultural
 10
-9.421600
 20
38.695006
  0
VERTEX
  8
equipamento_cultural
 10
-9.421634
 20
38.694977
  0
VERTEX
  8
equipamento_cultural
 10
-9.421674
 20
38.694956
  0
VERTEX
  8
equipamento_cultural
 10
-9.421691
 20
38.694949
  0
VERTEX
  8
equipamento_cultural
 10
-9.421707
 20
38.694946
  0
VERTEX
  8
equipamento_cultural
 10
-9.421725
 20
38.694947
  0
VERTEX
  8
equipamento_cultural
 10
-9.421739
 20
38.694951
  0
VERTEX
  8
equipamento_cultural
 10
-9.421754
 20
38.694958
  0
VERTEX
  8
equipamento_cultural
 10
-9.421767
 20
38.694967
  0
VERTEX
  8
equipamento_cultural
 10
-9.421790
 20
38.695003
  0
VERTEX
  8
equipamento_cultural
 10
-9.421829
 20
38.695063
  0
VERTEX
  8
equipamento_cultural
 10
-9.421943
 20
38.695265
  0
VERTEX
  8
equipamento_cultural
 10
-9.421947
 20
38.695263
  0
VERTEX
  8
equipamento_cultural
 10
-9.421980
 20
38.695320
  0
VERTEX
  8
equipamento_cultural
 10
-9.421958
 20
38.695330
  0
VERTEX
  8
equipamento_cultural
 10
-9.421997
 20
38.695411
  0
VERTEX
  8
equipamento_cultural
 10
-9.422026
 20
38.695459
  0
VERTEX
  8
equipamento_cultural
 10
-9.421996
 20
38.695479
  0
VERTEX
  8
equipamento_cultural
 10
-9.421952
 20
38.695493
  0
VERTEX
  8
equipamento_cultural
 10
-9.421922
 20
38.695501
  0
VERTEX
  8
equipamento_cultural
 10
-9.421907
 20
38.695501
  0
VERTEX
  8
equipamento_cultural
 10
-9.421888
 20
38.695489
  0
VERTEX
  8
equipamento_cultural
 10
-9.421844
 20
38.695420
  0
VERTEX
  8
equipamento_cultural
 10
-9.421835
 20
38.695422
  0
VERTEX
  8
equipamento_cultural
 10
-9.421810
 20
38.695372
  0
VERTEX
  8
equipamento_cultural
 10
-9.421776
 20
38.695314
  0
VERTEX
  8
equipamento_cultural
 10
-9.421763
 20
38.695293
  0
SEQEND
  0
POINT
  8
equipamento_cultural
  6
BYLAYER
 10
-9.421816
 20
38.695217
 50
0.000000
  0
ENDSEC
  0
EOF
